ISO-10303-21;
HEADER;
FILE_DESCRIPTION (( 'STEP AP203' ),
    '1' );
FILE_NAME ('01f6.STEP',
    '2022-07-08T15:10:13',
    ( '' ),
    ( '' ),
    'SwSTEP 2.0',
    'SolidWorks 2019',
    '' );
FILE_SCHEMA (( 'CONFIG_CONTROL_DESIGN' ));
ENDSEC;

DATA;
#1 = AXIS2_PLACEMENT_3D ( 'NONE', #299, #233, #273 ) ;
#2 = FACE_OUTER_BOUND ( 'NONE', #226, .T. ) ;
#3 = EDGE_LOOP ( 'NONE', ( #9, #151 ) ) ;
#4 = AXIS2_PLACEMENT_3D ( 'NONE', #181, #306, #367 ) ;
#5 = APPROVAL_PERSON_ORGANIZATION ( #199, #84, #266 ) ;
#6 = ORIENTED_EDGE ( 'NONE', *, *, #142, .F. ) ;
#7 = EDGE_CURVE ( 'NONE', #61, #237, #359, .T. ) ;
#8 = APPLICATION_PROTOCOL_DEFINITION ( 'international standard', 'config_control_design', 1994, #222 ) ;
#9 = ORIENTED_EDGE ( 'NONE', *, *, #236, .T. ) ;
#10 = CIRCLE ( 'NONE', #116, 4.000000000000000000 ) ;
#11 = APPROVAL_PERSON_ORGANIZATION ( #170, #264, #148 ) ;
#12 = ORIENTED_EDGE ( 'NONE', *, *, #7, .F. ) ;
#13 = CARTESIAN_POINT ( 'NONE',  ( -7.000000000000000000, 0.000000000000000000, 5.000000000000000000 ) ) ;
#14 = DIRECTION ( 'NONE',  ( 1.000000000000000000, 0.000000000000000000, 0.000000000000000000 ) ) ;
#15 = CC_DESIGN_PERSON_AND_ORGANIZATION_ASSIGNMENT ( #366, #304, ( #191 ) ) ;
#16 = DIRECTION ( 'NONE',  ( 0.000000000000000000, 0.000000000000000000, 1.000000000000000000 ) ) ;
#17 = LINE ( 'NONE', #163, #260 ) ;
#18 = PERSON_AND_ORGANIZATION ( #224, #152 ) ;
#19 = DIRECTION ( 'NONE',  ( -0.000000000000000000, -0.000000000000000000, -1.000000000000000000 ) ) ;
#20 = DIRECTION ( 'NONE',  ( 1.000000000000000000, 0.000000000000000000, -0.000000000000000000 ) ) ;
#21 = CIRCLE ( 'NONE', #340, 7.000000000000000000 ) ;
#22 = CC_DESIGN_PERSON_AND_ORGANIZATION_ASSIGNMENT ( #18, #302, ( #71 ) ) ;
#23 = VERTEX_POINT ( 'NONE', #179 ) ;
#24 = DIRECTION ( 'NONE',  ( 0.000000000000000000, 0.000000000000000000, 1.000000000000000000 ) ) ;
#25 = ORIENTED_EDGE ( 'NONE', *, *, #185, .T. ) ;
#26 = ORIENTED_EDGE ( 'NONE', *, *, #293, .F. ) ;
#27 = CALENDAR_DATE ( 2022, 8, 7 ) ;
#28 = ORIENTED_EDGE ( 'NONE', *, *, #287, .F. ) ;
#29 = CIRCLE ( 'NONE', #219, 4.500000000000000888 ) ;
#30 = CARTESIAN_POINT ( 'NONE',  ( 0.000000000000000000, 0.000000000000000000, 5.500000000000005329 ) ) ;
#31 = CARTESIAN_POINT ( 'NONE',  ( 0.000000000000000000, 0.000000000000000000, 80.00000000000000000 ) ) ;
#32 = EDGE_CURVE ( 'NONE', #94, #319, #336, .T. ) ;
#33 = FACE_OUTER_BOUND ( 'NONE', #175, .T. ) ;
#34 = EDGE_CURVE ( 'NONE', #55, #240, #305, .T. ) ;
#35 = COORDINATED_UNIVERSAL_TIME_OFFSET ( 1, 0, .AHEAD. ) ;
#36 = DIRECTION ( 'NONE',  ( -0.000000000000000000, -0.000000000000000000, -1.000000000000000000 ) ) ;
#37 = DIRECTION ( 'NONE',  ( 1.000000000000000000, 0.000000000000000000, 0.000000000000000000 ) ) ;
#38 = DIRECTION ( 'NONE',  ( -0.000000000000000000, -0.000000000000000000, -1.000000000000000000 ) ) ;
#39 = VECTOR ( 'NONE', #36, 1000.000000000000000 ) ;
#40 = AXIS2_PLACEMENT_3D ( 'NONE', #31, #98, #207 ) ;
#41 = CARTESIAN_POINT ( 'NONE',  ( -4.500000000000000888, 5.510910596163089556E-16, 5.500000000000005329 ) ) ;
#42 = PERSON_AND_ORGANIZATION ( #224, #152 ) ;
#43 = ORIENTED_EDGE ( 'NONE', *, *, #285, .F. ) ;
#44 = ADVANCED_BREP_SHAPE_REPRESENTATION ( '01f6', ( #89, #269 ), #270 ) ;
#45 = LOCAL_TIME ( 17, 10, 13.00000000000000000, #289 ) ;
#46 = CARTESIAN_POINT ( 'NONE',  ( 0.000000000000000000, 0.000000000000000000, 5.000000000000000000 ) ) ;
#47 = DIRECTION ( 'NONE',  ( 1.000000000000000000, 0.000000000000000000, 0.000000000000000000 ) ) ;
#48 = TOROIDAL_SURFACE ( 'NONE', #228, 4.500000000000000888, 0.5000000000000000000 ) ;
#49 = LOCAL_TIME ( 17, 10, 13.00000000000000000, #115 ) ;
#50 = DIRECTION ( 'NONE',  ( 0.000000000000000000, 0.000000000000000000, 1.000000000000000000 ) ) ;
#51 = DIRECTION ( 'NONE',  ( 0.000000000000000000, 0.000000000000000000, 1.000000000000000000 ) ) ;
#52 = ORIENTED_EDGE ( 'NONE', *, *, #142, .T. ) ;
#53 = MECHANICAL_CONTEXT ( 'NONE', #145, 'mechanical' ) ;
#54 = CARTESIAN_POINT ( 'NONE',  ( -4.000000000000000000, 0.000000000000000000, 80.00000000000000000 ) ) ;
#55 = VERTEX_POINT ( 'NONE', #337 ) ;
#56 = AXIS2_PLACEMENT_3D ( 'NONE', #364, #280, #184 ) ;
#57 = CC_DESIGN_APPROVAL ( #84, ( #71 ) ) ;
#58 = ORIENTED_EDGE ( 'NONE', *, *, #275, .F. ) ;
#59 = ORIENTED_EDGE ( 'NONE', *, *, #34, .F. ) ;
#60 = EDGE_CURVE ( 'NONE', #290, #55, #334, .T. ) ;
#61 = VERTEX_POINT ( 'NONE', #157 ) ;
#62 = DATE_AND_TIME ( #292, #216 ) ;
#63 = UNCERTAINTY_MEASURE_WITH_UNIT (LENGTH_MEASURE( 1.000000000000000082E-05 ), #188, 'distance_accuracy_value', 'NONE');
#64 = CARTESIAN_POINT ( 'NONE',  ( -7.000000000000000000, 0.000000000000000000, 5.000000000000000000 ) ) ;
#65 = EDGE_LOOP ( 'NONE', ( #381, #295, #67, #294 ) ) ;
#66 = CARTESIAN_POINT ( 'NONE',  ( 0.000000000000000000, 0.000000000000000000, 5.000000000000000000 ) ) ;
#67 = ORIENTED_EDGE ( 'NONE', *, *, #293, .T. ) ;
#68 = CARTESIAN_POINT ( 'NONE',  ( -2.600000000000000089, 0.000000000000000000, 80.00000000000000000 ) ) ;
#69 = VECTOR ( 'NONE', #162, 1000.000000000000000 ) ;
#70 = ADVANCED_FACE ( 'NONE', ( #33 ), #271, .T. ) ;
#71 = PRODUCT_DEFINITION_FORMATION_WITH_SPECIFIED_SOURCE ( 'LIBOVOLNÝ', '', #155, .NOT_KNOWN. ) ;
#72 = SECURITY_CLASSIFICATION_LEVEL ( 'unclassified' ) ;
#73 = VERTEX_POINT ( 'NONE', #297 ) ;
#74 = EDGE_CURVE ( 'NONE', #23, #229, #354, .T. ) ;
#75 = ORIENTED_EDGE ( 'NONE', *, *, #285, .T. ) ;
#76 = CARTESIAN_POINT ( 'NONE',  ( 2.600000000000000089, 3.184081677783118191E-16, 80.00000000000000000 ) ) ;
#77 = AXIS2_PLACEMENT_3D ( 'NONE', #183, #310, #107 ) ;
#78 = CYLINDRICAL_SURFACE ( 'NONE', #284, 7.000000000000000000 ) ;
#79 = CYLINDRICAL_SURFACE ( 'NONE', #365, 4.000000000000000000 ) ;
#80 = CC_DESIGN_DATE_AND_TIME_ASSIGNMENT ( #153, #362, ( #191 ) ) ;
#81 = AXIS2_PLACEMENT_3D ( 'NONE', #318, #50, #20 ) ;
#82 = FACE_BOUND ( 'NONE', #3, .T. ) ;
#83 = CC_DESIGN_APPROVAL ( #110, ( #191 ) ) ;
#84 = APPROVAL ( #261, 'NEURÈENÝ' ) ;
#85 = CYLINDRICAL_SURFACE ( 'NONE', #112, 4.000000000000000000 ) ;
#86 = ORIENTED_EDGE ( 'NONE', *, *, #32, .T. ) ;
#87 = DIRECTION ( 'NONE',  ( 1.000000000000000000, 0.000000000000000000, 0.000000000000000000 ) ) ;
#88 = AXIS2_PLACEMENT_3D ( 'NONE', #361, #203, #331 ) ;
#89 = MANIFOLD_SOLID_BREP ( 'Odebrat vysunutím3', #247 ) ;
#90 = CIRCLE ( 'NONE', #322, 7.000000000000000000 ) ;
#91 = PERSON_AND_ORGANIZATION ( #224, #152 ) ;
#92 = CC_DESIGN_PERSON_AND_ORGANIZATION_ASSIGNMENT ( #326, #230, ( #208 ) ) ;
#93 = VECTOR ( 'NONE', #278, 1000.000000000000000 ) ;
#94 = VERTEX_POINT ( 'NONE', #13 ) ;
#95 = AXIS2_PLACEMENT_3D ( 'NONE', #30, #51, #111 ) ;
#96 = DIRECTION ( 'NONE',  ( -0.000000000000000000, -0.000000000000000000, -1.000000000000000000 ) ) ;
#97 = FACE_BOUND ( 'NONE', #329, .T. ) ;
#98 = DIRECTION ( 'NONE',  ( 0.000000000000000000, 0.000000000000000000, 1.000000000000000000 ) ) ;
#99 = APPROVAL_DATE_TIME ( #328, #84 ) ;
#100 = DIRECTION ( 'NONE',  ( 0.000000000000000000, 0.000000000000000000, 1.000000000000000000 ) ) ;
#101 = PRODUCT_DEFINITION_SHAPE ( 'NONE', 'NONE',  #208 ) ;
#102 = DIRECTION ( 'NONE',  ( 0.000000000000000000, 0.000000000000000000, -1.000000000000000000 ) ) ;
#103 = AXIS2_PLACEMENT_3D ( 'NONE', #105, #249, #375 ) ;
#104 = ORIENTED_EDGE ( 'NONE', *, *, #106, .F. ) ;
#105 = CARTESIAN_POINT ( 'NONE',  ( 4.500000000000000888, 0.000000000000000000, 5.500000000000005329 ) ) ;
#106 = EDGE_CURVE ( 'NONE', #319, #237, #130, .T. ) ;
#107 = DIRECTION ( 'NONE',  ( 1.000000000000000000, 0.000000000000000000, 0.000000000000000000 ) ) ;
#108 = DIRECTION ( 'NONE',  ( -0.000000000000000000, -0.000000000000000000, -1.000000000000000000 ) ) ;
#109 = FACE_OUTER_BOUND ( 'NONE', #141, .T. ) ;
#110 = APPROVAL ( #156, 'NEURÈENÝ' ) ;
#111 = DIRECTION ( 'NONE',  ( 1.000000000000000000, 0.000000000000000000, 0.000000000000000000 ) ) ;
#112 = AXIS2_PLACEMENT_3D ( 'NONE', #332, #96, #178 ) ;
#113 = DIRECTION ( 'NONE',  ( 0.000000000000000000, 0.000000000000000000, 1.000000000000000000 ) ) ;
#114 = ORIENTED_EDGE ( 'NONE', *, *, #351, .T. ) ;
#115 = COORDINATED_UNIVERSAL_TIME_OFFSET ( 1, 0, .AHEAD. ) ;
#116 = AXIS2_PLACEMENT_3D ( 'NONE', #159, #16, #14 ) ;
#117 = ORIENTED_EDGE ( 'NONE', *, *, #106, .T. ) ;
#118 = VERTEX_POINT ( 'NONE', #276 ) ;
#119 = VERTEX_POINT ( 'NONE', #248 ) ;
#120 = CC_DESIGN_DATE_AND_TIME_ASSIGNMENT ( #62, #357, ( #208 ) ) ;
#121 = DIRECTION ( 'NONE',  ( 0.000000000000000000, 0.000000000000000000, 1.000000000000000000 ) ) ;
#122 = ORIENTED_EDGE ( 'NONE', *, *, #368, .T. ) ;
#123 = ORIENTED_EDGE ( 'NONE', *, *, #194, .T. ) ;
#124 = ORIENTED_EDGE ( 'NONE', *, *, #60, .T. ) ;
#125 = CALENDAR_DATE ( 2022, 8, 7 ) ;
#126 = ORIENTED_EDGE ( 'NONE', *, *, #342, .T. ) ;
#127 = ADVANCED_FACE ( 'NONE', ( #109 ), #376, .F. ) ;
#128 = CIRCLE ( 'NONE', #133, 4.000000000000000000 ) ;
#129 = CC_DESIGN_SECURITY_CLASSIFICATION ( #191, ( #71 ) ) ;
#130 = CIRCLE ( 'NONE', #251, 7.000000000000000000 ) ;
#131 = DIRECTION ( 'NONE',  ( 0.000000000000000000, 0.000000000000000000, 1.000000000000000000 ) ) ;
#132 = CARTESIAN_POINT ( 'NONE',  ( 0.000000000000000000, 0.000000000000000000, 5.000000000000000000 ) ) ;
#133 = AXIS2_PLACEMENT_3D ( 'NONE', #220, #167, #256 ) ;
#134 = FACE_OUTER_BOUND ( 'NONE', #65, .T. ) ;
#135 = DIRECTION ( 'NONE',  ( 1.000000000000000000, 0.000000000000000000, 0.000000000000000000 ) ) ;
#136 = EDGE_CURVE ( 'NONE', #290, #119, #17, .T. ) ;
#137 = CARTESIAN_POINT ( 'NONE',  ( 0.000000000000000000, 0.000000000000000000, 5.000000000000000000 ) ) ;
#138 = SHAPE_DEFINITION_REPRESENTATION ( #101, #44 ) ;
#139 = DIRECTION ( 'NONE',  ( 1.000000000000000000, 0.000000000000000000, 0.000000000000000000 ) ) ;
#140 = TOROIDAL_SURFACE ( 'NONE', #4, 4.500000000000000888, 0.5000000000000000000 ) ;
#141 = EDGE_LOOP ( 'NONE', ( #212, #350, #122, #52 ) ) ;
#142 = EDGE_CURVE ( 'NONE', #73, #147, #348, .T. ) ;
#143 = DATE_AND_TIME ( #187, #45 ) ;
#144 = DIRECTION ( 'NONE',  ( 1.000000000000000000, 0.000000000000000000, -0.000000000000000000 ) ) ;
#145 = APPLICATION_CONTEXT ( 'configuration controlled 3d designs of mechanical parts and assemblies' ) ;
#146 = DATE_AND_TIME ( #27, #323 ) ;
#147 = VERTEX_POINT ( 'NONE', #192 ) ;
#148 = APPROVAL_ROLE ( '' ) ;
#149 = CC_DESIGN_PERSON_AND_ORGANIZATION_ASSIGNMENT ( #91, #169, ( #155 ) ) ;
#150 = PLANE ( 'NONE',  #279 ) ;
#151 = ORIENTED_EDGE ( 'NONE', *, *, #275, .T. ) ;
#152 = ORGANIZATION ( 'NEURÈENÝ', 'NEURÈENÝ', '' ) ;
#153 = DATE_AND_TIME ( #125, #263 ) ;
#154 = ORIENTED_EDGE ( 'NONE', *, *, #189, .F. ) ;
#155 = PRODUCT ( '01f6', '01f6', '', ( #53 ) ) ;
#156 = APPROVAL_STATUS ( 'not_yet_approved' ) ;
#157 = CARTESIAN_POINT ( 'NONE',  ( 7.000000000000000000, 8.572527594031473190E-16, 5.000000000000000000 ) ) ;
#158 = EDGE_LOOP ( 'NONE', ( #75, #25 ) ) ;
#159 = CARTESIAN_POINT ( 'NONE',  ( 0.000000000000000000, 0.000000000000000000, 80.00000000000000000 ) ) ;
#160 = CIRCLE ( 'NONE', #77, 4.500000000000000888 ) ;
#161 = DIRECTION ( 'NONE',  ( 0.000000000000000000, 0.000000000000000000, -1.000000000000000000 ) ) ;
#162 = DIRECTION ( 'NONE',  ( 0.000000000000000000, 0.000000000000000000, -1.000000000000000000 ) ) ;
#163 = CARTESIAN_POINT ( 'NONE',  ( -4.000000000000000000, 0.000000000000000000, 80.00000000000000000 ) ) ;
#164 = AXIS2_PLACEMENT_3D ( 'NONE', #132, #286, #370 ) ;
#165 = AXIS2_PLACEMENT_3D ( 'NONE', #41, #277, #246 ) ;
#166 = FACE_OUTER_BOUND ( 'NONE', #158, .T. ) ;
#167 = DIRECTION ( 'NONE',  ( 0.000000000000000000, 0.000000000000000000, 1.000000000000000000 ) ) ;
#168 = EDGE_LOOP ( 'NONE', ( #104, #327 ) ) ;
#169 = PERSON_AND_ORGANIZATION_ROLE ( 'design_owner' ) ;
#170 = PERSON_AND_ORGANIZATION ( #224, #152 ) ;
#171 = ORIENTED_EDGE ( 'NONE', *, *, #32, .F. ) ;
#172 = ADVANCED_FACE ( 'NONE', ( #82, #166 ), #281, .T. ) ;
#173 = ORIENTED_EDGE ( 'NONE', *, *, #136, .T. ) ;
#174 = CARTESIAN_POINT ( 'NONE',  ( 0.000000000000000000, 0.000000000000000000, 80.00000000000000000 ) ) ;
#175 = EDGE_LOOP ( 'NONE', ( #12, #43, #86, #117 ) ) ;
#176 = AXIS2_PLACEMENT_3D ( 'NONE', #218, #19, #47 ) ;
#177 = EDGE_LOOP ( 'NONE', ( #6, #204 ) ) ;
#178 = DIRECTION ( 'NONE',  ( -1.000000000000000000, 0.000000000000000000, 0.000000000000000000 ) ) ;
#179 = CARTESIAN_POINT ( 'NONE',  ( -2.600000000000000089, 0.000000000000000000, 80.00000000000000000 ) ) ;
#180 = ORIENTED_EDGE ( 'NONE', *, *, #379, .F. ) ;
#181 = CARTESIAN_POINT ( 'NONE',  ( 0.000000000000000000, 0.000000000000000000, 5.500000000000005329 ) ) ;
#182 = ORIENTED_EDGE ( 'NONE', *, *, #254, .T. ) ;
#183 = CARTESIAN_POINT ( 'NONE',  ( 0.000000000000000000, 0.000000000000000000, 5.000000000000000000 ) ) ;
#184 = DIRECTION ( 'NONE',  ( -1.000000000000000000, 0.000000000000000000, 0.000000000000000000 ) ) ;
#185 = EDGE_CURVE ( 'NONE', #61, #94, #343, .T. ) ;
#186 = CARTESIAN_POINT ( 'NONE',  ( 0.000000000000000000, 0.000000000000000000, 80.00000000000000000 ) ) ;
#187 = CALENDAR_DATE ( 2022, 8, 7 ) ;
#188 =( LENGTH_UNIT ( ) NAMED_UNIT ( * ) SI_UNIT ( .MILLI., .METRE. ) );
#189 = EDGE_CURVE ( 'NONE', #240, #118, #255, .T. ) ;
#190 = CIRCLE ( 'NONE', #374, 2.600000000000000089 ) ;
#191 = SECURITY_CLASSIFICATION ( '', '', #72 ) ;
#192 = CARTESIAN_POINT ( 'NONE',  ( 2.600000000000000089, 3.184081677783118191E-16, 0.000000000000000000 ) ) ;
#193 = CARTESIAN_POINT ( 'NONE',  ( 0.000000000000000000, 0.000000000000000000, 0.000000000000000000 ) ) ;
#194 = EDGE_CURVE ( 'NONE', #147, #73, #301, .T. ) ;
#195 = ORIENTED_EDGE ( 'NONE', *, *, #74, .T. ) ;
#196 = APPLICATION_PROTOCOL_DEFINITION ( 'international standard', 'config_control_design', 1994, #145 ) ;
#197 = PLANE ( 'NONE',  #311 ) ;
#198 = ORIENTED_EDGE ( 'NONE', *, *, #252, .F. ) ;
#199 = PERSON_AND_ORGANIZATION ( #224, #152 ) ;
#200 = CARTESIAN_POINT ( 'NONE',  ( 0.000000000000000000, 0.000000000000000000, 0.000000000000000000 ) ) ;
#201 = ORIENTED_EDGE ( 'NONE', *, *, #60, .F. ) ;
#202 = ORIENTED_EDGE ( 'NONE', *, *, #185, .F. ) ;
#203 = DIRECTION ( 'NONE',  ( -0.000000000000000000, -0.000000000000000000, -1.000000000000000000 ) ) ;
#204 = ORIENTED_EDGE ( 'NONE', *, *, #194, .F. ) ;
#205 = FACE_OUTER_BOUND ( 'NONE', #325, .T. ) ;
#206 = VECTOR ( 'NONE', #38, 1000.000000000000000 ) ;
#207 = DIRECTION ( 'NONE',  ( 1.000000000000000000, 0.000000000000000000, 0.000000000000000000 ) ) ;
#208 = PRODUCT_DEFINITION ( 'NEZNÁMÝ', '', #71, #296 ) ;
#209 = LINE ( 'NONE', #68, #215 ) ;
#210 = DIRECTION ( 'NONE',  ( 1.000000000000000000, 0.000000000000000000, 0.000000000000000000 ) ) ;
#211 = PERSON_AND_ORGANIZATION_ROLE ( 'design_supplier' ) ;
#212 = ORIENTED_EDGE ( 'NONE', *, *, #342, .F. ) ;
#213 = DIRECTION ( 'NONE',  ( -1.000000000000000000, 0.000000000000000000, 0.000000000000000000 ) ) ;
#214 = CYLINDRICAL_SURFACE ( 'NONE', #56, 2.600000000000000089 ) ;
#215 = VECTOR ( 'NONE', #102, 1000.000000000000000 ) ;
#216 = LOCAL_TIME ( 17, 10, 13.00000000000000000, #355 ) ;
#217 = CARTESIAN_POINT ( 'NONE',  ( 4.000000000000000000, 4.898587196589412829E-16, 5.500000000000005329 ) ) ;
#218 = CARTESIAN_POINT ( 'NONE',  ( 0.000000000000000000, 0.000000000000000000, 0.000000000000000000 ) ) ;
#219 = AXIS2_PLACEMENT_3D ( 'NONE', #66, #225, #139 ) ;
#220 = CARTESIAN_POINT ( 'NONE',  ( 0.000000000000000000, 0.000000000000000000, 5.500000000000005329 ) ) ;
#221 = CC_DESIGN_PERSON_AND_ORGANIZATION_ASSIGNMENT ( #42, #211, ( #71 ) ) ;
#222 = APPLICATION_CONTEXT ( 'configuration controlled 3d designs of mechanical parts and assemblies' ) ;
#223 = DIRECTION ( 'NONE',  ( 0.000000000000000000, 0.000000000000000000, 1.000000000000000000 ) ) ;
#224 = PERSON ( 'NEURÈENÝ', 'NEURÈENÝ', 'NEURÈENÝ', ('NEURÈENÝ'), ('NEURÈENÝ'), ('NEURÈENÝ') ) ;
#225 = DIRECTION ( 'NONE',  ( -0.000000000000000000, -0.000000000000000000, -1.000000000000000000 ) ) ;
#226 = EDGE_LOOP ( 'NONE', ( #180, #26, #333, #58 ) ) ;
#227 = CALENDAR_DATE ( 2022, 8, 7 ) ;
#228 = AXIS2_PLACEMENT_3D ( 'NONE', #372, #131, #37 ) ;
#229 = VERTEX_POINT ( 'NONE', #76 ) ;
#230 = PERSON_AND_ORGANIZATION_ROLE ( 'creator' ) ;
#231 = AXIS2_PLACEMENT_3D ( 'NONE', #371, #161, #345 ) ;
#232 = COORDINATED_UNIVERSAL_TIME_OFFSET ( 1, 0, .AHEAD. ) ;
#233 = DIRECTION ( 'NONE',  ( 0.000000000000000000, 0.000000000000000000, 1.000000000000000000 ) ) ;
#234 = APPROVAL_STATUS ( 'not_yet_approved' ) ;
#235 = DIRECTION ( 'NONE',  ( -1.000000000000000000, 0.000000000000000000, 0.000000000000000000 ) ) ;
#236 = EDGE_CURVE ( 'NONE', #118, #356, #160, .T. ) ;
#237 = VERTEX_POINT ( 'NONE', #341 ) ;
#238 = APPROVAL_DATE_TIME ( #146, #264 ) ;
#239 = DIRECTION ( 'NONE',  ( 1.000000000000000000, 0.000000000000000000, 0.000000000000000000 ) ) ;
#240 = VERTEX_POINT ( 'NONE', #217 ) ;
#241 = CARTESIAN_POINT ( 'NONE',  ( -4.500000000000000888, 5.510910596163088569E-16, 5.000000000000002665 ) ) ;
#242 = CARTESIAN_POINT ( 'NONE',  ( 7.000000000000000000, 8.572527594031473190E-16, 5.000000000000000000 ) ) ;
#243 = ORIENTED_EDGE ( 'NONE', *, *, #287, .T. ) ;
#244 = CIRCLE ( 'NONE', #95, 4.000000000000000000 ) ;
#245 = ADVANCED_FACE ( 'NONE', ( #134 ), #79, .T. ) ;
#246 = DIRECTION ( 'NONE',  ( -1.000000000000000000, 1.224646799147351482E-16, 0.000000000000000000 ) ) ;
#247 = CLOSED_SHELL ( 'NONE', ( #317, #377, #245, #250, #70, #172, #298, #283, #272, #312, #127 ) ) ;
#248 = CARTESIAN_POINT ( 'NONE',  ( -4.000000000000000000, 0.000000000000000000, 5.500000000000005329 ) ) ;
#249 = DIRECTION ( 'NONE',  ( 0.000000000000000000, -1.000000000000000000, 0.000000000000000000 ) ) ;
#250 = ADVANCED_FACE ( 'NONE', ( #339 ), #78, .T. ) ;
#251 = AXIS2_PLACEMENT_3D ( 'NONE', #363, #100, #210 ) ;
#252 = EDGE_CURVE ( 'NONE', #229, #23, #190, .T. ) ;
#253 =( NAMED_UNIT ( * ) SI_UNIT ( $, .STERADIAN. ) SOLID_ANGLE_UNIT ( ) );
#254 = EDGE_CURVE ( 'NONE', #237, #319, #21, .T. ) ;
#255 = CIRCLE ( 'NONE', #103, 0.5000000000000004441 ) ;
#256 = DIRECTION ( 'NONE',  ( 1.000000000000000000, 0.000000000000000000, 0.000000000000000000 ) ) ;
#257 = APPROVAL_DATE_TIME ( #143, #110 ) ;
#258 = FACE_OUTER_BOUND ( 'NONE', #321, .T. ) ;
#259 = EDGE_LOOP ( 'NONE', ( #28, #352, #347, #154 ) ) ;
#260 = VECTOR ( 'NONE', #282, 1000.000000000000000 ) ;
#261 = APPROVAL_STATUS ( 'not_yet_approved' ) ;
#262 = CIRCLE ( 'NONE', #165, 0.5000000000000004441 ) ;
#263 = LOCAL_TIME ( 17, 10, 13.00000000000000000, #35 ) ;
#264 = APPROVAL ( #234, 'NEURÈENÝ' ) ;
#265 = ORIENTED_EDGE ( 'NONE', *, *, #368, .F. ) ;
#266 = APPROVAL_ROLE ( '' ) ;
#267 = EDGE_LOOP ( 'NONE', ( #202, #338, #182, #171 ) ) ;
#268 = DIRECTION ( 'NONE',  ( 0.000000000000000000, 0.000000000000000000, 1.000000000000000000 ) ) ;
#269 = AXIS2_PLACEMENT_3D ( 'NONE', #193, #113, #87 ) ;
#270 =( GEOMETRIC_REPRESENTATION_CONTEXT ( 3 ) GLOBAL_UNCERTAINTY_ASSIGNED_CONTEXT ( ( #63 ) ) GLOBAL_UNIT_ASSIGNED_CONTEXT ( ( #188, #315, #253 ) ) REPRESENTATION_CONTEXT ( 'NONE', 'WORKASPACE' ) );
#271 = CYLINDRICAL_SURFACE ( 'NONE', #88, 7.000000000000000000 ) ;
#272 = ADVANCED_FACE ( 'NONE', ( #97, #205 ), #150, .T. ) ;
#273 = DIRECTION ( 'NONE',  ( 1.000000000000000000, 0.000000000000000000, 0.000000000000000000 ) ) ;
#274 = FACE_OUTER_BOUND ( 'NONE', #259, .T. ) ;
#275 = EDGE_CURVE ( 'NONE', #356, #118, #29, .T. ) ;
#276 = CARTESIAN_POINT ( 'NONE',  ( 4.500000000000000888, 0.000000000000000000, 5.000000000000002665 ) ) ;
#277 = DIRECTION ( 'NONE',  ( 1.224646799147353207E-16, 1.000000000000000000, -0.000000000000000000 ) ) ;
#278 = DIRECTION ( 'NONE',  ( -0.000000000000000000, -0.000000000000000000, -1.000000000000000000 ) ) ;
#279 = AXIS2_PLACEMENT_3D ( 'NONE', #174, #121, #320 ) ;
#280 = DIRECTION ( 'NONE',  ( 0.000000000000000000, 0.000000000000000000, -1.000000000000000000 ) ) ;
#281 = PLANE ( 'NONE',  #81 ) ;
#282 = DIRECTION ( 'NONE',  ( -0.000000000000000000, -0.000000000000000000, -1.000000000000000000 ) ) ;
#283 = ADVANCED_FACE ( 'NONE', ( #258 ), #85, .T. ) ;
#284 = AXIS2_PLACEMENT_3D ( 'NONE', #46, #108, #235 ) ;
#285 = EDGE_CURVE ( 'NONE', #94, #61, #90, .T. ) ;
#286 = DIRECTION ( 'NONE',  ( 0.000000000000000000, 0.000000000000000000, 1.000000000000000000 ) ) ;
#287 = EDGE_CURVE ( 'NONE', #119, #240, #244, .T. ) ;
#288 = DIRECTION ( 'NONE',  ( 1.000000000000000000, 0.000000000000000000, 0.000000000000000000 ) ) ;
#289 = COORDINATED_UNIVERSAL_TIME_OFFSET ( 1, 0, .AHEAD. ) ;
#290 = VERTEX_POINT ( 'NONE', #54 ) ;
#291 = ORIENTED_EDGE ( 'NONE', *, *, #74, .F. ) ;
#292 = CALENDAR_DATE ( 2022, 8, 7 ) ;
#293 = EDGE_CURVE ( 'NONE', #240, #119, #128, .T. ) ;
#294 = ORIENTED_EDGE ( 'NONE', *, *, #136, .F. ) ;
#295 = ORIENTED_EDGE ( 'NONE', *, *, #34, .T. ) ;
#296 = DESIGN_CONTEXT ( 'detailed design', #222, 'design' ) ;
#297 = CARTESIAN_POINT ( 'NONE',  ( -2.600000000000000089, 0.000000000000000000, 0.000000000000000000 ) ) ;
#298 = ADVANCED_FACE ( 'NONE', ( #380, #349 ), #197, .F. ) ;
#299 = CARTESIAN_POINT ( 'NONE',  ( 0.000000000000000000, 0.000000000000000000, 80.00000000000000000 ) ) ;
#300 = CARTESIAN_POINT ( 'NONE',  ( -7.000000000000000000, 0.000000000000000000, 0.000000000000000000 ) ) ;
#301 = CIRCLE ( 'NONE', #316, 2.600000000000000089 ) ;
#302 = PERSON_AND_ORGANIZATION_ROLE ( 'creator' ) ;
#303 = CARTESIAN_POINT ( 'NONE',  ( 4.000000000000000000, 4.898587196589412829E-16, 80.00000000000000000 ) ) ;
#304 = PERSON_AND_ORGANIZATION_ROLE ( 'classification_officer' ) ;
#305 = LINE ( 'NONE', #303, #39 ) ;
#306 = DIRECTION ( 'NONE',  ( 0.000000000000000000, 0.000000000000000000, 1.000000000000000000 ) ) ;
#307 = EDGE_LOOP ( 'NONE', ( #195, #126, #123, #265 ) ) ;
#308 = CARTESIAN_POINT ( 'NONE',  ( 2.600000000000000089, 3.184081677783118191E-16, 80.00000000000000000 ) ) ;
#309 = PERSON_AND_ORGANIZATION ( #224, #152 ) ;
#310 = DIRECTION ( 'NONE',  ( -0.000000000000000000, -0.000000000000000000, -1.000000000000000000 ) ) ;
#311 = AXIS2_PLACEMENT_3D ( 'NONE', #200, #24, #144 ) ;
#312 = ADVANCED_FACE ( 'NONE', ( #2 ), #48, .F. ) ;
#313 = LINE ( 'NONE', #308, #69 ) ;
#314 = DIRECTION ( 'NONE',  ( -0.000000000000000000, -0.000000000000000000, -1.000000000000000000 ) ) ;
#315 =( NAMED_UNIT ( * ) PLANE_ANGLE_UNIT ( ) SI_UNIT ( $, .RADIAN. ) );
#316 = AXIS2_PLACEMENT_3D ( 'NONE', #344, #373, #135 ) ;
#317 = ADVANCED_FACE ( 'NONE', ( #324 ), #214, .F. ) ;
#318 = CARTESIAN_POINT ( 'NONE',  ( 0.000000000000000000, 0.000000000000000000, 5.000000000000000000 ) ) ;
#319 = VERTEX_POINT ( 'NONE', #300 ) ;
#320 = DIRECTION ( 'NONE',  ( 1.000000000000000000, 0.000000000000000000, -0.000000000000000000 ) ) ;
#321 = EDGE_LOOP ( 'NONE', ( #59, #201, #173, #243 ) ) ;
#322 = AXIS2_PLACEMENT_3D ( 'NONE', #137, #223, #378 ) ;
#323 = LOCAL_TIME ( 17, 10, 13.00000000000000000, #232 ) ;
#324 = FACE_OUTER_BOUND ( 'NONE', #307, .T. ) ;
#325 = EDGE_LOOP ( 'NONE', ( #124, #114 ) ) ;
#326 = PERSON_AND_ORGANIZATION ( #224, #152 ) ;
#327 = ORIENTED_EDGE ( 'NONE', *, *, #254, .F. ) ;
#328 = DATE_AND_TIME ( #227, #49 ) ;
#329 = EDGE_LOOP ( 'NONE', ( #291, #198 ) ) ;
#330 = PRODUCT_RELATED_PRODUCT_CATEGORY ( 'detail', '', ( #155 ) ) ;
#331 = DIRECTION ( 'NONE',  ( -1.000000000000000000, 0.000000000000000000, 0.000000000000000000 ) ) ;
#332 = CARTESIAN_POINT ( 'NONE',  ( 0.000000000000000000, 0.000000000000000000, 80.00000000000000000 ) ) ;
#333 = ORIENTED_EDGE ( 'NONE', *, *, #189, .T. ) ;
#334 = CIRCLE ( 'NONE', #1, 4.000000000000000000 ) ;
#335 = CARTESIAN_POINT ( 'NONE',  ( 0.000000000000000000, 0.000000000000000000, 0.000000000000000000 ) ) ;
#336 = LINE ( 'NONE', #64, #206 ) ;
#337 = CARTESIAN_POINT ( 'NONE',  ( 4.000000000000000000, 4.898587196589412829E-16, 80.00000000000000000 ) ) ;
#338 = ORIENTED_EDGE ( 'NONE', *, *, #7, .T. ) ;
#339 = FACE_OUTER_BOUND ( 'NONE', #267, .T. ) ;
#340 = AXIS2_PLACEMENT_3D ( 'NONE', #335, #360, #288 ) ;
#341 = CARTESIAN_POINT ( 'NONE',  ( 7.000000000000000000, 8.572527594031473190E-16, 0.000000000000000000 ) ) ;
#342 = EDGE_CURVE ( 'NONE', #229, #147, #313, .T. ) ;
#343 = CIRCLE ( 'NONE', #164, 7.000000000000000000 ) ;
#344 = CARTESIAN_POINT ( 'NONE',  ( 0.000000000000000000, 0.000000000000000000, 0.000000000000000000 ) ) ;
#345 = DIRECTION ( 'NONE',  ( -1.000000000000000000, 0.000000000000000000, 0.000000000000000000 ) ) ;
#346 = CARTESIAN_POINT ( 'NONE',  ( 0.000000000000000000, 0.000000000000000000, 80.00000000000000000 ) ) ;
#347 = ORIENTED_EDGE ( 'NONE', *, *, #236, .F. ) ;
#348 = CIRCLE ( 'NONE', #176, 2.600000000000000089 ) ;
#349 = FACE_OUTER_BOUND ( 'NONE', #168, .T. ) ;
#350 = ORIENTED_EDGE ( 'NONE', *, *, #252, .T. ) ;
#351 = EDGE_CURVE ( 'NONE', #55, #290, #10, .T. ) ;
#352 = ORIENTED_EDGE ( 'NONE', *, *, #379, .T. ) ;
#353 = CC_DESIGN_APPROVAL ( #264, ( #208 ) ) ;
#354 = CIRCLE ( 'NONE', #40, 2.600000000000000089 ) ;
#355 = COORDINATED_UNIVERSAL_TIME_OFFSET ( 1, 0, .AHEAD. ) ;
#356 = VERTEX_POINT ( 'NONE', #241 ) ;
#357 = DATE_TIME_ROLE ( 'creation_date' ) ;
#358 = APPROVAL_PERSON_ORGANIZATION ( #309, #110, #369 ) ;
#359 = LINE ( 'NONE', #242, #93 ) ;
#360 = DIRECTION ( 'NONE',  ( 0.000000000000000000, 0.000000000000000000, 1.000000000000000000 ) ) ;
#361 = CARTESIAN_POINT ( 'NONE',  ( 0.000000000000000000, 0.000000000000000000, 5.000000000000000000 ) ) ;
#362 = DATE_TIME_ROLE ( 'classification_date' ) ;
#363 = CARTESIAN_POINT ( 'NONE',  ( 0.000000000000000000, 0.000000000000000000, 0.000000000000000000 ) ) ;
#364 = CARTESIAN_POINT ( 'NONE',  ( 0.000000000000000000, 0.000000000000000000, 80.00000000000000000 ) ) ;
#365 = AXIS2_PLACEMENT_3D ( 'NONE', #186, #314, #213 ) ;
#366 = PERSON_AND_ORGANIZATION ( #224, #152 ) ;
#367 = DIRECTION ( 'NONE',  ( 1.000000000000000000, 0.000000000000000000, 0.000000000000000000 ) ) ;
#368 = EDGE_CURVE ( 'NONE', #23, #73, #209, .T. ) ;
#369 = APPROVAL_ROLE ( '' ) ;
#370 = DIRECTION ( 'NONE',  ( 1.000000000000000000, 0.000000000000000000, 0.000000000000000000 ) ) ;
#371 = CARTESIAN_POINT ( 'NONE',  ( 0.000000000000000000, 0.000000000000000000, 80.00000000000000000 ) ) ;
#372 = CARTESIAN_POINT ( 'NONE',  ( 0.000000000000000000, 0.000000000000000000, 5.500000000000005329 ) ) ;
#373 = DIRECTION ( 'NONE',  ( -0.000000000000000000, -0.000000000000000000, -1.000000000000000000 ) ) ;
#374 = AXIS2_PLACEMENT_3D ( 'NONE', #346, #268, #239 ) ;
#375 = DIRECTION ( 'NONE',  ( 0.000000000000000000, 0.000000000000000000, -1.000000000000000000 ) ) ;
#376 = CYLINDRICAL_SURFACE ( 'NONE', #231, 2.600000000000000089 ) ;
#377 = ADVANCED_FACE ( 'NONE', ( #274 ), #140, .F. ) ;
#378 = DIRECTION ( 'NONE',  ( 1.000000000000000000, 0.000000000000000000, 0.000000000000000000 ) ) ;
#379 = EDGE_CURVE ( 'NONE', #119, #356, #262, .T. ) ;
#380 = FACE_BOUND ( 'NONE', #177, .T. ) ;
#381 = ORIENTED_EDGE ( 'NONE', *, *, #351, .F. ) ;
ENDSEC;
END-ISO-10303-21;
