ISO-10303-21;
HEADER;
FILE_DESCRIPTION (( 'STEP AP203' ),
    '1' );
FILE_NAME ('2d49.STEP',
    '2022-07-08T15:03:22',
    ( '' ),
    ( '' ),
    'SwSTEP 2.0',
    'SolidWorks 2019',
    '' );
FILE_SCHEMA (( 'CONFIG_CONTROL_DESIGN' ));
ENDSEC;

DATA;
#1 = AXIS2_PLACEMENT_3D ( 'NONE', #155, #363, #179 ) ;
#2 = DIRECTION ( 'NONE',  ( 1.000000000000000000, 0.000000000000000000, 0.000000000000000000 ) ) ;
#3 = ORIENTED_EDGE ( 'NONE', *, *, #126, .F. ) ;
#4 = EDGE_LOOP ( 'NONE', ( #22, #82 ) ) ;
#5 = EDGE_CURVE ( 'NONE', #121, #317, #8, .T. ) ;
#6 = APPROVAL_DATE_TIME ( #114, #86 ) ;
#7 = ORIENTED_EDGE ( 'NONE', *, *, #23, .F. ) ;
#8 = LINE ( 'NONE', #251, #111 ) ;
#9 = FACE_OUTER_BOUND ( 'NONE', #84, .T. ) ;
#10 = SECURITY_CLASSIFICATION ( '', '', #356 ) ;
#11 = CARTESIAN_POINT ( 'NONE',  ( 5.500000000000000000, 0.000000000000000000, 4.999999999999975131 ) ) ;
#12 = EDGE_CURVE ( 'NONE', #326, #121, #159, .T. ) ;
#13 = FACE_OUTER_BOUND ( 'NONE', #263, .T. ) ;
#14 = PERSON ( 'NEURÈENÝ', 'NEURÈENÝ', 'NEURÈENÝ', ('NEURÈENÝ'), ('NEURÈENÝ'), ('NEURÈENÝ') ) ;
#15 = CLOSED_SHELL ( 'NONE', ( #364, #18, #149, #41, #357, #157, #176, #343, #310, #69, #49 ) ) ;
#16 = COORDINATED_UNIVERSAL_TIME_OFFSET ( 1, 0, .AHEAD. ) ;
#17 = CARTESIAN_POINT ( 'NONE',  ( -5.000000000000000000, 0.000000000000000000, 5.499999999999949374 ) ) ;
#18 = ADVANCED_FACE ( 'NONE', ( #9 ), #105, .F. ) ;
#19 = PLANE ( 'NONE',  #325 ) ;
#20 = PERSON_AND_ORGANIZATION_ROLE ( 'design_owner' ) ;
#21 = CIRCLE ( 'NONE', #160, 5.000000000000000000 ) ;
#22 = ORIENTED_EDGE ( 'NONE', *, *, #292, .T. ) ;
#23 = EDGE_CURVE ( 'NONE', #116, #144, #76, .T. ) ;
#24 = CARTESIAN_POINT ( 'NONE',  ( -8.000000000000000000, 0.000000000000000000, 0.000000000000000000 ) ) ;
#25 = EDGE_LOOP ( 'NONE', ( #238, #28, #230, #297 ) ) ;
#26 = DATE_TIME_ROLE ( 'classification_date' ) ;
#27 = VECTOR ( 'NONE', #228, 1000.000000000000000 ) ;
#28 = ORIENTED_EDGE ( 'NONE', *, *, #318, .F. ) ;
#29 = ORIENTED_EDGE ( 'NONE', *, *, #5, .F. ) ;
#30 = DIRECTION ( 'NONE',  ( 1.000000000000000000, 0.000000000000000000, -0.000000000000000000 ) ) ;
#31 = CYLINDRICAL_SURFACE ( 'NONE', #354, 2.750000000000000000 ) ;
#32 = AXIS2_PLACEMENT_3D ( 'NONE', #351, #379, #207 ) ;
#33 = APPROVAL_PERSON_ORGANIZATION ( #307, #334, #150 ) ;
#34 = DIRECTION ( 'NONE',  ( 0.000000000000000000, 0.000000000000000000, 1.000000000000000000 ) ) ;
#35 = DATE_AND_TIME ( #124, #65 ) ;
#36 = EDGE_LOOP ( 'NONE', ( #91, #138, #177, #241 ) ) ;
#37 = DIRECTION ( 'NONE',  ( -0.000000000000000000, -0.000000000000000000, -1.000000000000000000 ) ) ;
#38 = EDGE_LOOP ( 'NONE', ( #236, #85, #135, #29 ) ) ;
#39 = ORIENTED_EDGE ( 'NONE', *, *, #313, .T. ) ;
#40 = AXIS2_PLACEMENT_3D ( 'NONE', #284, #198, #258 ) ;
#41 = ADVANCED_FACE ( 'NONE', ( #68 ), #122, .T. ) ;
#42 = EDGE_CURVE ( 'NONE', #173, #89, #276, .T. ) ;
#43 = FACE_BOUND ( 'NONE', #331, .T. ) ;
#44 = AXIS2_PLACEMENT_3D ( 'NONE', #67, #37, #282 ) ;
#45 = CARTESIAN_POINT ( 'NONE',  ( -8.000000000000000000, 0.000000000000000000, 5.000000000000000000 ) ) ;
#46 = CARTESIAN_POINT ( 'NONE',  ( -2.750000000000000000, 0.000000000000000000, 0.000000000000000000 ) ) ;
#47 = CIRCLE ( 'NONE', #163, 0.5000000000000004441 ) ;
#48 = DIRECTION ( 'NONE',  ( -0.000000000000000000, -0.000000000000000000, -1.000000000000000000 ) ) ;
#49 = ADVANCED_FACE ( 'NONE', ( #216 ), #31, .F. ) ;
#50 = ORIENTED_EDGE ( 'NONE', *, *, #182, .F. ) ;
#51 = CIRCLE ( 'NONE', #367, 8.000000000000000000 ) ;
#52 = APPROVAL_DATE_TIME ( #201, #123 ) ;
#53 = AXIS2_PLACEMENT_3D ( 'NONE', #256, #130, #223 ) ;
#54 = FACE_OUTER_BOUND ( 'NONE', #348, .T. ) ;
#55 = ORIENTED_EDGE ( 'NONE', *, *, #109, .F. ) ;
#56 = ORIENTED_EDGE ( 'NONE', *, *, #23, .T. ) ;
#57 = CC_DESIGN_PERSON_AND_ORGANIZATION_ASSIGNMENT ( #234, #240, ( #306 ) ) ;
#58 = ORGANIZATION ( 'NEURÈENÝ', 'NEURÈENÝ', '' ) ;
#59 = PERSON_AND_ORGANIZATION ( #14, #58 ) ;
#60 = DIRECTION ( 'NONE',  ( 0.000000000000000000, 0.000000000000000000, -1.000000000000000000 ) ) ;
#61 = VERTEX_POINT ( 'NONE', #253 ) ;
#62 = CC_DESIGN_PERSON_AND_ORGANIZATION_ASSIGNMENT ( #290, #136, ( #194 ) ) ;
#63 = DIRECTION ( 'NONE',  ( 1.000000000000000000, 0.000000000000000000, 0.000000000000000000 ) ) ;
#64 = AXIS2_PLACEMENT_3D ( 'NONE', #110, #380, #280 ) ;
#65 = LOCAL_TIME ( 17, 3, 22.00000000000000000, #16 ) ;
#66 = DIRECTION ( 'NONE',  ( 0.000000000000000000, 0.000000000000000000, 1.000000000000000000 ) ) ;
#67 = CARTESIAN_POINT ( 'NONE',  ( 0.000000000000000000, 0.000000000000000000, 5.000000000000000000 ) ) ;
#68 = FACE_OUTER_BOUND ( 'NONE', #38, .T. ) ;
#69 = ADVANCED_FACE ( 'NONE', ( #274 ), #153, .F. ) ;
#70 = DIRECTION ( 'NONE',  ( -1.000000000000000000, 0.000000000000000000, 0.000000000000000000 ) ) ;
#71 = AXIS2_PLACEMENT_3D ( 'NONE', #95, #66, #185 ) ;
#72 = FACE_OUTER_BOUND ( 'NONE', #169, .T. ) ;
#73 = APPROVAL_PERSON_ORGANIZATION ( #170, #86, #271 ) ;
#74 = DIRECTION ( 'NONE',  ( 0.000000000000000000, 0.000000000000000000, 1.000000000000000000 ) ) ;
#75 = CARTESIAN_POINT ( 'NONE',  ( 8.000000000000000000, 9.797174393178825657E-16, 0.000000000000000000 ) ) ;
#76 = CIRCLE ( 'NONE', #341, 5.000000000000000000 ) ;
#77 = DIRECTION ( 'NONE',  ( -1.000000000000000000, 0.000000000000000000, 0.000000000000000000 ) ) ;
#78 =( GEOMETRIC_REPRESENTATION_CONTEXT ( 3 ) GLOBAL_UNCERTAINTY_ASSIGNED_CONTEXT ( ( #295 ) ) GLOBAL_UNIT_ASSIGNED_CONTEXT ( ( #301, #277, #99 ) ) REPRESENTATION_CONTEXT ( 'NONE', 'WORKASPACE' ) );
#79 = APPROVAL_STATUS ( 'not_yet_approved' ) ;
#80 = EDGE_CURVE ( 'NONE', #116, #272, #47, .T. ) ;
#81 = PLANE ( 'NONE',  #174 ) ;
#82 = ORIENTED_EDGE ( 'NONE', *, *, #210, .T. ) ;
#83 = PERSON_AND_ORGANIZATION ( #14, #58 ) ;
#84 = EDGE_LOOP ( 'NONE', ( #7, #211, #296, #3 ) ) ;
#85 = ORIENTED_EDGE ( 'NONE', *, *, #261, .T. ) ;
#86 = APPROVAL ( #139, 'NEURÈENÝ' ) ;
#87 = PERSON_AND_ORGANIZATION ( #14, #58 ) ;
#88 = AXIS2_PLACEMENT_3D ( 'NONE', #281, #359, #148 ) ;
#89 = VERTEX_POINT ( 'NONE', #303 ) ;
#90 = CC_DESIGN_APPROVAL ( #123, ( #194 ) ) ;
#91 = ORIENTED_EDGE ( 'NONE', *, *, #261, .F. ) ;
#92 = CARTESIAN_POINT ( 'NONE',  ( 0.000000000000000000, 0.000000000000000000, 5.000000000000000000 ) ) ;
#93 = EDGE_CURVE ( 'NONE', #121, #326, #145, .T. ) ;
#94 = DIRECTION ( 'NONE',  ( -0.000000000000000000, -0.000000000000000000, -1.000000000000000000 ) ) ;
#95 = CARTESIAN_POINT ( 'NONE',  ( 0.000000000000000000, 0.000000000000000000, 5.499999999999949374 ) ) ;
#96 = SHAPE_DEFINITION_REPRESENTATION ( #246, #166 ) ;
#97 = DIRECTION ( 'NONE',  ( -1.000000000000000000, 1.224646799147351482E-16, 0.000000000000000000 ) ) ;
#98 = EDGE_CURVE ( 'NONE', #89, #270, #100, .T. ) ;
#99 =( NAMED_UNIT ( * ) SI_UNIT ( $, .STERADIAN. ) SOLID_ANGLE_UNIT ( ) );
#100 = LINE ( 'NONE', #219, #220 ) ;
#101 = CARTESIAN_POINT ( 'NONE',  ( 5.000000000000000000, 6.123233995736766282E-16, 5.499999999999949374 ) ) ;
#102 = CIRCLE ( 'NONE', #336, 2.750000000000000000 ) ;
#103 = CARTESIAN_POINT ( 'NONE',  ( 0.000000000000000000, 0.000000000000000000, 0.000000000000000000 ) ) ;
#104 = DIRECTION ( 'NONE',  ( 1.000000000000000000, 0.000000000000000000, 0.000000000000000000 ) ) ;
#105 = TOROIDAL_SURFACE ( 'NONE', #1, 5.500000000000000000, 0.5000000000000000000 ) ;
#106 = COORDINATED_UNIVERSAL_TIME_OFFSET ( 1, 0, .AHEAD. ) ;
#107 = LINE ( 'NONE', #344, #108 ) ;
#108 = VECTOR ( 'NONE', #311, 1000.000000000000000 ) ;
#109 = EDGE_CURVE ( 'NONE', #168, #317, #51, .T. ) ;
#110 = CARTESIAN_POINT ( 'NONE',  ( 0.000000000000000000, 0.000000000000000000, 755.0000000000000000 ) ) ;
#111 = VECTOR ( 'NONE', #275, 1000.000000000000000 ) ;
#112 = EDGE_CURVE ( 'NONE', #89, #173, #102, .T. ) ;
#113 = ORIENTED_EDGE ( 'NONE', *, *, #131, .T. ) ;
#114 = DATE_AND_TIME ( #324, #175 ) ;
#115 = ORIENTED_EDGE ( 'NONE', *, *, #112, .T. ) ;
#116 = VERTEX_POINT ( 'NONE', #17 ) ;
#117 = ORIENTED_EDGE ( 'NONE', *, *, #224, .F. ) ;
#118 = CIRCLE ( 'NONE', #40, 5.000000000000000000 ) ;
#119 = CARTESIAN_POINT ( 'NONE',  ( 0.000000000000000000, 0.000000000000000000, 5.000000000000000000 ) ) ;
#120 = CC_DESIGN_PERSON_AND_ORGANIZATION_ASSIGNMENT ( #59, #321, ( #10 ) ) ;
#121 = VERTEX_POINT ( 'NONE', #45 ) ;
#122 = CYLINDRICAL_SURFACE ( 'NONE', #322, 8.000000000000000000 ) ;
#123 = APPROVAL ( #79, 'NEURÈENÝ' ) ;
#124 = CALENDAR_DATE ( 2022, 8, 7 ) ;
#125 = CARTESIAN_POINT ( 'NONE',  ( -5.000000000000000000, 0.000000000000000000, 755.0000000000000000 ) ) ;
#126 = EDGE_CURVE ( 'NONE', #144, #352, #133, .T. ) ;
#127 = DIRECTION ( 'NONE',  ( 0.000000000000000000, -1.000000000000000000, 0.000000000000000000 ) ) ;
#128 = CARTESIAN_POINT ( 'NONE',  ( -2.750000000000000000, 0.000000000000000000, 755.0000000000000000 ) ) ;
#129 = APPLICATION_PROTOCOL_DEFINITION ( 'international standard', 'config_control_design', 1994, #235 ) ;
#130 = DIRECTION ( 'NONE',  ( 0.000000000000000000, 0.000000000000000000, 1.000000000000000000 ) ) ;
#131 = EDGE_CURVE ( 'NONE', #361, #61, #118, .T. ) ;
#132 = CYLINDRICAL_SURFACE ( 'NONE', #64, 5.000000000000000000 ) ;
#133 = CIRCLE ( 'NONE', #167, 0.5000000000000004441 ) ;
#134 = DIRECTION ( 'NONE',  ( 1.000000000000000000, 0.000000000000000000, 0.000000000000000000 ) ) ;
#135 = ORIENTED_EDGE ( 'NONE', *, *, #109, .T. ) ;
#136 = PERSON_AND_ORGANIZATION_ROLE ( 'creator' ) ;
#137 = CARTESIAN_POINT ( 'NONE',  ( 8.000000000000000000, 9.797174393178825657E-16, 5.000000000000000000 ) ) ;
#138 = ORIENTED_EDGE ( 'NONE', *, *, #93, .F. ) ;
#139 = APPROVAL_STATUS ( 'not_yet_approved' ) ;
#140 = ORIENTED_EDGE ( 'NONE', *, *, #93, .T. ) ;
#141 = DESIGN_CONTEXT ( 'detailed design', #235, 'design' ) ;
#142 = ORIENTED_EDGE ( 'NONE', *, *, #42, .T. ) ;
#143 = DATE_AND_TIME ( #248, #378 ) ;
#144 = VERTEX_POINT ( 'NONE', #101 ) ;
#145 = CIRCLE ( 'NONE', #199, 8.000000000000000000 ) ;
#146 = CARTESIAN_POINT ( 'NONE',  ( -5.000000000000000000, 0.000000000000000000, 755.0000000000000000 ) ) ;
#147 = AXIS2_PLACEMENT_3D ( 'NONE', #338, #245, #229 ) ;
#148 = DIRECTION ( 'NONE',  ( 1.000000000000000000, 0.000000000000000000, 0.000000000000000000 ) ) ;
#149 = ADVANCED_FACE ( 'NONE', ( #72 ), #314, .T. ) ;
#150 = APPROVAL_ROLE ( '' ) ;
#151 = EDGE_LOOP ( 'NONE', ( #142, #320, #327, #213 ) ) ;
#152 = PRODUCT ( '2d49', '2d49', '', ( #340 ) ) ;
#153 = TOROIDAL_SURFACE ( 'NONE', #71, 5.500000000000000000, 0.5000000000000000000 ) ;
#154 = DIRECTION ( 'NONE',  ( 0.000000000000000000, 0.000000000000000000, 1.000000000000000000 ) ) ;
#155 = CARTESIAN_POINT ( 'NONE',  ( 0.000000000000000000, 0.000000000000000000, 5.499999999999949374 ) ) ;
#156 = CARTESIAN_POINT ( 'NONE',  ( 0.000000000000000000, 0.000000000000000000, 755.0000000000000000 ) ) ;
#157 = ADVANCED_FACE ( 'NONE', ( #308, #13 ), #374, .T. ) ;
#158 = DIRECTION ( 'NONE',  ( 0.000000000000000000, 0.000000000000000000, -1.000000000000000000 ) ) ;
#159 = CIRCLE ( 'NONE', #239, 8.000000000000000000 ) ;
#160 = AXIS2_PLACEMENT_3D ( 'NONE', #362, #202, #215 ) ;
#161 = EDGE_CURVE ( 'NONE', #173, #171, #107, .T. ) ;
#162 = FACE_OUTER_BOUND ( 'NONE', #289, .T. ) ;
#163 = AXIS2_PLACEMENT_3D ( 'NONE', #366, #218, #97 ) ;
#164 = APPROVAL_ROLE ( '' ) ;
#165 = CARTESIAN_POINT ( 'NONE',  ( 0.000000000000000000, 0.000000000000000000, 755.0000000000000000 ) ) ;
#166 = ADVANCED_BREP_SHAPE_REPRESENTATION ( '2d49', ( #196, #226 ), #78 ) ;
#167 = AXIS2_PLACEMENT_3D ( 'NONE', #342, #127, #158 ) ;
#168 = VERTEX_POINT ( 'NONE', #75 ) ;
#169 = EDGE_LOOP ( 'NONE', ( #265, #39, #209, #117 ) ) ;
#170 = PERSON_AND_ORGANIZATION ( #14, #58 ) ;
#171 = VERTEX_POINT ( 'NONE', #46 ) ;
#172 = CALENDAR_DATE ( 2022, 8, 7 ) ;
#173 = VERTEX_POINT ( 'NONE', #128 ) ;
#174 = AXIS2_PLACEMENT_3D ( 'NONE', #165, #288, #30 ) ;
#175 = LOCAL_TIME ( 17, 3, 22.00000000000000000, #266 ) ;
#176 = ADVANCED_FACE ( 'NONE', ( #43, #162 ), #19, .F. ) ;
#177 = ORIENTED_EDGE ( 'NONE', *, *, #5, .T. ) ;
#178 = CARTESIAN_POINT ( 'NONE',  ( 8.000000000000000000, 9.797174393178825657E-16, 5.000000000000000000 ) ) ;
#179 = DIRECTION ( 'NONE',  ( 1.000000000000000000, 0.000000000000000000, 0.000000000000000000 ) ) ;
#180 = ORIENTED_EDGE ( 'NONE', *, *, #98, .F. ) ;
#181 = CIRCLE ( 'NONE', #188, 5.500000000000000000 ) ;
#182 = EDGE_CURVE ( 'NONE', #270, #171, #315, .T. ) ;
#183 = CC_DESIGN_SECURITY_CLASSIFICATION ( #10, ( #306 ) ) ;
#184 = FACE_OUTER_BOUND ( 'NONE', #291, .T. ) ;
#185 = DIRECTION ( 'NONE',  ( 1.000000000000000000, 0.000000000000000000, 0.000000000000000000 ) ) ;
#186 = CARTESIAN_POINT ( 'NONE',  ( 0.000000000000000000, 0.000000000000000000, 755.0000000000000000 ) ) ;
#187 = CARTESIAN_POINT ( 'NONE',  ( 0.000000000000000000, 0.000000000000000000, 5.000000000000000000 ) ) ;
#188 = AXIS2_PLACEMENT_3D ( 'NONE', #119, #347, #134 ) ;
#189 = DIRECTION ( 'NONE',  ( -0.000000000000000000, -0.000000000000000000, -1.000000000000000000 ) ) ;
#190 = CC_DESIGN_PERSON_AND_ORGANIZATION_ASSIGNMENT ( #87, #243, ( #306 ) ) ;
#191 = DIRECTION ( 'NONE',  ( 0.000000000000000000, 0.000000000000000000, -1.000000000000000000 ) ) ;
#192 = APPLICATION_PROTOCOL_DEFINITION ( 'international standard', 'config_control_design', 1994, #370 ) ;
#193 = DIRECTION ( 'NONE',  ( 1.000000000000000000, 0.000000000000000000, 0.000000000000000000 ) ) ;
#194 = PRODUCT_DEFINITION ( 'NEZNÁMÝ', '', #306, #141 ) ;
#195 = AXIS2_PLACEMENT_3D ( 'NONE', #283, #189, #77 ) ;
#196 = MANIFOLD_SOLID_BREP ( 'Odebrat vysunutím3', #15 ) ;
#197 = DIRECTION ( 'NONE',  ( 0.000000000000000000, 0.000000000000000000, 1.000000000000000000 ) ) ;
#198 = DIRECTION ( 'NONE',  ( 0.000000000000000000, 0.000000000000000000, 1.000000000000000000 ) ) ;
#199 = AXIS2_PLACEMENT_3D ( 'NONE', #304, #154, #278 ) ;
#200 = ORIENTED_EDGE ( 'NONE', *, *, #204, .F. ) ;
#201 = DATE_AND_TIME ( #287, #279 ) ;
#202 = DIRECTION ( 'NONE',  ( 0.000000000000000000, 0.000000000000000000, 1.000000000000000000 ) ) ;
#203 = CIRCLE ( 'NONE', #260, 5.500000000000000000 ) ;
#204 = EDGE_CURVE ( 'NONE', #171, #270, #332, .T. ) ;
#205 = ORIENTED_EDGE ( 'NONE', *, *, #12, .T. ) ;
#206 = DATE_TIME_ROLE ( 'creation_date' ) ;
#207 = DIRECTION ( 'NONE',  ( 1.000000000000000000, 0.000000000000000000, 0.000000000000000000 ) ) ;
#208 = ORIENTED_EDGE ( 'NONE', *, *, #204, .T. ) ;
#209 = ORIENTED_EDGE ( 'NONE', *, *, #318, .T. ) ;
#210 = EDGE_CURVE ( 'NONE', #272, #352, #203, .T. ) ;
#211 = ORIENTED_EDGE ( 'NONE', *, *, #80, .T. ) ;
#212 = CIRCLE ( 'NONE', #32, 8.000000000000000000 ) ;
#213 = ORIENTED_EDGE ( 'NONE', *, *, #161, .F. ) ;
#214 = DIRECTION ( 'NONE',  ( 1.000000000000000000, 0.000000000000000000, 0.000000000000000000 ) ) ;
#215 = DIRECTION ( 'NONE',  ( 1.000000000000000000, 0.000000000000000000, 0.000000000000000000 ) ) ;
#216 = FACE_OUTER_BOUND ( 'NONE', #305, .T. ) ;
#217 = CIRCLE ( 'NONE', #257, 5.000000000000000000 ) ;
#218 = DIRECTION ( 'NONE',  ( 1.224646799147353207E-16, 1.000000000000000000, -0.000000000000000000 ) ) ;
#219 = CARTESIAN_POINT ( 'NONE',  ( 2.750000000000000000, 3.367778697655221012E-16, 755.0000000000000000 ) ) ;
#220 = VECTOR ( 'NONE', #339, 1000.000000000000000 ) ;
#221 = DIRECTION ( 'NONE',  ( -0.000000000000000000, -0.000000000000000000, -1.000000000000000000 ) ) ;
#222 = CARTESIAN_POINT ( 'NONE',  ( 0.000000000000000000, 0.000000000000000000, 755.0000000000000000 ) ) ;
#223 = DIRECTION ( 'NONE',  ( 1.000000000000000000, 0.000000000000000000, -0.000000000000000000 ) ) ;
#224 = EDGE_CURVE ( 'NONE', #361, #116, #345, .T. ) ;
#225 = DIRECTION ( 'NONE',  ( 1.000000000000000000, 0.000000000000000000, 0.000000000000000000 ) ) ;
#226 = AXIS2_PLACEMENT_3D ( 'NONE', #349, #197, #375 ) ;
#227 = CC_DESIGN_APPROVAL ( #86, ( #306 ) ) ;
#228 = DIRECTION ( 'NONE',  ( -0.000000000000000000, -0.000000000000000000, -1.000000000000000000 ) ) ;
#229 = DIRECTION ( 'NONE',  ( 1.000000000000000000, 0.000000000000000000, 0.000000000000000000 ) ) ;
#230 = ORIENTED_EDGE ( 'NONE', *, *, #126, .T. ) ;
#231 = LINE ( 'NONE', #178, #232 ) ;
#232 = VECTOR ( 'NONE', #316, 1000.000000000000000 ) ;
#233 = ORIENTED_EDGE ( 'NONE', *, *, #161, .T. ) ;
#234 = PERSON_AND_ORGANIZATION ( #14, #58 ) ;
#235 = APPLICATION_CONTEXT ( 'configuration controlled 3d designs of mechanical parts and assemblies' ) ;
#236 = ORIENTED_EDGE ( 'NONE', *, *, #12, .F. ) ;
#237 = COORDINATED_UNIVERSAL_TIME_OFFSET ( 1, 0, .AHEAD. ) ;
#238 = ORIENTED_EDGE ( 'NONE', *, *, #80, .F. ) ;
#239 = AXIS2_PLACEMENT_3D ( 'NONE', #187, #34, #335 ) ;
#240 = PERSON_AND_ORGANIZATION_ROLE ( 'creator' ) ;
#241 = ORIENTED_EDGE ( 'NONE', *, *, #267, .T. ) ;
#242 = APPROVAL_PERSON_ORGANIZATION ( #259, #123, #164 ) ;
#243 = PERSON_AND_ORGANIZATION_ROLE ( 'design_supplier' ) ;
#244 = CC_DESIGN_APPROVAL ( #334, ( #10 ) ) ;
#245 = DIRECTION ( 'NONE',  ( -0.000000000000000000, -0.000000000000000000, -1.000000000000000000 ) ) ;
#246 = PRODUCT_DEFINITION_SHAPE ( 'NONE', 'NONE',  #194 ) ;
#247 = DIRECTION ( 'NONE',  ( 0.000000000000000000, 0.000000000000000000, 1.000000000000000000 ) ) ;
#248 = CALENDAR_DATE ( 2022, 8, 7 ) ;
#249 = CARTESIAN_POINT ( 'NONE',  ( 2.750000000000000000, 3.367778697655221012E-16, 0.000000000000000000 ) ) ;
#250 = CC_DESIGN_DATE_AND_TIME_ASSIGNMENT ( #143, #206, ( #194 ) ) ;
#251 = CARTESIAN_POINT ( 'NONE',  ( -8.000000000000000000, 0.000000000000000000, 5.000000000000000000 ) ) ;
#252 = FACE_OUTER_BOUND ( 'NONE', #36, .T. ) ;
#253 = CARTESIAN_POINT ( 'NONE',  ( 5.000000000000000000, 6.123233995736766282E-16, 755.0000000000000000 ) ) ;
#254 = DIRECTION ( 'NONE',  ( -0.000000000000000000, -0.000000000000000000, -1.000000000000000000 ) ) ;
#255 = CYLINDRICAL_SURFACE ( 'NONE', #312, 2.750000000000000000 ) ;
#256 = CARTESIAN_POINT ( 'NONE',  ( 0.000000000000000000, 0.000000000000000000, 5.000000000000000000 ) ) ;
#257 = AXIS2_PLACEMENT_3D ( 'NONE', #273, #328, #63 ) ;
#258 = DIRECTION ( 'NONE',  ( 1.000000000000000000, 0.000000000000000000, 0.000000000000000000 ) ) ;
#259 = PERSON_AND_ORGANIZATION ( #14, #58 ) ;
#260 = AXIS2_PLACEMENT_3D ( 'NONE', #92, #94, #2 ) ;
#261 = EDGE_CURVE ( 'NONE', #326, #168, #231, .T. ) ;
#262 = LINE ( 'NONE', #264, #27 ) ;
#263 = EDGE_LOOP ( 'NONE', ( #140, #205 ) ) ;
#264 = CARTESIAN_POINT ( 'NONE',  ( 5.000000000000000000, 6.123233995736766282E-16, 755.0000000000000000 ) ) ;
#265 = ORIENTED_EDGE ( 'NONE', *, *, #299, .F. ) ;
#266 = COORDINATED_UNIVERSAL_TIME_OFFSET ( 1, 0, .AHEAD. ) ;
#267 = EDGE_CURVE ( 'NONE', #317, #168, #212, .T. ) ;
#268 = ORIENTED_EDGE ( 'NONE', *, *, #299, .T. ) ;
#269 = PRODUCT_RELATED_PRODUCT_CATEGORY ( 'detail', '', ( #152 ) ) ;
#270 = VERTEX_POINT ( 'NONE', #249 ) ;
#271 = APPROVAL_ROLE ( '' ) ;
#272 = VERTEX_POINT ( 'NONE', #319 ) ;
#273 = CARTESIAN_POINT ( 'NONE',  ( 0.000000000000000000, 0.000000000000000000, 5.499999999999949374 ) ) ;
#274 = FACE_OUTER_BOUND ( 'NONE', #25, .T. ) ;
#275 = DIRECTION ( 'NONE',  ( -0.000000000000000000, -0.000000000000000000, -1.000000000000000000 ) ) ;
#276 = CIRCLE ( 'NONE', #88, 2.750000000000000000 ) ;
#277 =( NAMED_UNIT ( * ) PLANE_ANGLE_UNIT ( ) SI_UNIT ( $, .RADIAN. ) );
#278 = DIRECTION ( 'NONE',  ( 1.000000000000000000, 0.000000000000000000, 0.000000000000000000 ) ) ;
#279 = LOCAL_TIME ( 17, 3, 22.00000000000000000, #106 ) ;
#280 = DIRECTION ( 'NONE',  ( -1.000000000000000000, 0.000000000000000000, 0.000000000000000000 ) ) ;
#281 = CARTESIAN_POINT ( 'NONE',  ( 0.000000000000000000, 0.000000000000000000, 755.0000000000000000 ) ) ;
#282 = DIRECTION ( 'NONE',  ( -1.000000000000000000, 0.000000000000000000, 0.000000000000000000 ) ) ;
#283 = CARTESIAN_POINT ( 'NONE',  ( 0.000000000000000000, 0.000000000000000000, 755.0000000000000000 ) ) ;
#284 = CARTESIAN_POINT ( 'NONE',  ( 0.000000000000000000, 0.000000000000000000, 755.0000000000000000 ) ) ;
#285 = CARTESIAN_POINT ( 'NONE',  ( 0.000000000000000000, 0.000000000000000000, 0.000000000000000000 ) ) ;
#286 = CC_DESIGN_PERSON_AND_ORGANIZATION_ASSIGNMENT ( #83, #20, ( #152 ) ) ;
#287 = CALENDAR_DATE ( 2022, 8, 7 ) ;
#288 = DIRECTION ( 'NONE',  ( 0.000000000000000000, 0.000000000000000000, 1.000000000000000000 ) ) ;
#289 = EDGE_LOOP ( 'NONE', ( #381, #55 ) ) ;
#290 = PERSON_AND_ORGANIZATION ( #14, #58 ) ;
#291 = EDGE_LOOP ( 'NONE', ( #353, #300, #293, #56 ) ) ;
#292 = EDGE_CURVE ( 'NONE', #352, #272, #181, .T. ) ;
#293 = ORIENTED_EDGE ( 'NONE', *, *, #224, .T. ) ;
#294 = DATE_AND_TIME ( #172, #337 ) ;
#295 = UNCERTAINTY_MEASURE_WITH_UNIT (LENGTH_MEASURE( 1.000000000000000082E-05 ), #301, 'distance_accuracy_value', 'NONE');
#296 = ORIENTED_EDGE ( 'NONE', *, *, #292, .F. ) ;
#297 = ORIENTED_EDGE ( 'NONE', *, *, #210, .F. ) ;
#298 = CARTESIAN_POINT ( 'NONE',  ( 0.000000000000000000, 0.000000000000000000, 5.499999999999949374 ) ) ;
#299 = EDGE_CURVE ( 'NONE', #61, #361, #21, .T. ) ;
#300 = ORIENTED_EDGE ( 'NONE', *, *, #131, .F. ) ;
#301 =( LENGTH_UNIT ( ) NAMED_UNIT ( * ) SI_UNIT ( .MILLI., .METRE. ) );
#302 = APPROVAL_STATUS ( 'not_yet_approved' ) ;
#303 = CARTESIAN_POINT ( 'NONE',  ( 2.750000000000000000, 3.367778697655221012E-16, 755.0000000000000000 ) ) ;
#304 = CARTESIAN_POINT ( 'NONE',  ( 0.000000000000000000, 0.000000000000000000, 5.000000000000000000 ) ) ;
#305 = EDGE_LOOP ( 'NONE', ( #180, #115, #233, #208 ) ) ;
#306 = PRODUCT_DEFINITION_FORMATION_WITH_SPECIFIED_SOURCE ( 'LIBOVOLNÝ', '', #152, .NOT_KNOWN. ) ;
#307 = PERSON_AND_ORGANIZATION ( #14, #58 ) ;
#308 = FACE_BOUND ( 'NONE', #4, .T. ) ;
#309 = CYLINDRICAL_SURFACE ( 'NONE', #44, 8.000000000000000000 ) ;
#310 = ADVANCED_FACE ( 'NONE', ( #330, #54 ), #81, .T. ) ;
#311 = DIRECTION ( 'NONE',  ( 0.000000000000000000, 0.000000000000000000, -1.000000000000000000 ) ) ;
#312 = AXIS2_PLACEMENT_3D ( 'NONE', #222, #191, #368 ) ;
#313 = EDGE_CURVE ( 'NONE', #61, #144, #262, .T. ) ;
#314 = CYLINDRICAL_SURFACE ( 'NONE', #195, 5.000000000000000000 ) ;
#315 = CIRCLE ( 'NONE', #358, 2.750000000000000000 ) ;
#316 = DIRECTION ( 'NONE',  ( -0.000000000000000000, -0.000000000000000000, -1.000000000000000000 ) ) ;
#317 = VERTEX_POINT ( 'NONE', #24 ) ;
#318 = EDGE_CURVE ( 'NONE', #144, #116, #217, .T. ) ;
#319 = CARTESIAN_POINT ( 'NONE',  ( -5.500000000000000000, 6.735557395310442023E-16, 4.999999999999975131 ) ) ;
#320 = ORIENTED_EDGE ( 'NONE', *, *, #98, .T. ) ;
#321 = PERSON_AND_ORGANIZATION_ROLE ( 'classification_officer' ) ;
#322 = AXIS2_PLACEMENT_3D ( 'NONE', #333, #254, #70 ) ;
#323 = EDGE_LOOP ( 'NONE', ( #355, #346 ) ) ;
#324 = CALENDAR_DATE ( 2022, 8, 7 ) ;
#325 = AXIS2_PLACEMENT_3D ( 'NONE', #285, #376, #372 ) ;
#326 = VERTEX_POINT ( 'NONE', #137 ) ;
#327 = ORIENTED_EDGE ( 'NONE', *, *, #182, .T. ) ;
#328 = DIRECTION ( 'NONE',  ( 0.000000000000000000, 0.000000000000000000, 1.000000000000000000 ) ) ;
#329 = DIRECTION ( 'NONE',  ( -1.000000000000000000, 0.000000000000000000, 0.000000000000000000 ) ) ;
#330 = FACE_BOUND ( 'NONE', #323, .T. ) ;
#331 = EDGE_LOOP ( 'NONE', ( #200, #50 ) ) ;
#332 = CIRCLE ( 'NONE', #147, 2.750000000000000000 ) ;
#333 = CARTESIAN_POINT ( 'NONE',  ( 0.000000000000000000, 0.000000000000000000, 5.000000000000000000 ) ) ;
#334 = APPROVAL ( #302, 'NEURÈENÝ' ) ;
#335 = DIRECTION ( 'NONE',  ( 1.000000000000000000, 0.000000000000000000, 0.000000000000000000 ) ) ;
#336 = AXIS2_PLACEMENT_3D ( 'NONE', #156, #74, #193 ) ;
#337 = LOCAL_TIME ( 17, 3, 22.00000000000000000, #360 ) ;
#338 = CARTESIAN_POINT ( 'NONE',  ( 0.000000000000000000, 0.000000000000000000, 0.000000000000000000 ) ) ;
#339 = DIRECTION ( 'NONE',  ( 0.000000000000000000, 0.000000000000000000, -1.000000000000000000 ) ) ;
#340 = MECHANICAL_CONTEXT ( 'NONE', #370, 'mechanical' ) ;
#341 = AXIS2_PLACEMENT_3D ( 'NONE', #298, #247, #214 ) ;
#342 = CARTESIAN_POINT ( 'NONE',  ( 5.500000000000000000, 0.000000000000000000, 5.499999999999949374 ) ) ;
#343 = ADVANCED_FACE ( 'NONE', ( #184 ), #132, .T. ) ;
#344 = CARTESIAN_POINT ( 'NONE',  ( -2.750000000000000000, 0.000000000000000000, 755.0000000000000000 ) ) ;
#345 = LINE ( 'NONE', #146, #350 ) ;
#346 = ORIENTED_EDGE ( 'NONE', *, *, #112, .F. ) ;
#347 = DIRECTION ( 'NONE',  ( -0.000000000000000000, -0.000000000000000000, -1.000000000000000000 ) ) ;
#348 = EDGE_LOOP ( 'NONE', ( #113, #268 ) ) ;
#349 = CARTESIAN_POINT ( 'NONE',  ( 0.000000000000000000, 0.000000000000000000, 0.000000000000000000 ) ) ;
#350 = VECTOR ( 'NONE', #48, 1000.000000000000000 ) ;
#351 = CARTESIAN_POINT ( 'NONE',  ( 0.000000000000000000, 0.000000000000000000, 0.000000000000000000 ) ) ;
#352 = VERTEX_POINT ( 'NONE', #11 ) ;
#353 = ORIENTED_EDGE ( 'NONE', *, *, #313, .F. ) ;
#354 = AXIS2_PLACEMENT_3D ( 'NONE', #186, #60, #329 ) ;
#355 = ORIENTED_EDGE ( 'NONE', *, *, #42, .F. ) ;
#356 = SECURITY_CLASSIFICATION_LEVEL ( 'unclassified' ) ;
#357 = ADVANCED_FACE ( 'NONE', ( #252 ), #309, .T. ) ;
#358 = AXIS2_PLACEMENT_3D ( 'NONE', #103, #221, #104 ) ;
#359 = DIRECTION ( 'NONE',  ( 0.000000000000000000, 0.000000000000000000, 1.000000000000000000 ) ) ;
#360 = COORDINATED_UNIVERSAL_TIME_OFFSET ( 1, 0, .AHEAD. ) ;
#361 = VERTEX_POINT ( 'NONE', #125 ) ;
#362 = CARTESIAN_POINT ( 'NONE',  ( 0.000000000000000000, 0.000000000000000000, 755.0000000000000000 ) ) ;
#363 = DIRECTION ( 'NONE',  ( 0.000000000000000000, 0.000000000000000000, 1.000000000000000000 ) ) ;
#364 = ADVANCED_FACE ( 'NONE', ( #373 ), #255, .F. ) ;
#365 = APPROVAL_DATE_TIME ( #35, #334 ) ;
#366 = CARTESIAN_POINT ( 'NONE',  ( -5.500000000000000000, 6.735557395310442023E-16, 5.499999999999949374 ) ) ;
#367 = AXIS2_PLACEMENT_3D ( 'NONE', #377, #369, #225 ) ;
#368 = DIRECTION ( 'NONE',  ( -1.000000000000000000, 0.000000000000000000, 0.000000000000000000 ) ) ;
#369 = DIRECTION ( 'NONE',  ( 0.000000000000000000, 0.000000000000000000, 1.000000000000000000 ) ) ;
#370 = APPLICATION_CONTEXT ( 'configuration controlled 3d designs of mechanical parts and assemblies' ) ;
#371 = CC_DESIGN_DATE_AND_TIME_ASSIGNMENT ( #294, #26, ( #10 ) ) ;
#372 = DIRECTION ( 'NONE',  ( 1.000000000000000000, 0.000000000000000000, -0.000000000000000000 ) ) ;
#373 = FACE_OUTER_BOUND ( 'NONE', #151, .T. ) ;
#374 = PLANE ( 'NONE',  #53 ) ;
#375 = DIRECTION ( 'NONE',  ( 1.000000000000000000, 0.000000000000000000, 0.000000000000000000 ) ) ;
#376 = DIRECTION ( 'NONE',  ( 0.000000000000000000, 0.000000000000000000, 1.000000000000000000 ) ) ;
#377 = CARTESIAN_POINT ( 'NONE',  ( 0.000000000000000000, 0.000000000000000000, 0.000000000000000000 ) ) ;
#378 = LOCAL_TIME ( 17, 3, 22.00000000000000000, #237 ) ;
#379 = DIRECTION ( 'NONE',  ( 0.000000000000000000, 0.000000000000000000, 1.000000000000000000 ) ) ;
#380 = DIRECTION ( 'NONE',  ( -0.000000000000000000, -0.000000000000000000, -1.000000000000000000 ) ) ;
#381 = ORIENTED_EDGE ( 'NONE', *, *, #267, .F. ) ;
ENDSEC;
END-ISO-10303-21;
