ISO-10303-21;
HEADER;
FILE_DESCRIPTION (( 'STEP AP203' ),
    '1' );
FILE_NAME ('c2a9.STEP',
    '2022-07-08T15:08:29',
    ( '' ),
    ( '' ),
    'SwSTEP 2.0',
    'SolidWorks 2019',
    '' );
FILE_SCHEMA (( 'CONFIG_CONTROL_DESIGN' ));
ENDSEC;

DATA;
#1 = AXIS2_PLACEMENT_3D ( 'NONE', #347, #144, #199 ) ;
#2 = DIRECTION ( 'NONE',  ( 0.000000000000000000, 0.000000000000000000, 1.000000000000000000 ) ) ;
#3 = EDGE_LOOP ( 'NONE', ( #256, #227, #34, #321 ) ) ;
#4 = ORIENTED_EDGE ( 'NONE', *, *, #59, .F. ) ;
#5 = EDGE_CURVE ( 'NONE', #288, #203, #185, .T. ) ;
#6 = AXIS2_PLACEMENT_3D ( 'NONE', #123, #336, #274 ) ;
#7 = ORIENTED_EDGE ( 'NONE', *, *, #219, .T. ) ;
#8 = PERSON_AND_ORGANIZATION ( #258, #248 ) ;
#9 = VECTOR ( 'NONE', #370, 1000.000000000000000 ) ;
#10 = VERTEX_POINT ( 'NONE', #156 ) ;
#11 = ORIENTED_EDGE ( 'NONE', *, *, #89, .F. ) ;
#12 = AXIS2_PLACEMENT_3D ( 'NONE', #45, #295, #157 ) ;
#13 = CARTESIAN_POINT ( 'NONE',  ( 0.000000000000000000, 0.000000000000000000, 305.0000000000000000 ) ) ;
#14 = DIRECTION ( 'NONE',  ( 0.000000000000000000, 0.000000000000000000, 1.000000000000000000 ) ) ;
#15 = APPROVAL_PERSON_ORGANIZATION ( #325, #252, #147 ) ;
#16 = EDGE_CURVE ( 'NONE', #148, #90, #193, .T. ) ;
#17 = DIRECTION ( 'NONE',  ( 0.000000000000000000, 0.000000000000000000, 1.000000000000000000 ) ) ;
#18 = CC_DESIGN_DATE_AND_TIME_ASSIGNMENT ( #201, #118, ( #259 ) ) ;
#19 = DIRECTION ( 'NONE',  ( -0.000000000000000000, -0.000000000000000000, -1.000000000000000000 ) ) ;
#20 = CARTESIAN_POINT ( 'NONE',  ( -4.000000000000000000, 0.000000000000000000, 5.500000000000005329 ) ) ;
#21 = EDGE_CURVE ( 'NONE', #41, #300, #217, .T. ) ;
#22 = CALENDAR_DATE ( 2022, 8, 7 ) ;
#23 = CARTESIAN_POINT ( 'NONE',  ( 7.000000000000000000, 8.572527594031473190E-16, 5.000000000000000000 ) ) ;
#24 = MANIFOLD_SOLID_BREP ( 'Odebrat vysunutím3', #351 ) ;
#25 = CC_DESIGN_PERSON_AND_ORGANIZATION_ASSIGNMENT ( #312, #373, ( #95 ) ) ;
#26 = CARTESIAN_POINT ( 'NONE',  ( 0.000000000000000000, 0.000000000000000000, 305.0000000000000000 ) ) ;
#27 = LOCAL_TIME ( 17, 8, 29.00000000000000000, #155 ) ;
#28 = COORDINATED_UNIVERSAL_TIME_OFFSET ( 1, 0, .AHEAD. ) ;
#29 = ORIENTED_EDGE ( 'NONE', *, *, #318, .F. ) ;
#30 = DIRECTION ( 'NONE',  ( -1.000000000000000000, 0.000000000000000000, 0.000000000000000000 ) ) ;
#31 = VERTEX_POINT ( 'NONE', #239 ) ;
#32 = AXIS2_PLACEMENT_3D ( 'NONE', #107, #374, #276 ) ;
#33 = CIRCLE ( 'NONE', #48, 2.600000000000000089 ) ;
#34 = ORIENTED_EDGE ( 'NONE', *, *, #5, .T. ) ;
#35 = PERSON_AND_ORGANIZATION_ROLE ( 'design_supplier' ) ;
#36 = CARTESIAN_POINT ( 'NONE',  ( 0.000000000000000000, 0.000000000000000000, 0.000000000000000000 ) ) ;
#37 = CARTESIAN_POINT ( 'NONE',  ( 0.000000000000000000, 0.000000000000000000, 5.000000000000000000 ) ) ;
#38 = ADVANCED_FACE ( 'NONE', ( #334 ), #211, .T. ) ;
#39 = DIRECTION ( 'NONE',  ( -0.000000000000000000, -0.000000000000000000, -1.000000000000000000 ) ) ;
#40 = APPROVAL_DATE_TIME ( #367, #182 ) ;
#41 = VERTEX_POINT ( 'NONE', #360 ) ;
#42 = ADVANCED_BREP_SHAPE_REPRESENTATION ( 'c2a9', ( #24, #264 ), #353 ) ;
#43 = CIRCLE ( 'NONE', #243, 4.000000000000000000 ) ;
#44 = EDGE_LOOP ( 'NONE', ( #29, #7, #174, #55 ) ) ;
#45 = CARTESIAN_POINT ( 'NONE',  ( 0.000000000000000000, 0.000000000000000000, 0.000000000000000000 ) ) ;
#46 = CC_DESIGN_PERSON_AND_ORGANIZATION_ASSIGNMENT ( #291, #35, ( #169 ) ) ;
#47 = AXIS2_PLACEMENT_3D ( 'NONE', #13, #242, #99 ) ;
#48 = AXIS2_PLACEMENT_3D ( 'NONE', #241, #202, #68 ) ;
#49 = FACE_OUTER_BOUND ( 'NONE', #254, .T. ) ;
#50 = DIRECTION ( 'NONE',  ( 0.000000000000000000, 0.000000000000000000, -1.000000000000000000 ) ) ;
#51 = AXIS2_PLACEMENT_3D ( 'NONE', #208, #14, #77 ) ;
#52 = DIRECTION ( 'NONE',  ( 0.000000000000000000, 0.000000000000000000, 1.000000000000000000 ) ) ;
#53 = CIRCLE ( 'NONE', #115, 2.600000000000000089 ) ;
#54 = CARTESIAN_POINT ( 'NONE',  ( 4.000000000000000000, 4.898587196589412829E-16, 305.0000000000000000 ) ) ;
#55 = ORIENTED_EDGE ( 'NONE', *, *, #171, .F. ) ;
#56 = DATE_AND_TIME ( #198, #289 ) ;
#57 = CARTESIAN_POINT ( 'NONE',  ( 0.000000000000000000, 0.000000000000000000, 5.500000000000005329 ) ) ;
#58 = ORIENTED_EDGE ( 'NONE', *, *, #359, .T. ) ;
#59 = EDGE_CURVE ( 'NONE', #31, #302, #377, .T. ) ;
#60 = EDGE_LOOP ( 'NONE', ( #150, #200 ) ) ;
#61 = SECURITY_CLASSIFICATION ( '', '', #232 ) ;
#62 = ORIENTED_EDGE ( 'NONE', *, *, #21, .T. ) ;
#63 = ORIENTED_EDGE ( 'NONE', *, *, #143, .T. ) ;
#64 = DATE_AND_TIME ( #355, #314 ) ;
#65 = CARTESIAN_POINT ( 'NONE',  ( 7.000000000000000000, 8.572527594031473190E-16, 5.000000000000000000 ) ) ;
#66 = AXIS2_PLACEMENT_3D ( 'NONE', #371, #137, #340 ) ;
#67 = ORIENTED_EDGE ( 'NONE', *, *, #16, .F. ) ;
#68 = DIRECTION ( 'NONE',  ( 1.000000000000000000, 0.000000000000000000, 0.000000000000000000 ) ) ;
#69 = ORIENTED_EDGE ( 'NONE', *, *, #5, .F. ) ;
#70 =( NAMED_UNIT ( * ) PLANE_ANGLE_UNIT ( ) SI_UNIT ( $, .RADIAN. ) );
#71 = ADVANCED_FACE ( 'NONE', ( #178 ), #296, .T. ) ;
#72 = AXIS2_PLACEMENT_3D ( 'NONE', #270, #39, #272 ) ;
#73 = APPROVAL_ROLE ( '' ) ;
#74 = ORIENTED_EDGE ( 'NONE', *, *, #16, .T. ) ;
#75 = CIRCLE ( 'NONE', #66, 0.5000000000000004441 ) ;
#76 = CIRCLE ( 'NONE', #154, 7.000000000000000000 ) ;
#77 = DIRECTION ( 'NONE',  ( 1.000000000000000000, 0.000000000000000000, 0.000000000000000000 ) ) ;
#78 = CARTESIAN_POINT ( 'NONE',  ( -7.000000000000000000, 0.000000000000000000, 5.000000000000000000 ) ) ;
#79 = CARTESIAN_POINT ( 'NONE',  ( -7.000000000000000000, 0.000000000000000000, 0.000000000000000000 ) ) ;
#80 = CARTESIAN_POINT ( 'NONE',  ( -2.600000000000000089, 0.000000000000000000, 305.0000000000000000 ) ) ;
#81 = TOROIDAL_SURFACE ( 'NONE', #281, 4.500000000000000888, 0.5000000000000000000 ) ;
#82 = DIRECTION ( 'NONE',  ( 1.000000000000000000, 0.000000000000000000, -0.000000000000000000 ) ) ;
#83 = APPLICATION_PROTOCOL_DEFINITION ( 'international standard', 'config_control_design', 1994, #375 ) ;
#84 = FACE_BOUND ( 'NONE', #153, .T. ) ;
#85 = ORIENTED_EDGE ( 'NONE', *, *, #277, .T. ) ;
#86 = CC_DESIGN_APPROVAL ( #252, ( #169 ) ) ;
#87 = DIRECTION ( 'NONE',  ( 0.000000000000000000, 0.000000000000000000, 1.000000000000000000 ) ) ;
#88 = VERTEX_POINT ( 'NONE', #65 ) ;
#89 = EDGE_CURVE ( 'NONE', #362, #10, #319, .T. ) ;
#90 = VERTEX_POINT ( 'NONE', #245 ) ;
#91 = APPROVAL_DATE_TIME ( #257, #252 ) ;
#92 = EDGE_LOOP ( 'NONE', ( #126, #380, #117, #74 ) ) ;
#93 = EDGE_LOOP ( 'NONE', ( #294, #317 ) ) ;
#94 = ORIENTED_EDGE ( 'NONE', *, *, #366, .F. ) ;
#95 = PRODUCT ( 'c2a9', 'c2a9', '', ( #342 ) ) ;
#96 = CARTESIAN_POINT ( 'NONE',  ( 0.000000000000000000, 0.000000000000000000, 5.000000000000000000 ) ) ;
#97 = FACE_OUTER_BOUND ( 'NONE', #350, .T. ) ;
#98 = AXIS2_PLACEMENT_3D ( 'NONE', #308, #17, #216 ) ;
#99 = DIRECTION ( 'NONE',  ( -1.000000000000000000, 0.000000000000000000, 0.000000000000000000 ) ) ;
#100 = CARTESIAN_POINT ( 'NONE',  ( 4.500000000000000888, 0.000000000000000000, 5.500000000000005329 ) ) ;
#101 = CARTESIAN_POINT ( 'NONE',  ( 0.000000000000000000, 0.000000000000000000, 5.500000000000005329 ) ) ;
#102 = ORIENTED_EDGE ( 'NONE', *, *, #173, .T. ) ;
#103 = TOROIDAL_SURFACE ( 'NONE', #138, 4.500000000000000888, 0.5000000000000000000 ) ;
#104 = CARTESIAN_POINT ( 'NONE',  ( 0.000000000000000000, 0.000000000000000000, 5.000000000000000000 ) ) ;
#105 = ADVANCED_FACE ( 'NONE', ( #181 ), #176, .F. ) ;
#106 = DIRECTION ( 'NONE',  ( 0.000000000000000000, 0.000000000000000000, 1.000000000000000000 ) ) ;
#107 = CARTESIAN_POINT ( 'NONE',  ( 0.000000000000000000, 0.000000000000000000, 305.0000000000000000 ) ) ;
#108 = AXIS2_PLACEMENT_3D ( 'NONE', #101, #187, #183 ) ;
#109 = EDGE_CURVE ( 'NONE', #90, #148, #328, .T. ) ;
#110 = PERSON_AND_ORGANIZATION ( #258, #248 ) ;
#111 = LINE ( 'NONE', #78, #146 ) ;
#112 = APPROVAL ( #192, 'NEURÈENÝ' ) ;
#113 = DIRECTION ( 'NONE',  ( 0.000000000000000000, 0.000000000000000000, 1.000000000000000000 ) ) ;
#114 = VERTEX_POINT ( 'NONE', #213 ) ;
#115 = AXIS2_PLACEMENT_3D ( 'NONE', #379, #2, #225 ) ;
#116 = EDGE_CURVE ( 'NONE', #263, #362, #358, .T. ) ;
#117 = ORIENTED_EDGE ( 'NONE', *, *, #171, .T. ) ;
#118 = DATE_TIME_ROLE ( 'creation_date' ) ;
#119 = ORIENTED_EDGE ( 'NONE', *, *, #359, .F. ) ;
#120 = EDGE_LOOP ( 'NONE', ( #231, #141, #58, #69 ) ) ;
#121 = CIRCLE ( 'NONE', #1, 7.000000000000000000 ) ;
#122 = DIRECTION ( 'NONE',  ( 1.000000000000000000, 0.000000000000000000, 0.000000000000000000 ) ) ;
#123 = CARTESIAN_POINT ( 'NONE',  ( 0.000000000000000000, 0.000000000000000000, 305.0000000000000000 ) ) ;
#124 = PRODUCT_DEFINITION_SHAPE ( 'NONE', 'NONE',  #259 ) ;
#125 = ADVANCED_FACE ( 'NONE', ( #158 ), #339, .T. ) ;
#126 = ORIENTED_EDGE ( 'NONE', *, *, #219, .F. ) ;
#127 = CC_DESIGN_DATE_AND_TIME_ASSIGNMENT ( #64, #357, ( #61 ) ) ;
#128 = AXIS2_PLACEMENT_3D ( 'NONE', #224, #330, #30 ) ;
#129 = CARTESIAN_POINT ( 'NONE',  ( 0.000000000000000000, 0.000000000000000000, 5.000000000000000000 ) ) ;
#130 = CC_DESIGN_PERSON_AND_ORGANIZATION_ASSIGNMENT ( #286, #142, ( #259 ) ) ;
#131 = EDGE_LOOP ( 'NONE', ( #4, #229 ) ) ;
#132 = FACE_OUTER_BOUND ( 'NONE', #92, .T. ) ;
#133 = AXIS2_PLACEMENT_3D ( 'NONE', #37, #268, #331 ) ;
#134 = CC_DESIGN_APPROVAL ( #182, ( #61 ) ) ;
#135 = DIRECTION ( 'NONE',  ( -0.000000000000000000, -0.000000000000000000, -1.000000000000000000 ) ) ;
#136 = PLANE ( 'NONE',  #332 ) ;
#137 = DIRECTION ( 'NONE',  ( 1.224646799147353207E-16, 1.000000000000000000, -0.000000000000000000 ) ) ;
#138 = AXIS2_PLACEMENT_3D ( 'NONE', #316, #228, #237 ) ;
#139 = FACE_OUTER_BOUND ( 'NONE', #207, .T. ) ;
#140 = CARTESIAN_POINT ( 'NONE',  ( 2.600000000000000089, 3.184081677783118191E-16, 305.0000000000000000 ) ) ;
#141 = ORIENTED_EDGE ( 'NONE', *, *, #204, .T. ) ;
#142 = PERSON_AND_ORGANIZATION_ROLE ( 'creator' ) ;
#143 = EDGE_CURVE ( 'NONE', #203, #10, #75, .T. ) ;
#144 = DIRECTION ( 'NONE',  ( 0.000000000000000000, 0.000000000000000000, 1.000000000000000000 ) ) ;
#145 = EDGE_LOOP ( 'NONE', ( #315, #233, #235, #85 ) ) ;
#146 = VECTOR ( 'NONE', #160, 1000.000000000000000 ) ;
#147 = APPROVAL_ROLE ( '' ) ;
#148 = VERTEX_POINT ( 'NONE', #79 ) ;
#149 = CALENDAR_DATE ( 2022, 8, 7 ) ;
#150 = ORIENTED_EDGE ( 'NONE', *, *, #89, .T. ) ;
#151 = DIRECTION ( 'NONE',  ( 0.000000000000000000, 0.000000000000000000, 1.000000000000000000 ) ) ;
#152 = DIRECTION ( 'NONE',  ( -0.000000000000000000, -0.000000000000000000, -1.000000000000000000 ) ) ;
#153 = EDGE_LOOP ( 'NONE', ( #168, #165 ) ) ;
#154 = AXIS2_PLACEMENT_3D ( 'NONE', #376, #333, #122 ) ;
#155 = COORDINATED_UNIVERSAL_TIME_OFFSET ( 1, 0, .AHEAD. ) ;
#156 = CARTESIAN_POINT ( 'NONE',  ( -4.500000000000000888, 5.510910596163088569E-16, 5.000000000000002665 ) ) ;
#157 = DIRECTION ( 'NONE',  ( 1.000000000000000000, 0.000000000000000000, 0.000000000000000000 ) ) ;
#158 = FACE_OUTER_BOUND ( 'NONE', #3, .T. ) ;
#159 = AXIS2_PLACEMENT_3D ( 'NONE', #36, #151, #303 ) ;
#160 = DIRECTION ( 'NONE',  ( -0.000000000000000000, -0.000000000000000000, -1.000000000000000000 ) ) ;
#161 = CC_DESIGN_PERSON_AND_ORGANIZATION_ASSIGNMENT ( #322, #170, ( #169 ) ) ;
#162 = APPROVAL_ROLE ( '' ) ;
#163 = LINE ( 'NONE', #249, #9 ) ;
#164 = DIRECTION ( 'NONE',  ( 1.000000000000000000, 0.000000000000000000, 0.000000000000000000 ) ) ;
#165 = ORIENTED_EDGE ( 'NONE', *, *, #21, .F. ) ;
#166 = ORIENTED_EDGE ( 'NONE', *, *, #116, .T. ) ;
#167 = CALENDAR_DATE ( 2022, 8, 7 ) ;
#168 = ORIENTED_EDGE ( 'NONE', *, *, #277, .F. ) ;
#169 = PRODUCT_DEFINITION_FORMATION_WITH_SPECIFIED_SOURCE ( 'LIBOVOLNÝ', '', #95, .NOT_KNOWN. ) ;
#170 = PERSON_AND_ORGANIZATION_ROLE ( 'creator' ) ;
#171 = EDGE_CURVE ( 'NONE', #114, #148, #111, .T. ) ;
#172 = ORIENTED_EDGE ( 'NONE', *, *, #287, .F. ) ;
#173 = EDGE_CURVE ( 'NONE', #302, #41, #345, .T. ) ;
#174 = ORIENTED_EDGE ( 'NONE', *, *, #109, .T. ) ;
#175 = PLANE ( 'NONE',  #159 ) ;
#176 = CYLINDRICAL_SURFACE ( 'NONE', #47, 2.600000000000000089 ) ;
#177 = EDGE_CURVE ( 'NONE', #31, #300, #194, .T. ) ;
#178 = FACE_OUTER_BOUND ( 'NONE', #44, .T. ) ;
#179 = CYLINDRICAL_SURFACE ( 'NONE', #128, 2.600000000000000089 ) ;
#180 = CARTESIAN_POINT ( 'NONE',  ( 0.000000000000000000, 0.000000000000000000, 0.000000000000000000 ) ) ;
#181 = FACE_OUTER_BOUND ( 'NONE', #352, .T. ) ;
#182 = APPROVAL ( #304, 'NEURÈENÝ' ) ;
#183 = DIRECTION ( 'NONE',  ( 1.000000000000000000, 0.000000000000000000, 0.000000000000000000 ) ) ;
#184 = AXIS2_PLACEMENT_3D ( 'NONE', #297, #19, #301 ) ;
#185 = LINE ( 'NONE', #266, #253 ) ;
#186 = DIRECTION ( 'NONE',  ( 0.000000000000000000, 0.000000000000000000, -1.000000000000000000 ) ) ;
#187 = DIRECTION ( 'NONE',  ( 0.000000000000000000, 0.000000000000000000, 1.000000000000000000 ) ) ;
#188 = AXIS2_PLACEMENT_3D ( 'NONE', #100, #212, #335 ) ;
#189 = EDGE_CURVE ( 'NONE', #288, #260, #43, .T. ) ;
#190 = CIRCLE ( 'NONE', #214, 4.000000000000000000 ) ;
#191 = FACE_BOUND ( 'NONE', #131, .T. ) ;
#192 = APPROVAL_STATUS ( 'not_yet_approved' ) ;
#193 = CIRCLE ( 'NONE', #12, 7.000000000000000000 ) ;
#194 = LINE ( 'NONE', #80, #363 ) ;
#195 = DIRECTION ( 'NONE',  ( 1.000000000000000000, 0.000000000000000000, 0.000000000000000000 ) ) ;
#196 = EDGE_CURVE ( 'NONE', #260, #288, #190, .T. ) ;
#197 = AXIS2_PLACEMENT_3D ( 'NONE', #96, #210, #164 ) ;
#198 = CALENDAR_DATE ( 2022, 8, 7 ) ;
#199 = DIRECTION ( 'NONE',  ( 1.000000000000000000, 0.000000000000000000, 0.000000000000000000 ) ) ;
#200 = ORIENTED_EDGE ( 'NONE', *, *, #287, .T. ) ;
#201 = DATE_AND_TIME ( #167, #271 ) ;
#202 = DIRECTION ( 'NONE',  ( -0.000000000000000000, -0.000000000000000000, -1.000000000000000000 ) ) ;
#203 = VERTEX_POINT ( 'NONE', #20 ) ;
#204 = EDGE_CURVE ( 'NONE', #260, #263, #163, .T. ) ;
#205 = VECTOR ( 'NONE', #186, 1000.000000000000000 ) ;
#206 = ADVANCED_FACE ( 'NONE', ( #305, #221 ), #279, .T. ) ;
#207 = EDGE_LOOP ( 'NONE', ( #94, #63, #11, #324 ) ) ;
#208 = CARTESIAN_POINT ( 'NONE',  ( 0.000000000000000000, 0.000000000000000000, 305.0000000000000000 ) ) ;
#209 = CIRCLE ( 'NONE', #108, 4.000000000000000000 ) ;
#210 = DIRECTION ( 'NONE',  ( -0.000000000000000000, -0.000000000000000000, -1.000000000000000000 ) ) ;
#211 = CYLINDRICAL_SURFACE ( 'NONE', #6, 4.000000000000000000 ) ;
#212 = DIRECTION ( 'NONE',  ( 0.000000000000000000, -1.000000000000000000, 0.000000000000000000 ) ) ;
#213 = CARTESIAN_POINT ( 'NONE',  ( -7.000000000000000000, 0.000000000000000000, 5.000000000000000000 ) ) ;
#214 = AXIS2_PLACEMENT_3D ( 'NONE', #26, #368, #218 ) ;
#215 = LINE ( 'NONE', #23, #251 ) ;
#216 = DIRECTION ( 'NONE',  ( 1.000000000000000000, 0.000000000000000000, 0.000000000000000000 ) ) ;
#217 = CIRCLE ( 'NONE', #72, 2.600000000000000089 ) ;
#218 = DIRECTION ( 'NONE',  ( 1.000000000000000000, 0.000000000000000000, 0.000000000000000000 ) ) ;
#219 = EDGE_CURVE ( 'NONE', #88, #90, #215, .T. ) ;
#220 = LOCAL_TIME ( 17, 8, 29.00000000000000000, #230 ) ;
#221 = FACE_OUTER_BOUND ( 'NONE', #93, .T. ) ;
#222 = APPLICATION_PROTOCOL_DEFINITION ( 'international standard', 'config_control_design', 1994, #338 ) ;
#223 = CC_DESIGN_PERSON_AND_ORGANIZATION_ASSIGNMENT ( #8, #236, ( #61 ) ) ;
#224 = CARTESIAN_POINT ( 'NONE',  ( 0.000000000000000000, 0.000000000000000000, 305.0000000000000000 ) ) ;
#225 = DIRECTION ( 'NONE',  ( 1.000000000000000000, 0.000000000000000000, 0.000000000000000000 ) ) ;
#226 = AXIS2_PLACEMENT_3D ( 'NONE', #104, #106, #311 ) ;
#227 = ORIENTED_EDGE ( 'NONE', *, *, #189, .F. ) ;
#228 = DIRECTION ( 'NONE',  ( 0.000000000000000000, 0.000000000000000000, 1.000000000000000000 ) ) ;
#229 = ORIENTED_EDGE ( 'NONE', *, *, #306, .F. ) ;
#230 = COORDINATED_UNIVERSAL_TIME_OFFSET ( 1, 0, .AHEAD. ) ;
#231 = ORIENTED_EDGE ( 'NONE', *, *, #196, .F. ) ;
#232 = SECURITY_CLASSIFICATION_LEVEL ( 'unclassified' ) ;
#233 = ORIENTED_EDGE ( 'NONE', *, *, #306, .T. ) ;
#234 = COORDINATED_UNIVERSAL_TIME_OFFSET ( 1, 0, .AHEAD. ) ;
#235 = ORIENTED_EDGE ( 'NONE', *, *, #177, .T. ) ;
#236 = PERSON_AND_ORGANIZATION_ROLE ( 'classification_officer' ) ;
#237 = DIRECTION ( 'NONE',  ( 1.000000000000000000, 0.000000000000000000, 0.000000000000000000 ) ) ;
#238 = ADVANCED_FACE ( 'NONE', ( #191, #49 ), #136, .T. ) ;
#239 = CARTESIAN_POINT ( 'NONE',  ( -2.600000000000000089, 0.000000000000000000, 305.0000000000000000 ) ) ;
#240 = COORDINATED_UNIVERSAL_TIME_OFFSET ( 1, 0, .AHEAD. ) ;
#241 = CARTESIAN_POINT ( 'NONE',  ( 0.000000000000000000, 0.000000000000000000, 0.000000000000000000 ) ) ;
#242 = DIRECTION ( 'NONE',  ( 0.000000000000000000, 0.000000000000000000, -1.000000000000000000 ) ) ;
#243 = AXIS2_PLACEMENT_3D ( 'NONE', #313, #52, #282 ) ;
#244 = CYLINDRICAL_SURFACE ( 'NONE', #184, 7.000000000000000000 ) ;
#245 = CARTESIAN_POINT ( 'NONE',  ( 7.000000000000000000, 8.572527594031473190E-16, 0.000000000000000000 ) ) ;
#246 = DIRECTION ( 'NONE',  ( 1.000000000000000000, 0.000000000000000000, 0.000000000000000000 ) ) ;
#247 =( NAMED_UNIT ( * ) SI_UNIT ( $, .STERADIAN. ) SOLID_ANGLE_UNIT ( ) );
#248 = ORGANIZATION ( 'NEURÈENÝ', 'NEURÈENÝ', '' ) ;
#249 = CARTESIAN_POINT ( 'NONE',  ( 4.000000000000000000, 4.898587196589412829E-16, 305.0000000000000000 ) ) ;
#250 = CARTESIAN_POINT ( 'NONE',  ( 2.600000000000000089, 3.184081677783118191E-16, 305.0000000000000000 ) ) ;
#251 = VECTOR ( 'NONE', #135, 1000.000000000000000 ) ;
#252 = APPROVAL ( #265, 'NEURÈENÝ' ) ;
#253 = VECTOR ( 'NONE', #356, 1000.000000000000000 ) ;
#254 = EDGE_LOOP ( 'NONE', ( #329, #346 ) ) ;
#255 = DIRECTION ( 'NONE',  ( 1.000000000000000000, 0.000000000000000000, 0.000000000000000000 ) ) ;
#256 = ORIENTED_EDGE ( 'NONE', *, *, #204, .F. ) ;
#257 = DATE_AND_TIME ( #149, #220 ) ;
#258 = PERSON ( 'NEURÈENÝ', 'NEURÈENÝ', 'NEURÈENÝ', ('NEURÈENÝ'), ('NEURÈENÝ'), ('NEURÈENÝ') ) ;
#259 = PRODUCT_DEFINITION ( 'NEZNÁMÝ', '', #169, #381 ) ;
#260 = VERTEX_POINT ( 'NONE', #54 ) ;
#261 = AXIS2_PLACEMENT_3D ( 'NONE', #129, #152, #246 ) ;
#262 = EDGE_LOOP ( 'NONE', ( #67, #292 ) ) ;
#263 = VERTEX_POINT ( 'NONE', #361 ) ;
#264 = AXIS2_PLACEMENT_3D ( 'NONE', #309, #87, #195 ) ;
#265 = APPROVAL_STATUS ( 'not_yet_approved' ) ;
#266 = CARTESIAN_POINT ( 'NONE',  ( -4.000000000000000000, 0.000000000000000000, 305.0000000000000000 ) ) ;
#267 = CARTESIAN_POINT ( 'NONE',  ( -4.000000000000000000, 0.000000000000000000, 305.0000000000000000 ) ) ;
#268 = DIRECTION ( 'NONE',  ( -0.000000000000000000, -0.000000000000000000, -1.000000000000000000 ) ) ;
#269 = EDGE_CURVE ( 'NONE', #114, #88, #76, .T. ) ;
#270 = CARTESIAN_POINT ( 'NONE',  ( 0.000000000000000000, 0.000000000000000000, 0.000000000000000000 ) ) ;
#271 = LOCAL_TIME ( 17, 8, 29.00000000000000000, #240 ) ;
#272 = DIRECTION ( 'NONE',  ( 1.000000000000000000, 0.000000000000000000, 0.000000000000000000 ) ) ;
#273 = CARTESIAN_POINT ( 'NONE',  ( 4.500000000000000888, 0.000000000000000000, 5.000000000000002665 ) ) ;
#274 = DIRECTION ( 'NONE',  ( -1.000000000000000000, 0.000000000000000000, 0.000000000000000000 ) ) ;
#275 =( LENGTH_UNIT ( ) NAMED_UNIT ( * ) SI_UNIT ( .MILLI., .METRE. ) );
#276 = DIRECTION ( 'NONE',  ( -1.000000000000000000, 0.000000000000000000, 0.000000000000000000 ) ) ;
#277 = EDGE_CURVE ( 'NONE', #300, #41, #33, .T. ) ;
#278 = CIRCLE ( 'NONE', #197, 4.500000000000000888 ) ;
#279 = PLANE ( 'NONE',  #226 ) ;
#280 = ADVANCED_FACE ( 'NONE', ( #97 ), #81, .F. ) ;
#281 = AXIS2_PLACEMENT_3D ( 'NONE', #57, #113, #255 ) ;
#282 = DIRECTION ( 'NONE',  ( 1.000000000000000000, 0.000000000000000000, 0.000000000000000000 ) ) ;
#283 = APPROVAL_DATE_TIME ( #56, #112 ) ;
#284 = CARTESIAN_POINT ( 'NONE',  ( -2.600000000000000089, 0.000000000000000000, 0.000000000000000000 ) ) ;
#285 = UNCERTAINTY_MEASURE_WITH_UNIT (LENGTH_MEASURE( 1.000000000000000082E-05 ), #275, 'distance_accuracy_value', 'NONE');
#286 = PERSON_AND_ORGANIZATION ( #258, #248 ) ;
#287 = EDGE_CURVE ( 'NONE', #10, #362, #278, .T. ) ;
#288 = VERTEX_POINT ( 'NONE', #267 ) ;
#289 = LOCAL_TIME ( 17, 8, 29.00000000000000000, #28 ) ;
#290 = ORIENTED_EDGE ( 'NONE', *, *, #59, .T. ) ;
#291 = PERSON_AND_ORGANIZATION ( #258, #248 ) ;
#292 = ORIENTED_EDGE ( 'NONE', *, *, #109, .F. ) ;
#293 = PRODUCT_RELATED_PRODUCT_CATEGORY ( 'detail', '', ( #95 ) ) ;
#294 = ORIENTED_EDGE ( 'NONE', *, *, #269, .T. ) ;
#295 = DIRECTION ( 'NONE',  ( 0.000000000000000000, 0.000000000000000000, 1.000000000000000000 ) ) ;
#296 = CYLINDRICAL_SURFACE ( 'NONE', #133, 7.000000000000000000 ) ;
#297 = CARTESIAN_POINT ( 'NONE',  ( 0.000000000000000000, 0.000000000000000000, 5.000000000000000000 ) ) ;
#298 = PERSON_AND_ORGANIZATION ( #258, #248 ) ;
#299 = DIRECTION ( 'NONE',  ( 0.000000000000000000, 0.000000000000000000, 1.000000000000000000 ) ) ;
#300 = VERTEX_POINT ( 'NONE', #284 ) ;
#301 = DIRECTION ( 'NONE',  ( -1.000000000000000000, 0.000000000000000000, 0.000000000000000000 ) ) ;
#302 = VERTEX_POINT ( 'NONE', #140 ) ;
#303 = DIRECTION ( 'NONE',  ( 1.000000000000000000, 0.000000000000000000, -0.000000000000000000 ) ) ;
#304 = APPROVAL_STATUS ( 'not_yet_approved' ) ;
#305 = FACE_BOUND ( 'NONE', #60, .T. ) ;
#306 = EDGE_CURVE ( 'NONE', #302, #31, #53, .T. ) ;
#307 = AXIS2_PLACEMENT_3D ( 'NONE', #180, #299, #365 ) ;
#308 = CARTESIAN_POINT ( 'NONE',  ( 0.000000000000000000, 0.000000000000000000, 5.500000000000005329 ) ) ;
#309 = CARTESIAN_POINT ( 'NONE',  ( 0.000000000000000000, 0.000000000000000000, 0.000000000000000000 ) ) ;
#310 = APPROVAL_PERSON_ORGANIZATION ( #110, #112, #162 ) ;
#311 = DIRECTION ( 'NONE',  ( 1.000000000000000000, 0.000000000000000000, -0.000000000000000000 ) ) ;
#312 = PERSON_AND_ORGANIZATION ( #258, #248 ) ;
#313 = CARTESIAN_POINT ( 'NONE',  ( 0.000000000000000000, 0.000000000000000000, 305.0000000000000000 ) ) ;
#314 = LOCAL_TIME ( 17, 8, 29.00000000000000000, #234 ) ;
#315 = ORIENTED_EDGE ( 'NONE', *, *, #173, .F. ) ;
#316 = CARTESIAN_POINT ( 'NONE',  ( 0.000000000000000000, 0.000000000000000000, 5.500000000000005329 ) ) ;
#317 = ORIENTED_EDGE ( 'NONE', *, *, #318, .T. ) ;
#318 = EDGE_CURVE ( 'NONE', #88, #114, #121, .T. ) ;
#319 = CIRCLE ( 'NONE', #261, 4.500000000000000888 ) ;
#320 = FACE_OUTER_BOUND ( 'NONE', #145, .T. ) ;
#321 = ORIENTED_EDGE ( 'NONE', *, *, #366, .T. ) ;
#322 = PERSON_AND_ORGANIZATION ( #258, #248 ) ;
#323 = APPROVAL_PERSON_ORGANIZATION ( #298, #182, #73 ) ;
#324 = ORIENTED_EDGE ( 'NONE', *, *, #116, .F. ) ;
#325 = PERSON_AND_ORGANIZATION ( #258, #248 ) ;
#326 = ADVANCED_FACE ( 'NONE', ( #320 ), #179, .F. ) ;
#327 = ORIENTED_EDGE ( 'NONE', *, *, #177, .F. ) ;
#328 = CIRCLE ( 'NONE', #307, 7.000000000000000000 ) ;
#329 = ORIENTED_EDGE ( 'NONE', *, *, #189, .T. ) ;
#330 = DIRECTION ( 'NONE',  ( 0.000000000000000000, 0.000000000000000000, -1.000000000000000000 ) ) ;
#331 = DIRECTION ( 'NONE',  ( -1.000000000000000000, 0.000000000000000000, 0.000000000000000000 ) ) ;
#332 = AXIS2_PLACEMENT_3D ( 'NONE', #372, #344, #82 ) ;
#333 = DIRECTION ( 'NONE',  ( 0.000000000000000000, 0.000000000000000000, 1.000000000000000000 ) ) ;
#334 = FACE_OUTER_BOUND ( 'NONE', #120, .T. ) ;
#335 = DIRECTION ( 'NONE',  ( 0.000000000000000000, 0.000000000000000000, -1.000000000000000000 ) ) ;
#336 = DIRECTION ( 'NONE',  ( -0.000000000000000000, -0.000000000000000000, -1.000000000000000000 ) ) ;
#337 = CIRCLE ( 'NONE', #98, 4.000000000000000000 ) ;
#338 = APPLICATION_CONTEXT ( 'configuration controlled 3d designs of mechanical parts and assemblies' ) ;
#339 = CYLINDRICAL_SURFACE ( 'NONE', #32, 4.000000000000000000 ) ;
#340 = DIRECTION ( 'NONE',  ( -1.000000000000000000, 1.224646799147351482E-16, 0.000000000000000000 ) ) ;
#341 = ADVANCED_FACE ( 'NONE', ( #139 ), #103, .F. ) ;
#342 = MECHANICAL_CONTEXT ( 'NONE', #338, 'mechanical' ) ;
#343 = CC_DESIGN_APPROVAL ( #112, ( #259 ) ) ;
#344 = DIRECTION ( 'NONE',  ( 0.000000000000000000, 0.000000000000000000, 1.000000000000000000 ) ) ;
#345 = LINE ( 'NONE', #250, #205 ) ;
#346 = ORIENTED_EDGE ( 'NONE', *, *, #196, .T. ) ;
#347 = CARTESIAN_POINT ( 'NONE',  ( 0.000000000000000000, 0.000000000000000000, 5.000000000000000000 ) ) ;
#348 = ADVANCED_FACE ( 'NONE', ( #84, #349 ), #175, .F. ) ;
#349 = FACE_OUTER_BOUND ( 'NONE', #262, .T. ) ;
#350 = EDGE_LOOP ( 'NONE', ( #354, #119, #166, #172 ) ) ;
#351 = CLOSED_SHELL ( 'NONE', ( #105, #341, #38, #71, #378, #206, #348, #125, #238, #280, #326 ) ) ;
#352 = EDGE_LOOP ( 'NONE', ( #290, #102, #62, #327 ) ) ;
#353 =( GEOMETRIC_REPRESENTATION_CONTEXT ( 3 ) GLOBAL_UNCERTAINTY_ASSIGNED_CONTEXT ( ( #285 ) ) GLOBAL_UNIT_ASSIGNED_CONTEXT ( ( #275, #70, #247 ) ) REPRESENTATION_CONTEXT ( 'NONE', 'WORKASPACE' ) );
#354 = ORIENTED_EDGE ( 'NONE', *, *, #143, .F. ) ;
#355 = CALENDAR_DATE ( 2022, 8, 7 ) ;
#356 = DIRECTION ( 'NONE',  ( -0.000000000000000000, -0.000000000000000000, -1.000000000000000000 ) ) ;
#357 = DATE_TIME_ROLE ( 'classification_date' ) ;
#358 = CIRCLE ( 'NONE', #188, 0.5000000000000004441 ) ;
#359 = EDGE_CURVE ( 'NONE', #263, #203, #209, .T. ) ;
#360 = CARTESIAN_POINT ( 'NONE',  ( 2.600000000000000089, 3.184081677783118191E-16, 0.000000000000000000 ) ) ;
#361 = CARTESIAN_POINT ( 'NONE',  ( 4.000000000000000000, 4.898587196589412829E-16, 5.500000000000005329 ) ) ;
#362 = VERTEX_POINT ( 'NONE', #273 ) ;
#363 = VECTOR ( 'NONE', #50, 1000.000000000000000 ) ;
#364 = SHAPE_DEFINITION_REPRESENTATION ( #124, #42 ) ;
#365 = DIRECTION ( 'NONE',  ( 1.000000000000000000, 0.000000000000000000, 0.000000000000000000 ) ) ;
#366 = EDGE_CURVE ( 'NONE', #203, #263, #337, .T. ) ;
#367 = DATE_AND_TIME ( #22, #27 ) ;
#368 = DIRECTION ( 'NONE',  ( 0.000000000000000000, 0.000000000000000000, 1.000000000000000000 ) ) ;
#369 = CC_DESIGN_SECURITY_CLASSIFICATION ( #61, ( #169 ) ) ;
#370 = DIRECTION ( 'NONE',  ( -0.000000000000000000, -0.000000000000000000, -1.000000000000000000 ) ) ;
#371 = CARTESIAN_POINT ( 'NONE',  ( -4.500000000000000888, 5.510910596163089556E-16, 5.500000000000005329 ) ) ;
#372 = CARTESIAN_POINT ( 'NONE',  ( 0.000000000000000000, 0.000000000000000000, 305.0000000000000000 ) ) ;
#373 = PERSON_AND_ORGANIZATION_ROLE ( 'design_owner' ) ;
#374 = DIRECTION ( 'NONE',  ( -0.000000000000000000, -0.000000000000000000, -1.000000000000000000 ) ) ;
#375 = APPLICATION_CONTEXT ( 'configuration controlled 3d designs of mechanical parts and assemblies' ) ;
#376 = CARTESIAN_POINT ( 'NONE',  ( 0.000000000000000000, 0.000000000000000000, 5.000000000000000000 ) ) ;
#377 = CIRCLE ( 'NONE', #51, 2.600000000000000089 ) ;
#378 = ADVANCED_FACE ( 'NONE', ( #132 ), #244, .T. ) ;
#379 = CARTESIAN_POINT ( 'NONE',  ( 0.000000000000000000, 0.000000000000000000, 305.0000000000000000 ) ) ;
#380 = ORIENTED_EDGE ( 'NONE', *, *, #269, .F. ) ;
#381 = DESIGN_CONTEXT ( 'detailed design', #375, 'design' ) ;
ENDSEC;
END-ISO-10303-21;
