ISO-10303-21;
HEADER;
FILE_DESCRIPTION (( 'STEP AP203' ),
    '1' );
FILE_NAME ('9714.STEP',
    '2022-07-08T15:26:16',
    ( '' ),
    ( '' ),
    'SwSTEP 2.0',
    'SolidWorks 2019',
    '' );
FILE_SCHEMA (( 'CONFIG_CONTROL_DESIGN' ));
ENDSEC;

DATA;
#1 = DIRECTION ( 'NONE',  ( -0.000000000000000000, -0.000000000000000000, -1.000000000000000000 ) ) ;
#2 = VERTEX_POINT ( 'NONE', #91 ) ;
#3 = EDGE_CURVE ( 'NONE', #2, #37, #190, .T. ) ;
#4 = PERSON_AND_ORGANIZATION ( #234, #108 ) ;
#5 = ORIENTED_EDGE ( 'NONE', *, *, #116, .F. ) ;
#6 = DIRECTION ( 'NONE',  ( -1.000000000000000000, 0.000000000000000000, 0.000000000000000000 ) ) ;
#7 = ORIENTED_EDGE ( 'NONE', *, *, #18, .T. ) ;
#8 = DIRECTION ( 'NONE',  ( 0.000000000000000000, 0.000000000000000000, 1.000000000000000000 ) ) ;
#9 = EDGE_CURVE ( 'NONE', #219, #34, #285, .T. ) ;
#10 = EDGE_LOOP ( 'NONE', ( #188, #320, #310, #181 ) ) ;
#11 = FACE_BOUND ( 'NONE', #159, .T. ) ;
#12 = CARTESIAN_POINT ( 'NONE',  ( 0.000000000000000000, 0.000000000000000000, 5.499999999999949374 ) ) ;
#13 = ORIENTED_EDGE ( 'NONE', *, *, #9, .F. ) ;
#14 = FACE_OUTER_BOUND ( 'NONE', #334, .T. ) ;
#15 = DIRECTION ( 'NONE',  ( -0.000000000000000000, -0.000000000000000000, -1.000000000000000000 ) ) ;
#16 = CIRCLE ( 'NONE', #233, 7.000000000000000000 ) ;
#17 = DIRECTION ( 'NONE',  ( 0.000000000000000000, 0.000000000000000000, 1.000000000000000000 ) ) ;
#18 = EDGE_CURVE ( 'NONE', #26, #381, #253, .T. ) ;
#19 = CARTESIAN_POINT ( 'NONE',  ( -4.000000000000000000, 0.000000000000000000, 555.0000000000000000 ) ) ;
#20 = FACE_BOUND ( 'NONE', #186, .T. ) ;
#21 = DATE_TIME_ROLE ( 'creation_date' ) ;
#22 = PERSON_AND_ORGANIZATION ( #234, #108 ) ;
#23 = COORDINATED_UNIVERSAL_TIME_OFFSET ( 1, 0, .AHEAD. ) ;
#24 = CIRCLE ( 'NONE', #286, 7.000000000000000000 ) ;
#25 = APPROVAL_ROLE ( '' ) ;
#26 = VERTEX_POINT ( 'NONE', #318 ) ;
#27 = PERSON_AND_ORGANIZATION ( #234, #108 ) ;
#28 = CYLINDRICAL_SURFACE ( 'NONE', #287, 7.000000000000000000 ) ;
#29 = AXIS2_PLACEMENT_3D ( 'NONE', #195, #47, #373 ) ;
#30 = AXIS2_PLACEMENT_3D ( 'NONE', #65, #380, #56 ) ;
#31 = CARTESIAN_POINT ( 'NONE',  ( -7.000000000000000000, 0.000000000000000000, 0.000000000000000000 ) ) ;
#32 = ORIENTED_EDGE ( 'NONE', *, *, #210, .T. ) ;
#33 = DIRECTION ( 'NONE',  ( 1.000000000000000000, 0.000000000000000000, 0.000000000000000000 ) ) ;
#34 = VERTEX_POINT ( 'NONE', #347 ) ;
#35 = CARTESIAN_POINT ( 'NONE',  ( 7.000000000000000000, 8.572527594031473190E-16, 5.000000000000000000 ) ) ;
#36 = AXIS2_PLACEMENT_3D ( 'NONE', #193, #223, #33 ) ;
#37 = VERTEX_POINT ( 'NONE', #104 ) ;
#38 = APPROVAL ( #147, 'NEURÈENÝ' ) ;
#39 = CARTESIAN_POINT ( 'NONE',  ( -4.500000000000000888, 5.510910596163089556E-16, 5.499999999999949374 ) ) ;
#40 = ORIENTED_EDGE ( 'NONE', *, *, #9, .T. ) ;
#41 = CYLINDRICAL_SURFACE ( 'NONE', #109, 4.000000000000000000 ) ;
#42 = DIRECTION ( 'NONE',  ( 0.000000000000000000, 0.000000000000000000, 1.000000000000000000 ) ) ;
#43 = DIRECTION ( 'NONE',  ( 0.000000000000000000, 0.000000000000000000, 1.000000000000000000 ) ) ;
#44 = AXIS2_PLACEMENT_3D ( 'NONE', #257, #371, #137 ) ;
#45 = CLOSED_SHELL ( 'NONE', ( #216, #325, #176, #87, #304, #77, #225, #133, #125, #62, #291 ) ) ;
#46 = LINE ( 'NONE', #258, #329 ) ;
#47 = DIRECTION ( 'NONE',  ( 0.000000000000000000, 0.000000000000000000, 1.000000000000000000 ) ) ;
#48 = LOCAL_TIME ( 17, 26, 16.00000000000000000, #235 ) ;
#49 = CALENDAR_DATE ( 2022, 8, 7 ) ;
#50 = PERSON_AND_ORGANIZATION_ROLE ( 'creator' ) ;
#51 = EDGE_CURVE ( 'NONE', #184, #34, #182, .T. ) ;
#52 = APPROVAL_DATE_TIME ( #348, #38 ) ;
#53 = AXIS2_PLACEMENT_3D ( 'NONE', #70, #340, #311 ) ;
#54 = PERSON_AND_ORGANIZATION_ROLE ( 'design_owner' ) ;
#55 = EDGE_CURVE ( 'NONE', #381, #26, #336, .T. ) ;
#56 = DIRECTION ( 'NONE',  ( -1.000000000000000000, 0.000000000000000000, 0.000000000000000000 ) ) ;
#57 = VERTEX_POINT ( 'NONE', #106 ) ;
#58 = AXIS2_PLACEMENT_3D ( 'NONE', #71, #42, #167 ) ;
#59 = CC_DESIGN_PERSON_AND_ORGANIZATION_ASSIGNMENT ( #202, #177, ( #118 ) ) ;
#60 = ORIENTED_EDGE ( 'NONE', *, *, #96, .T. ) ;
#61 = DIRECTION ( 'NONE',  ( -1.000000000000000000, 0.000000000000000000, 0.000000000000000000 ) ) ;
#62 = ADVANCED_FACE ( 'NONE', ( #312 ), #201, .F. ) ;
#63 = MANIFOLD_SOLID_BREP ( 'Odebrat vysunutím3', #45 ) ;
#64 = ORIENTED_EDGE ( 'NONE', *, *, #51, .T. ) ;
#65 = CARTESIAN_POINT ( 'NONE',  ( 0.000000000000000000, 0.000000000000000000, 555.0000000000000000 ) ) ;
#66 = ORIENTED_EDGE ( 'NONE', *, *, #296, .T. ) ;
#67 = CYLINDRICAL_SURFACE ( 'NONE', #323, 4.000000000000000000 ) ;
#68 = CC_DESIGN_APPROVAL ( #38, ( #144 ) ) ;
#69 = VERTEX_POINT ( 'NONE', #341 ) ;
#70 = CARTESIAN_POINT ( 'NONE',  ( 0.000000000000000000, 0.000000000000000000, 555.0000000000000000 ) ) ;
#71 = CARTESIAN_POINT ( 'NONE',  ( 0.000000000000000000, 0.000000000000000000, 555.0000000000000000 ) ) ;
#72 = APPLICATION_CONTEXT ( 'configuration controlled 3d designs of mechanical parts and assemblies' ) ;
#73 = EDGE_CURVE ( 'NONE', #34, #184, #117, .T. ) ;
#74 = CARTESIAN_POINT ( 'NONE',  ( 0.000000000000000000, 0.000000000000000000, 5.499999999999949374 ) ) ;
#75 = DIRECTION ( 'NONE',  ( -0.000000000000000000, -0.000000000000000000, -1.000000000000000000 ) ) ;
#76 = DIRECTION ( 'NONE',  ( 1.000000000000000000, 0.000000000000000000, 0.000000000000000000 ) ) ;
#77 = ADVANCED_FACE ( 'NONE', ( #20, #132 ), #259, .T. ) ;
#78 = DATE_AND_TIME ( #49, #308 ) ;
#79 = SECURITY_CLASSIFICATION_LEVEL ( 'unclassified' ) ;
#80 = PERSON_AND_ORGANIZATION_ROLE ( 'creator' ) ;
#81 = ORIENTED_EDGE ( 'NONE', *, *, #146, .T. ) ;
#82 = PERSON_AND_ORGANIZATION ( #234, #108 ) ;
#83 = APPLICATION_PROTOCOL_DEFINITION ( 'international standard', 'config_control_design', 1994, #72 ) ;
#84 = AXIS2_PLACEMENT_3D ( 'NONE', #100, #333, #221 ) ;
#85 = AXIS2_PLACEMENT_3D ( 'NONE', #122, #328, #119 ) ;
#86 = DIRECTION ( 'NONE',  ( 1.000000000000000000, 0.000000000000000000, 0.000000000000000000 ) ) ;
#87 = ADVANCED_FACE ( 'NONE', ( #313 ), #281, .T. ) ;
#88 = CARTESIAN_POINT ( 'NONE',  ( 7.000000000000000000, 8.572527594031473190E-16, 5.000000000000000000 ) ) ;
#89 = APPLICATION_CONTEXT ( 'configuration controlled 3d designs of mechanical parts and assemblies' ) ;
#90 = CARTESIAN_POINT ( 'NONE',  ( 4.000000000000000000, 4.898587196589412829E-16, 555.0000000000000000 ) ) ;
#91 = CARTESIAN_POINT ( 'NONE',  ( -4.500000000000000888, 5.510910596163088569E-16, 4.999999999999975131 ) ) ;
#92 = CIRCLE ( 'NONE', #124, 0.5000000000000004441 ) ;
#93 = APPLICATION_PROTOCOL_DEFINITION ( 'international standard', 'config_control_design', 1994, #89 ) ;
#94 = ORIENTED_EDGE ( 'NONE', *, *, #73, .T. ) ;
#95 = FACE_OUTER_BOUND ( 'NONE', #247, .T. ) ;
#96 = EDGE_CURVE ( 'NONE', #69, #368, #24, .T. ) ;
#97 = ORIENTED_EDGE ( 'NONE', *, *, #3, .T. ) ;
#98 = DIRECTION ( 'NONE',  ( -1.000000000000000000, 0.000000000000000000, 0.000000000000000000 ) ) ;
#99 = ORIENTED_EDGE ( 'NONE', *, *, #96, .F. ) ;
#100 = CARTESIAN_POINT ( 'NONE',  ( 0.000000000000000000, 0.000000000000000000, 0.000000000000000000 ) ) ;
#101 = CARTESIAN_POINT ( 'NONE',  ( 0.000000000000000000, 0.000000000000000000, 5.499999999999949374 ) ) ;
#102 = EDGE_CURVE ( 'NONE', #207, #332, #16, .T. ) ;
#103 = DIRECTION ( 'NONE',  ( -0.000000000000000000, -0.000000000000000000, -1.000000000000000000 ) ) ;
#104 = CARTESIAN_POINT ( 'NONE',  ( 4.500000000000000888, 0.000000000000000000, 4.999999999999975131 ) ) ;
#105 = DIRECTION ( 'NONE',  ( 0.000000000000000000, 0.000000000000000000, 1.000000000000000000 ) ) ;
#106 = CARTESIAN_POINT ( 'NONE',  ( -4.000000000000000000, 0.000000000000000000, 555.0000000000000000 ) ) ;
#107 = EDGE_CURVE ( 'NONE', #330, #381, #46, .T. ) ;
#108 = ORGANIZATION ( 'NEURÈENÝ', 'NEURÈENÝ', '' ) ;
#109 = AXIS2_PLACEMENT_3D ( 'NONE', #135, #103, #6 ) ;
#110 = ORIENTED_EDGE ( 'NONE', *, *, #55, .T. ) ;
#111 = COORDINATED_UNIVERSAL_TIME_OFFSET ( 1, 0, .AHEAD. ) ;
#112 = APPROVAL ( #203, 'NEURÈENÝ' ) ;
#113 = FACE_OUTER_BOUND ( 'NONE', #212, .T. ) ;
#114 = FACE_OUTER_BOUND ( 'NONE', #10, .T. ) ;
#115 = ORIENTED_EDGE ( 'NONE', *, *, #379, .T. ) ;
#116 = EDGE_CURVE ( 'NONE', #57, #26, #284, .T. ) ;
#117 = CIRCLE ( 'NONE', #44, 2.100000000000000089 ) ;
#118 = SECURITY_CLASSIFICATION ( '', '', #79 ) ;
#119 = DIRECTION ( 'NONE',  ( 1.000000000000000000, 0.000000000000000000, 0.000000000000000000 ) ) ;
#120 = DIRECTION ( 'NONE',  ( 1.000000000000000000, 0.000000000000000000, 0.000000000000000000 ) ) ;
#121 = ORIENTED_EDGE ( 'NONE', *, *, #107, .T. ) ;
#122 = CARTESIAN_POINT ( 'NONE',  ( 0.000000000000000000, 0.000000000000000000, 555.0000000000000000 ) ) ;
#123 = EDGE_LOOP ( 'NONE', ( #165, #217, #115, #359 ) ) ;
#124 = AXIS2_PLACEMENT_3D ( 'NONE', #39, #305, #160 ) ;
#125 = ADVANCED_FACE ( 'NONE', ( #198, #142 ), #251, .T. ) ;
#126 = CARTESIAN_POINT ( 'NONE',  ( 7.000000000000000000, 8.572527594031473190E-16, 0.000000000000000000 ) ) ;
#127 = AXIS2_PLACEMENT_3D ( 'NONE', #327, #240, #86 ) ;
#128 = ORIENTED_EDGE ( 'NONE', *, *, #107, .F. ) ;
#129 = DIRECTION ( 'NONE',  ( 1.000000000000000000, 0.000000000000000000, 0.000000000000000000 ) ) ;
#130 = ORIENTED_EDGE ( 'NONE', *, *, #171, .T. ) ;
#131 = DIRECTION ( 'NONE',  ( 1.000000000000000000, 0.000000000000000000, 0.000000000000000000 ) ) ;
#132 = FACE_OUTER_BOUND ( 'NONE', #192, .T. ) ;
#133 = ADVANCED_FACE ( 'NONE', ( #275 ), #41, .T. ) ;
#134 = EDGE_LOOP ( 'NONE', ( #130, #290 ) ) ;
#135 = CARTESIAN_POINT ( 'NONE',  ( 0.000000000000000000, 0.000000000000000000, 555.0000000000000000 ) ) ;
#136 = AXIS2_PLACEMENT_3D ( 'NONE', #12, #105, #344 ) ;
#137 = DIRECTION ( 'NONE',  ( 1.000000000000000000, 0.000000000000000000, 0.000000000000000000 ) ) ;
#138 = AXIS2_PLACEMENT_3D ( 'NONE', #187, #158, #360 ) ;
#139 = ADVANCED_BREP_SHAPE_REPRESENTATION ( '9714', ( #63, #155 ), #324 ) ;
#140 = DIRECTION ( 'NONE',  ( 0.000000000000000000, 0.000000000000000000, 1.000000000000000000 ) ) ;
#141 = DIRECTION ( 'NONE',  ( 1.000000000000000000, 0.000000000000000000, 0.000000000000000000 ) ) ;
#142 = FACE_OUTER_BOUND ( 'NONE', #134, .T. ) ;
#143 = AXIS2_PLACEMENT_3D ( 'NONE', #302, #277, #98 ) ;
#144 = PRODUCT_DEFINITION_FORMATION_WITH_SPECIFIED_SOURCE ( 'LIBOVOLNÝ', '', #145, .NOT_KNOWN. ) ;
#145 = PRODUCT ( '9714', '9714', '', ( #204 ) ) ;
#146 = EDGE_CURVE ( 'NONE', #368, #207, #309, .T. ) ;
#147 = APPROVAL_STATUS ( 'not_yet_approved' ) ;
#148 = EDGE_LOOP ( 'NONE', ( #242, #121, #110, #5 ) ) ;
#149 = VECTOR ( 'NONE', #295, 1000.000000000000000 ) ;
#150 = COORDINATED_UNIVERSAL_TIME_OFFSET ( 1, 0, .AHEAD. ) ;
#151 = DATE_TIME_ROLE ( 'classification_date' ) ;
#152 = EDGE_CURVE ( 'NONE', #26, #2, #92, .T. ) ;
#153 =( NAMED_UNIT ( * ) SI_UNIT ( $, .STERADIAN. ) SOLID_ANGLE_UNIT ( ) );
#154 = DIRECTION ( 'NONE',  ( 0.000000000000000000, -1.000000000000000000, 0.000000000000000000 ) ) ;
#155 = AXIS2_PLACEMENT_3D ( 'NONE', #183, #326, #238 ) ;
#156 = EDGE_LOOP ( 'NONE', ( #128, #252, #307, #7 ) ) ;
#157 = ORIENTED_EDGE ( 'NONE', *, *, #102, .T. ) ;
#158 = DIRECTION ( 'NONE',  ( 0.000000000000000000, 0.000000000000000000, 1.000000000000000000 ) ) ;
#159 = EDGE_LOOP ( 'NONE', ( #214, #209 ) ) ;
#160 = DIRECTION ( 'NONE',  ( -1.000000000000000000, 1.224646799147351482E-16, 0.000000000000000000 ) ) ;
#161 = CIRCLE ( 'NONE', #53, 2.100000000000000089 ) ;
#162 = ORIENTED_EDGE ( 'NONE', *, *, #164, .T. ) ;
#163 = CARTESIAN_POINT ( 'NONE',  ( -2.100000000000000089, 0.000000000000000000, 0.000000000000000000 ) ) ;
#164 = EDGE_CURVE ( 'NONE', #279, #219, #358, .T. ) ;
#165 = ORIENTED_EDGE ( 'NONE', *, *, #152, .F. ) ;
#166 = DIRECTION ( 'NONE',  ( -1.000000000000000000, 0.000000000000000000, 0.000000000000000000 ) ) ;
#167 = DIRECTION ( 'NONE',  ( 1.000000000000000000, 0.000000000000000000, -0.000000000000000000 ) ) ;
#168 = AXIS2_PLACEMENT_3D ( 'NONE', #370, #280, #131 ) ;
#169 = DIRECTION ( 'NONE',  ( 1.000000000000000000, 0.000000000000000000, 0.000000000000000000 ) ) ;
#170 = DIRECTION ( 'NONE',  ( -0.000000000000000000, -0.000000000000000000, -1.000000000000000000 ) ) ;
#171 = EDGE_CURVE ( 'NONE', #57, #330, #272, .T. ) ;
#172 = DIRECTION ( 'NONE',  ( 1.000000000000000000, 0.000000000000000000, 0.000000000000000000 ) ) ;
#173 = CC_DESIGN_SECURITY_CLASSIFICATION ( #118, ( #144 ) ) ;
#174 = SHAPE_DEFINITION_REPRESENTATION ( #374, #139 ) ;
#175 = AXIS2_PLACEMENT_3D ( 'NONE', #185, #154, #297 ) ;
#176 = ADVANCED_FACE ( 'NONE', ( #218 ), #67, .T. ) ;
#177 = PERSON_AND_ORGANIZATION_ROLE ( 'classification_officer' ) ;
#178 =( LENGTH_UNIT ( ) NAMED_UNIT ( * ) SI_UNIT ( .MILLI., .METRE. ) );
#179 = LINE ( 'NONE', #353, #149 ) ;
#180 =( NAMED_UNIT ( * ) PLANE_ANGLE_UNIT ( ) SI_UNIT ( $, .RADIAN. ) );
#181 = ORIENTED_EDGE ( 'NONE', *, *, #379, .F. ) ;
#182 = CIRCLE ( 'NONE', #367, 2.100000000000000089 ) ;
#183 = CARTESIAN_POINT ( 'NONE',  ( 0.000000000000000000, 0.000000000000000000, 0.000000000000000000 ) ) ;
#184 = VERTEX_POINT ( 'NONE', #163 ) ;
#185 = CARTESIAN_POINT ( 'NONE',  ( 4.500000000000000888, 0.000000000000000000, 5.499999999999949374 ) ) ;
#186 = EDGE_LOOP ( 'NONE', ( #66, #97 ) ) ;
#187 = CARTESIAN_POINT ( 'NONE',  ( 0.000000000000000000, 0.000000000000000000, 0.000000000000000000 ) ) ;
#188 = ORIENTED_EDGE ( 'NONE', *, *, #18, .F. ) ;
#189 = PRODUCT_DEFINITION ( 'NEZNÁMÝ', '', #144, #372 ) ;
#190 = CIRCLE ( 'NONE', #220, 4.500000000000000888 ) ;
#191 = CARTESIAN_POINT ( 'NONE',  ( 0.000000000000000000, 0.000000000000000000, 5.000000000000000000 ) ) ;
#192 = EDGE_LOOP ( 'NONE', ( #60, #32 ) ) ;
#193 = CARTESIAN_POINT ( 'NONE',  ( 0.000000000000000000, 0.000000000000000000, 555.0000000000000000 ) ) ;
#194 = CARTESIAN_POINT ( 'NONE',  ( 0.000000000000000000, 0.000000000000000000, 5.000000000000000000 ) ) ;
#195 = CARTESIAN_POINT ( 'NONE',  ( 0.000000000000000000, 0.000000000000000000, 5.000000000000000000 ) ) ;
#196 = CC_DESIGN_APPROVAL ( #112, ( #118 ) ) ;
#197 = DIRECTION ( 'NONE',  ( 1.000000000000000000, 0.000000000000000000, 0.000000000000000000 ) ) ;
#198 = FACE_BOUND ( 'NONE', #245, .T. ) ;
#199 = CALENDAR_DATE ( 2022, 8, 7 ) ;
#200 = CC_DESIGN_DATE_AND_TIME_ASSIGNMENT ( #78, #21, ( #189 ) ) ;
#201 = TOROIDAL_SURFACE ( 'NONE', #136, 4.500000000000000888, 0.5000000000000000000 ) ;
#202 = PERSON_AND_ORGANIZATION ( #234, #108 ) ;
#203 = APPROVAL_STATUS ( 'not_yet_approved' ) ;
#204 = MECHANICAL_CONTEXT ( 'NONE', #72, 'mechanical' ) ;
#205 = CC_DESIGN_APPROVAL ( #230, ( #189 ) ) ;
#206 = CARTESIAN_POINT ( 'NONE',  ( 4.000000000000000000, 4.898587196589412829E-16, 5.499999999999949374 ) ) ;
#207 = VERTEX_POINT ( 'NONE', #126 ) ;
#208 = PERSON_AND_ORGANIZATION ( #234, #108 ) ;
#209 = ORIENTED_EDGE ( 'NONE', *, *, #73, .F. ) ;
#210 = EDGE_CURVE ( 'NONE', #368, #69, #262, .T. ) ;
#211 = VECTOR ( 'NONE', #366, 1000.000000000000000 ) ;
#212 = EDGE_LOOP ( 'NONE', ( #276, #99, #241, #273 ) ) ;
#213 = LINE ( 'NONE', #356, #228 ) ;
#214 = ORIENTED_EDGE ( 'NONE', *, *, #51, .F. ) ;
#215 = CYLINDRICAL_SURFACE ( 'NONE', #30, 2.100000000000000089 ) ;
#216 = ADVANCED_FACE ( 'NONE', ( #14 ), #362, .F. ) ;
#217 = ORIENTED_EDGE ( 'NONE', *, *, #55, .F. ) ;
#218 = FACE_OUTER_BOUND ( 'NONE', #148, .T. ) ;
#219 = VERTEX_POINT ( 'NONE', #246 ) ;
#220 = AXIS2_PLACEMENT_3D ( 'NONE', #270, #75, #229 ) ;
#221 = DIRECTION ( 'NONE',  ( 1.000000000000000000, 0.000000000000000000, -0.000000000000000000 ) ) ;
#222 = CIRCLE ( 'NONE', #85, 4.000000000000000000 ) ;
#223 = DIRECTION ( 'NONE',  ( 0.000000000000000000, 0.000000000000000000, 1.000000000000000000 ) ) ;
#224 = CARTESIAN_POINT ( 'NONE',  ( 2.100000000000000089, 2.571758278209441957E-16, 555.0000000000000000 ) ) ;
#225 = ADVANCED_FACE ( 'NONE', ( #11, #250 ), #365, .F. ) ;
#226 = DIRECTION ( 'NONE',  ( -0.000000000000000000, -0.000000000000000000, -1.000000000000000000 ) ) ;
#227 = VECTOR ( 'NONE', #248, 1000.000000000000000 ) ;
#228 = VECTOR ( 'NONE', #268, 1000.000000000000000 ) ;
#229 = DIRECTION ( 'NONE',  ( 1.000000000000000000, 0.000000000000000000, 0.000000000000000000 ) ) ;
#230 = APPROVAL ( #331, 'NEURÈENÝ' ) ;
#231 = DATE_AND_TIME ( #319, #48 ) ;
#232 = COORDINATED_UNIVERSAL_TIME_OFFSET ( 1, 0, .AHEAD. ) ;
#233 = AXIS2_PLACEMENT_3D ( 'NONE', #282, #17, #76 ) ;
#234 = PERSON ( 'NEURÈENÝ', 'NEURÈENÝ', 'NEURÈENÝ', ('NEURÈENÝ'), ('NEURÈENÝ'), ('NEURÈENÝ') ) ;
#235 = COORDINATED_UNIVERSAL_TIME_OFFSET ( 1, 0, .AHEAD. ) ;
#236 = ORIENTED_EDGE ( 'NONE', *, *, #210, .F. ) ;
#237 = CALENDAR_DATE ( 2022, 8, 7 ) ;
#238 = DIRECTION ( 'NONE',  ( 1.000000000000000000, 0.000000000000000000, 0.000000000000000000 ) ) ;
#239 = EDGE_CURVE ( 'NONE', #219, #279, #161, .T. ) ;
#240 = DIRECTION ( 'NONE',  ( 0.000000000000000000, 0.000000000000000000, 1.000000000000000000 ) ) ;
#241 = ORIENTED_EDGE ( 'NONE', *, *, #363, .T. ) ;
#242 = ORIENTED_EDGE ( 'NONE', *, *, #317, .F. ) ;
#243 = CC_DESIGN_DATE_AND_TIME_ASSIGNMENT ( #378, #151, ( #118 ) ) ;
#244 = DIRECTION ( 'NONE',  ( -0.000000000000000000, -0.000000000000000000, -1.000000000000000000 ) ) ;
#245 = EDGE_LOOP ( 'NONE', ( #249, #301 ) ) ;
#246 = CARTESIAN_POINT ( 'NONE',  ( 2.100000000000000089, 2.571758278209441957E-16, 555.0000000000000000 ) ) ;
#247 = EDGE_LOOP ( 'NONE', ( #13, #357, #361, #64 ) ) ;
#248 = DIRECTION ( 'NONE',  ( -0.000000000000000000, -0.000000000000000000, -1.000000000000000000 ) ) ;
#249 = ORIENTED_EDGE ( 'NONE', *, *, #164, .F. ) ;
#250 = FACE_OUTER_BOUND ( 'NONE', #337, .T. ) ;
#251 = PLANE ( 'NONE',  #58 ) ;
#252 = ORIENTED_EDGE ( 'NONE', *, *, #171, .F. ) ;
#253 = CIRCLE ( 'NONE', #345, 4.000000000000000000 ) ;
#254 = DIRECTION ( 'NONE',  ( -0.000000000000000000, -0.000000000000000000, -1.000000000000000000 ) ) ;
#255 = AXIS2_PLACEMENT_3D ( 'NONE', #265, #244, #120 ) ;
#256 = DIRECTION ( 'NONE',  ( 0.000000000000000000, 0.000000000000000000, 1.000000000000000000 ) ) ;
#257 = CARTESIAN_POINT ( 'NONE',  ( 0.000000000000000000, 0.000000000000000000, 0.000000000000000000 ) ) ;
#258 = CARTESIAN_POINT ( 'NONE',  ( 4.000000000000000000, 4.898587196589412829E-16, 555.0000000000000000 ) ) ;
#259 = PLANE ( 'NONE',  #29 ) ;
#260 = CC_DESIGN_PERSON_AND_ORGANIZATION_ASSIGNMENT ( #208, #54, ( #145 ) ) ;
#261 = APPROVAL_DATE_TIME ( #231, #112 ) ;
#262 = CIRCLE ( 'NONE', #314, 7.000000000000000000 ) ;
#263 = CALENDAR_DATE ( 2022, 8, 7 ) ;
#264 = CC_DESIGN_PERSON_AND_ORGANIZATION_ASSIGNMENT ( #289, #50, ( #144 ) ) ;
#265 = CARTESIAN_POINT ( 'NONE',  ( 0.000000000000000000, 0.000000000000000000, 5.000000000000000000 ) ) ;
#266 = EDGE_CURVE ( 'NONE', #332, #207, #346, .T. ) ;
#267 = LOCAL_TIME ( 17, 26, 16.00000000000000000, #150 ) ;
#268 = DIRECTION ( 'NONE',  ( -0.000000000000000000, -0.000000000000000000, -1.000000000000000000 ) ) ;
#269 = ORIENTED_EDGE ( 'NONE', *, *, #363, .F. ) ;
#270 = CARTESIAN_POINT ( 'NONE',  ( 0.000000000000000000, 0.000000000000000000, 5.000000000000000000 ) ) ;
#271 = CARTESIAN_POINT ( 'NONE',  ( -2.100000000000000089, 0.000000000000000000, 555.0000000000000000 ) ) ;
#272 = CIRCLE ( 'NONE', #36, 4.000000000000000000 ) ;
#273 = ORIENTED_EDGE ( 'NONE', *, *, #266, .T. ) ;
#274 = CIRCLE ( 'NONE', #175, 0.5000000000000004441 ) ;
#275 = FACE_OUTER_BOUND ( 'NONE', #156, .T. ) ;
#276 = ORIENTED_EDGE ( 'NONE', *, *, #146, .F. ) ;
#277 = DIRECTION ( 'NONE',  ( 0.000000000000000000, 0.000000000000000000, -1.000000000000000000 ) ) ;
#278 = DIRECTION ( 'NONE',  ( -0.000000000000000000, -0.000000000000000000, -1.000000000000000000 ) ) ;
#279 = VERTEX_POINT ( 'NONE', #271 ) ;
#280 = DIRECTION ( 'NONE',  ( 0.000000000000000000, 0.000000000000000000, 1.000000000000000000 ) ) ;
#281 = CYLINDRICAL_SURFACE ( 'NONE', #350, 7.000000000000000000 ) ;
#282 = CARTESIAN_POINT ( 'NONE',  ( 0.000000000000000000, 0.000000000000000000, 0.000000000000000000 ) ) ;
#283 = PRODUCT_RELATED_PRODUCT_CATEGORY ( 'detail', '', ( #145 ) ) ;
#284 = LINE ( 'NONE', #19, #306 ) ;
#285 = LINE ( 'NONE', #224, #211 ) ;
#286 = AXIS2_PLACEMENT_3D ( 'NONE', #316, #43, #169 ) ;
#287 = AXIS2_PLACEMENT_3D ( 'NONE', #300, #1, #61 ) ;
#288 = APPROVAL_ROLE ( '' ) ;
#289 = PERSON_AND_ORGANIZATION ( #234, #108 ) ;
#290 = ORIENTED_EDGE ( 'NONE', *, *, #317, .T. ) ;
#291 = ADVANCED_FACE ( 'NONE', ( #95 ), #215, .F. ) ;
#292 = AXIS2_PLACEMENT_3D ( 'NONE', #74, #256, #197 ) ;
#293 = CIRCLE ( 'NONE', #255, 4.500000000000000888 ) ;
#294 = APPROVAL_DATE_TIME ( #322, #230 ) ;
#295 = DIRECTION ( 'NONE',  ( 0.000000000000000000, 0.000000000000000000, -1.000000000000000000 ) ) ;
#296 = EDGE_CURVE ( 'NONE', #37, #2, #293, .T. ) ;
#297 = DIRECTION ( 'NONE',  ( 0.000000000000000000, 0.000000000000000000, -1.000000000000000000 ) ) ;
#298 = CC_DESIGN_PERSON_AND_ORGANIZATION_ASSIGNMENT ( #27, #352, ( #144 ) ) ;
#299 = APPROVAL_PERSON_ORGANIZATION ( #82, #112, #349 ) ;
#300 = CARTESIAN_POINT ( 'NONE',  ( 0.000000000000000000, 0.000000000000000000, 5.000000000000000000 ) ) ;
#301 = ORIENTED_EDGE ( 'NONE', *, *, #239, .F. ) ;
#302 = CARTESIAN_POINT ( 'NONE',  ( 0.000000000000000000, 0.000000000000000000, 555.0000000000000000 ) ) ;
#303 = ORIENTED_EDGE ( 'NONE', *, *, #102, .F. ) ;
#304 = ADVANCED_FACE ( 'NONE', ( #113 ), #28, .T. ) ;
#305 = DIRECTION ( 'NONE',  ( 1.224646799147353207E-16, 1.000000000000000000, -0.000000000000000000 ) ) ;
#306 = VECTOR ( 'NONE', #278, 1000.000000000000000 ) ;
#307 = ORIENTED_EDGE ( 'NONE', *, *, #116, .T. ) ;
#308 = LOCAL_TIME ( 17, 26, 16.00000000000000000, #111 ) ;
#309 = LINE ( 'NONE', #35, #227 ) ;
#310 = ORIENTED_EDGE ( 'NONE', *, *, #296, .F. ) ;
#311 = DIRECTION ( 'NONE',  ( 1.000000000000000000, 0.000000000000000000, 0.000000000000000000 ) ) ;
#312 = FACE_OUTER_BOUND ( 'NONE', #123, .T. ) ;
#313 = FACE_OUTER_BOUND ( 'NONE', #364, .T. ) ;
#314 = AXIS2_PLACEMENT_3D ( 'NONE', #191, #8, #129 ) ;
#315 = TOROIDAL_SURFACE ( 'NONE', #127, 4.500000000000000888, 0.5000000000000000000 ) ;
#316 = CARTESIAN_POINT ( 'NONE',  ( 0.000000000000000000, 0.000000000000000000, 5.000000000000000000 ) ) ;
#317 = EDGE_CURVE ( 'NONE', #330, #57, #222, .T. ) ;
#318 = CARTESIAN_POINT ( 'NONE',  ( -4.000000000000000000, 0.000000000000000000, 5.499999999999949374 ) ) ;
#319 = CALENDAR_DATE ( 2022, 8, 7 ) ;
#320 = ORIENTED_EDGE ( 'NONE', *, *, #152, .T. ) ;
#321 = PERSON_AND_ORGANIZATION ( #234, #108 ) ;
#322 = DATE_AND_TIME ( #263, #267 ) ;
#323 = AXIS2_PLACEMENT_3D ( 'NONE', #335, #254, #166 ) ;
#324 =( GEOMETRIC_REPRESENTATION_CONTEXT ( 3 ) GLOBAL_UNCERTAINTY_ASSIGNED_CONTEXT ( ( #342 ) ) GLOBAL_UNIT_ASSIGNED_CONTEXT ( ( #178, #180, #153 ) ) REPRESENTATION_CONTEXT ( 'NONE', 'WORKASPACE' ) );
#325 = ADVANCED_FACE ( 'NONE', ( #114 ), #315, .F. ) ;
#326 = DIRECTION ( 'NONE',  ( 0.000000000000000000, 0.000000000000000000, 1.000000000000000000 ) ) ;
#327 = CARTESIAN_POINT ( 'NONE',  ( 0.000000000000000000, 0.000000000000000000, 5.499999999999949374 ) ) ;
#328 = DIRECTION ( 'NONE',  ( 0.000000000000000000, 0.000000000000000000, 1.000000000000000000 ) ) ;
#329 = VECTOR ( 'NONE', #170, 1000.000000000000000 ) ;
#330 = VERTEX_POINT ( 'NONE', #90 ) ;
#331 = APPROVAL_STATUS ( 'not_yet_approved' ) ;
#332 = VERTEX_POINT ( 'NONE', #31 ) ;
#333 = DIRECTION ( 'NONE',  ( 0.000000000000000000, 0.000000000000000000, 1.000000000000000000 ) ) ;
#334 = EDGE_LOOP ( 'NONE', ( #162, #40, #94, #351 ) ) ;
#335 = CARTESIAN_POINT ( 'NONE',  ( 0.000000000000000000, 0.000000000000000000, 555.0000000000000000 ) ) ;
#336 = CIRCLE ( 'NONE', #292, 4.000000000000000000 ) ;
#337 = EDGE_LOOP ( 'NONE', ( #354, #303 ) ) ;
#338 = LOCAL_TIME ( 17, 26, 16.00000000000000000, #23 ) ;
#339 = CC_DESIGN_PERSON_AND_ORGANIZATION_ASSIGNMENT ( #321, #80, ( #189 ) ) ;
#340 = DIRECTION ( 'NONE',  ( 0.000000000000000000, 0.000000000000000000, 1.000000000000000000 ) ) ;
#341 = CARTESIAN_POINT ( 'NONE',  ( -7.000000000000000000, 0.000000000000000000, 5.000000000000000000 ) ) ;
#342 = UNCERTAINTY_MEASURE_WITH_UNIT (LENGTH_MEASURE( 1.000000000000000082E-05 ), #178, 'distance_accuracy_value', 'NONE');
#343 = DIRECTION ( 'NONE',  ( -1.000000000000000000, 0.000000000000000000, 0.000000000000000000 ) ) ;
#344 = DIRECTION ( 'NONE',  ( 1.000000000000000000, 0.000000000000000000, 0.000000000000000000 ) ) ;
#345 = AXIS2_PLACEMENT_3D ( 'NONE', #101, #140, #172 ) ;
#346 = CIRCLE ( 'NONE', #138, 7.000000000000000000 ) ;
#347 = CARTESIAN_POINT ( 'NONE',  ( 2.100000000000000089, 2.571758278209441957E-16, 0.000000000000000000 ) ) ;
#348 = DATE_AND_TIME ( #237, #338 ) ;
#349 = APPROVAL_ROLE ( '' ) ;
#350 = AXIS2_PLACEMENT_3D ( 'NONE', #194, #226, #343 ) ;
#351 = ORIENTED_EDGE ( 'NONE', *, *, #375, .F. ) ;
#352 = PERSON_AND_ORGANIZATION_ROLE ( 'design_supplier' ) ;
#353 = CARTESIAN_POINT ( 'NONE',  ( -2.100000000000000089, 0.000000000000000000, 555.0000000000000000 ) ) ;
#354 = ORIENTED_EDGE ( 'NONE', *, *, #266, .F. ) ;
#355 = APPROVAL_PERSON_ORGANIZATION ( #22, #38, #288 ) ;
#356 = CARTESIAN_POINT ( 'NONE',  ( -7.000000000000000000, 0.000000000000000000, 5.000000000000000000 ) ) ;
#357 = ORIENTED_EDGE ( 'NONE', *, *, #239, .T. ) ;
#358 = CIRCLE ( 'NONE', #168, 2.100000000000000089 ) ;
#359 = ORIENTED_EDGE ( 'NONE', *, *, #3, .F. ) ;
#360 = DIRECTION ( 'NONE',  ( 1.000000000000000000, 0.000000000000000000, 0.000000000000000000 ) ) ;
#361 = ORIENTED_EDGE ( 'NONE', *, *, #375, .T. ) ;
#362 = CYLINDRICAL_SURFACE ( 'NONE', #143, 2.100000000000000089 ) ;
#363 = EDGE_CURVE ( 'NONE', #69, #332, #213, .T. ) ;
#364 = EDGE_LOOP ( 'NONE', ( #236, #81, #157, #269 ) ) ;
#365 = PLANE ( 'NONE',  #84 ) ;
#366 = DIRECTION ( 'NONE',  ( 0.000000000000000000, 0.000000000000000000, -1.000000000000000000 ) ) ;
#367 = AXIS2_PLACEMENT_3D ( 'NONE', #376, #15, #141 ) ;
#368 = VERTEX_POINT ( 'NONE', #88 ) ;
#369 = LOCAL_TIME ( 17, 26, 16.00000000000000000, #232 ) ;
#370 = CARTESIAN_POINT ( 'NONE',  ( 0.000000000000000000, 0.000000000000000000, 555.0000000000000000 ) ) ;
#371 = DIRECTION ( 'NONE',  ( -0.000000000000000000, -0.000000000000000000, -1.000000000000000000 ) ) ;
#372 = DESIGN_CONTEXT ( 'detailed design', #89, 'design' ) ;
#373 = DIRECTION ( 'NONE',  ( 1.000000000000000000, 0.000000000000000000, -0.000000000000000000 ) ) ;
#374 = PRODUCT_DEFINITION_SHAPE ( 'NONE', 'NONE',  #189 ) ;
#375 = EDGE_CURVE ( 'NONE', #279, #184, #179, .T. ) ;
#376 = CARTESIAN_POINT ( 'NONE',  ( 0.000000000000000000, 0.000000000000000000, 0.000000000000000000 ) ) ;
#377 = APPROVAL_PERSON_ORGANIZATION ( #4, #230, #25 ) ;
#378 = DATE_AND_TIME ( #199, #369 ) ;
#379 = EDGE_CURVE ( 'NONE', #381, #37, #274, .T. ) ;
#380 = DIRECTION ( 'NONE',  ( 0.000000000000000000, 0.000000000000000000, -1.000000000000000000 ) ) ;
#381 = VERTEX_POINT ( 'NONE', #206 ) ;
ENDSEC;
END-ISO-10303-21;
