ISO-10303-21;
HEADER;
FILE_DESCRIPTION (( 'STEP AP203' ),
    '1' );
FILE_NAME ('2a1a.STEP',
    '2022-07-08T15:30:00',
    ( '' ),
    ( '' ),
    'SwSTEP 2.0',
    'SolidWorks 2019',
    '' );
FILE_SCHEMA (( 'CONFIG_CONTROL_DESIGN' ));
ENDSEC;

DATA;
#1 = FACE_BOUND ( 'NONE', #178, .T. ) ;
#2 = ADVANCED_FACE ( 'NONE', ( #140 ), #266, .T. ) ;
#3 = ORIENTED_EDGE ( 'NONE', *, *, #23, .F. ) ;
#4 = COORDINATED_UNIVERSAL_TIME_OFFSET ( 1, 0, .AHEAD. ) ;
#5 = EDGE_CURVE ( 'NONE', #122, #348, #257, .T. ) ;
#6 = CARTESIAN_POINT ( 'NONE',  ( 0.000000000000000000, 0.000000000000000000, 5.000000000000000000 ) ) ;
#7 = CIRCLE ( 'NONE', #133, 4.000000000000000000 ) ;
#8 = CARTESIAN_POINT ( 'NONE',  ( 4.000000000000000000, 4.898587196589412829E-16, 5.499999999999949374 ) ) ;
#9 = ORIENTED_EDGE ( 'NONE', *, *, #159, .T. ) ;
#10 = CYLINDRICAL_SURFACE ( 'NONE', #199, 4.000000000000000000 ) ;
#11 = EDGE_LOOP ( 'NONE', ( #59, #300 ) ) ;
#12 = DATE_TIME_ROLE ( 'creation_date' ) ;
#13 = DIRECTION ( 'NONE',  ( 1.000000000000000000, 0.000000000000000000, 0.000000000000000000 ) ) ;
#14 = CIRCLE ( 'NONE', #132, 7.000000000000000000 ) ;
#15 = EDGE_CURVE ( 'NONE', #190, #303, #370, .T. ) ;
#16 = CARTESIAN_POINT ( 'NONE',  ( 0.000000000000000000, 0.000000000000000000, 5.499999999999949374 ) ) ;
#17 = EDGE_CURVE ( 'NONE', #277, #70, #245, .T. ) ;
#18 = APPROVAL_DATE_TIME ( #314, #63 ) ;
#19 = CARTESIAN_POINT ( 'NONE',  ( 0.000000000000000000, 0.000000000000000000, 0.000000000000000000 ) ) ;
#20 = EDGE_CURVE ( 'NONE', #114, #303, #253, .T. ) ;
#21 = DESIGN_CONTEXT ( 'detailed design', #297, 'design' ) ;
#22 = AXIS2_PLACEMENT_3D ( 'NONE', #301, #238, #380 ) ;
#23 = EDGE_CURVE ( 'NONE', #186, #277, #14, .T. ) ;
#24 = PERSON_AND_ORGANIZATION ( #298, #103 ) ;
#25 = AXIS2_PLACEMENT_3D ( 'NONE', #342, #198, #249 ) ;
#26 = DIRECTION ( 'NONE',  ( -1.000000000000000000, 0.000000000000000000, 0.000000000000000000 ) ) ;
#27 = APPROVAL_STATUS ( 'not_yet_approved' ) ;
#28 = CARTESIAN_POINT ( 'NONE',  ( -7.000000000000000000, 0.000000000000000000, 5.000000000000000000 ) ) ;
#29 = CYLINDRICAL_SURFACE ( 'NONE', #171, 2.000000000000000000 ) ;
#30 = ORIENTED_EDGE ( 'NONE', *, *, #128, .T. ) ;
#31 = CC_DESIGN_PERSON_AND_ORGANIZATION_ASSIGNMENT ( #71, #335, ( #184 ) ) ;
#32 = DIRECTION ( 'NONE',  ( -0.000000000000000000, -0.000000000000000000, -1.000000000000000000 ) ) ;
#33 = DIRECTION ( 'NONE',  ( 0.000000000000000000, 0.000000000000000000, 1.000000000000000000 ) ) ;
#34 = FACE_OUTER_BOUND ( 'NONE', #180, .T. ) ;
#35 = EDGE_LOOP ( 'NONE', ( #141, #183 ) ) ;
#36 =( LENGTH_UNIT ( ) NAMED_UNIT ( * ) SI_UNIT ( .MILLI., .METRE. ) );
#37 = AXIS2_PLACEMENT_3D ( 'NONE', #167, #136, #265 ) ;
#38 = ORIENTED_EDGE ( 'NONE', *, *, #159, .F. ) ;
#39 = ORIENTED_EDGE ( 'NONE', *, *, #216, .T. ) ;
#40 = AXIS2_PLACEMENT_3D ( 'NONE', #368, #319, #211 ) ;
#41 = DATE_AND_TIME ( #66, #69 ) ;
#42 = DIRECTION ( 'NONE',  ( 1.000000000000000000, 0.000000000000000000, 0.000000000000000000 ) ) ;
#43 = DIRECTION ( 'NONE',  ( 0.000000000000000000, 0.000000000000000000, 1.000000000000000000 ) ) ;
#44 = UNCERTAINTY_MEASURE_WITH_UNIT (LENGTH_MEASURE( 1.000000000000000082E-05 ), #36, 'distance_accuracy_value', 'NONE');
#45 = PRODUCT ( '2a1a', '2a1a', '', ( #250 ) ) ;
#46 = APPROVAL ( #361, 'NEURÈENÝ' ) ;
#47 = COORDINATED_UNIVERSAL_TIME_OFFSET ( 1, 0, .AHEAD. ) ;
#48 = DIRECTION ( 'NONE',  ( -0.000000000000000000, -0.000000000000000000, -1.000000000000000000 ) ) ;
#49 = DIRECTION ( 'NONE',  ( -1.000000000000000000, 0.000000000000000000, 0.000000000000000000 ) ) ;
#50 = LINE ( 'NONE', #135, #313 ) ;
#51 = AXIS2_PLACEMENT_3D ( 'NONE', #337, #75, #42 ) ;
#52 = CYLINDRICAL_SURFACE ( 'NONE', #262, 4.000000000000000000 ) ;
#53 = EDGE_CURVE ( 'NONE', #119, #114, #170, .T. ) ;
#54 = AXIS2_PLACEMENT_3D ( 'NONE', #344, #372, #232 ) ;
#55 = DIRECTION ( 'NONE',  ( 0.000000000000000000, 0.000000000000000000, 1.000000000000000000 ) ) ;
#56 = EDGE_LOOP ( 'NONE', ( #3, #155, #39, #144 ) ) ;
#57 = DIRECTION ( 'NONE',  ( 0.000000000000000000, 0.000000000000000000, 1.000000000000000000 ) ) ;
#58 = CARTESIAN_POINT ( 'NONE',  ( 0.000000000000000000, 0.000000000000000000, 5.000000000000000000 ) ) ;
#59 = ORIENTED_EDGE ( 'NONE', *, *, #210, .F. ) ;
#60 = AXIS2_PLACEMENT_3D ( 'NONE', #156, #148, #145 ) ;
#61 = FACE_OUTER_BOUND ( 'NONE', #333, .T. ) ;
#62 = ORIENTED_EDGE ( 'NONE', *, *, #88, .T. ) ;
#63 = APPROVAL ( #27, 'NEURÈENÝ' ) ;
#64 = DIRECTION ( 'NONE',  ( -0.000000000000000000, -0.000000000000000000, -1.000000000000000000 ) ) ;
#65 = ORIENTED_EDGE ( 'NONE', *, *, #86, .T. ) ;
#66 = CALENDAR_DATE ( 2022, 8, 7 ) ;
#67 = AXIS2_PLACEMENT_3D ( 'NONE', #213, #280, #152 ) ;
#68 = CARTESIAN_POINT ( 'NONE',  ( -2.000000000000000000, 0.000000000000000000, 605.0000000000000000 ) ) ;
#69 = LOCAL_TIME ( 17, 30, 0.000000000000000000, #195 ) ;
#70 = VERTEX_POINT ( 'NONE', #121 ) ;
#71 = PERSON_AND_ORGANIZATION ( #298, #103 ) ;
#72 = ADVANCED_BREP_SHAPE_REPRESENTATION ( '2a1a', ( #209, #51 ), #282 ) ;
#73 = LINE ( 'NONE', #196, #241 ) ;
#74 = DIRECTION ( 'NONE',  ( 0.000000000000000000, 0.000000000000000000, -1.000000000000000000 ) ) ;
#75 = DIRECTION ( 'NONE',  ( 0.000000000000000000, 0.000000000000000000, 1.000000000000000000 ) ) ;
#76 = DIRECTION ( 'NONE',  ( -1.000000000000000000, 0.000000000000000000, 0.000000000000000000 ) ) ;
#77 = DATE_AND_TIME ( #341, #290 ) ;
#78 = AXIS2_PLACEMENT_3D ( 'NONE', #173, #33, #154 ) ;
#79 = DIRECTION ( 'NONE',  ( 0.000000000000000000, 0.000000000000000000, 1.000000000000000000 ) ) ;
#80 = DIRECTION ( 'NONE',  ( 0.000000000000000000, 0.000000000000000000, 1.000000000000000000 ) ) ;
#81 = ADVANCED_FACE ( 'NONE', ( #177, #34 ), #185, .T. ) ;
#82 = PERSON_AND_ORGANIZATION_ROLE ( 'creator' ) ;
#83 = EDGE_CURVE ( 'NONE', #303, #114, #149, .T. ) ;
#84 = EDGE_LOOP ( 'NONE', ( #311, #224 ) ) ;
#85 = CALENDAR_DATE ( 2022, 8, 7 ) ;
#86 = EDGE_CURVE ( 'NONE', #190, #119, #234, .T. ) ;
#87 = ORIENTED_EDGE ( 'NONE', *, *, #15, .F. ) ;
#88 = EDGE_CURVE ( 'NONE', #246, #122, #299, .T. ) ;
#89 = FACE_OUTER_BOUND ( 'NONE', #379, .T. ) ;
#90 = ORIENTED_EDGE ( 'NONE', *, *, #83, .F. ) ;
#91 = DIRECTION ( 'NONE',  ( 1.000000000000000000, 0.000000000000000000, 0.000000000000000000 ) ) ;
#92 = ORIENTED_EDGE ( 'NONE', *, *, #210, .T. ) ;
#93 = AXIS2_PLACEMENT_3D ( 'NONE', #6, #43, #366 ) ;
#94 = CARTESIAN_POINT ( 'NONE',  ( 4.500000000000000888, 0.000000000000000000, 5.499999999999949374 ) ) ;
#95 = CARTESIAN_POINT ( 'NONE',  ( 0.000000000000000000, 0.000000000000000000, 605.0000000000000000 ) ) ;
#96 = ORIENTED_EDGE ( 'NONE', *, *, #179, .F. ) ;
#97 = DIRECTION ( 'NONE',  ( 1.000000000000000000, 0.000000000000000000, 0.000000000000000000 ) ) ;
#98 = APPROVAL ( #108, 'NEURÈENÝ' ) ;
#99 = ORIENTED_EDGE ( 'NONE', *, *, #53, .T. ) ;
#100 = EDGE_CURVE ( 'NONE', #277, #186, #346, .T. ) ;
#101 = CARTESIAN_POINT ( 'NONE',  ( 7.000000000000000000, 8.572527594031473190E-16, 5.000000000000000000 ) ) ;
#102 = AXIS2_PLACEMENT_3D ( 'NONE', #203, #235, #375 ) ;
#103 = ORGANIZATION ( 'NEURÈENÝ', 'NEURÈENÝ', '' ) ;
#104 = VERTEX_POINT ( 'NONE', #127 ) ;
#105 = CARTESIAN_POINT ( 'NONE',  ( 4.500000000000000888, 0.000000000000000000, 4.999999999999975131 ) ) ;
#106 = CIRCLE ( 'NONE', #212, 7.000000000000000000 ) ;
#107 = APPROVAL_PERSON_ORGANIZATION ( #168, #63, #200 ) ;
#108 = APPROVAL_STATUS ( 'not_yet_approved' ) ;
#109 = DIRECTION ( 'NONE',  ( 1.000000000000000000, 0.000000000000000000, 0.000000000000000000 ) ) ;
#110 = FACE_OUTER_BOUND ( 'NONE', #363, .T. ) ;
#111 = DIRECTION ( 'NONE',  ( -0.000000000000000000, -0.000000000000000000, -1.000000000000000000 ) ) ;
#112 = CARTESIAN_POINT ( 'NONE',  ( 0.000000000000000000, 0.000000000000000000, 5.499999999999949374 ) ) ;
#113 = CC_DESIGN_PERSON_AND_ORGANIZATION_ASSIGNMENT ( #233, #316, ( #142 ) ) ;
#114 = VERTEX_POINT ( 'NONE', #105 ) ;
#115 = DIRECTION ( 'NONE',  ( 1.000000000000000000, 0.000000000000000000, 0.000000000000000000 ) ) ;
#116 = EDGE_LOOP ( 'NONE', ( #254, #357, #292, #208 ) ) ;
#117 = LOCAL_TIME ( 17, 30, 0.000000000000000000, #231 ) ;
#118 = DIRECTION ( 'NONE',  ( 0.000000000000000000, 0.000000000000000000, 1.000000000000000000 ) ) ;
#119 = VERTEX_POINT ( 'NONE', #8 ) ;
#120 = ORIENTED_EDGE ( 'NONE', *, *, #204, .T. ) ;
#121 = CARTESIAN_POINT ( 'NONE',  ( -7.000000000000000000, 0.000000000000000000, 0.000000000000000000 ) ) ;
#122 = VERTEX_POINT ( 'NONE', #229 ) ;
#123 = CLOSED_SHELL ( 'NONE', ( #129, #320, #219, #2, #296, #373, #367, #161, #81, #336, #256 ) ) ;
#124 = APPROVAL_PERSON_ORGANIZATION ( #371, #98, #166 ) ;
#125 = ORIENTED_EDGE ( 'NONE', *, *, #308, .F. ) ;
#126 = EDGE_LOOP ( 'NONE', ( #217, #324, #9, #65 ) ) ;
#127 = CARTESIAN_POINT ( 'NONE',  ( 4.000000000000000000, 4.898587196589412829E-16, 605.0000000000000000 ) ) ;
#128 = EDGE_CURVE ( 'NONE', #246, #146, #165, .T. ) ;
#129 = ADVANCED_FACE ( 'NONE', ( #283 ), #160, .F. ) ;
#130 = PERSON_AND_ORGANIZATION ( #298, #103 ) ;
#131 = CARTESIAN_POINT ( 'NONE',  ( 0.000000000000000000, 0.000000000000000000, 0.000000000000000000 ) ) ;
#132 = AXIS2_PLACEMENT_3D ( 'NONE', #58, #218, #91 ) ;
#133 = AXIS2_PLACEMENT_3D ( 'NONE', #221, #332, #13 ) ;
#134 = APPROVAL_PERSON_ORGANIZATION ( #188, #46, #304 ) ;
#135 = CARTESIAN_POINT ( 'NONE',  ( 4.000000000000000000, 4.898587196589412829E-16, 605.0000000000000000 ) ) ;
#136 = DIRECTION ( 'NONE',  ( 0.000000000000000000, 0.000000000000000000, 1.000000000000000000 ) ) ;
#137 = PERSON_AND_ORGANIZATION_ROLE ( 'classification_officer' ) ;
#138 = CC_DESIGN_PERSON_AND_ORGANIZATION_ASSIGNMENT ( #197, #163, ( #45 ) ) ;
#139 = CYLINDRICAL_SURFACE ( 'NONE', #102, 7.000000000000000000 ) ;
#140 = FACE_OUTER_BOUND ( 'NONE', #56, .T. ) ;
#141 = ORIENTED_EDGE ( 'NONE', *, *, #310, .F. ) ;
#142 = PRODUCT_DEFINITION_FORMATION_WITH_SPECIFIED_SOURCE ( 'LIBOVOLNÝ', '', #45, .NOT_KNOWN. ) ;
#143 = DIRECTION ( 'NONE',  ( 0.000000000000000000, 0.000000000000000000, 1.000000000000000000 ) ) ;
#144 = ORIENTED_EDGE ( 'NONE', *, *, #17, .F. ) ;
#145 = DIRECTION ( 'NONE',  ( 1.000000000000000000, 0.000000000000000000, -0.000000000000000000 ) ) ;
#146 = VERTEX_POINT ( 'NONE', #339 ) ;
#147 = CARTESIAN_POINT ( 'NONE',  ( 0.000000000000000000, 0.000000000000000000, 0.000000000000000000 ) ) ;
#148 = DIRECTION ( 'NONE',  ( 0.000000000000000000, 0.000000000000000000, 1.000000000000000000 ) ) ;
#149 = CIRCLE ( 'NONE', #67, 4.500000000000000888 ) ;
#150 = SECURITY_CLASSIFICATION ( '', '', #206 ) ;
#151 =( NAMED_UNIT ( * ) PLANE_ANGLE_UNIT ( ) SI_UNIT ( $, .RADIAN. ) );
#152 = DIRECTION ( 'NONE',  ( 1.000000000000000000, 0.000000000000000000, 0.000000000000000000 ) ) ;
#153 = VERTEX_POINT ( 'NONE', #309 ) ;
#154 = DIRECTION ( 'NONE',  ( 1.000000000000000000, 0.000000000000000000, 0.000000000000000000 ) ) ;
#155 = ORIENTED_EDGE ( 'NONE', *, *, #207, .T. ) ;
#156 = CARTESIAN_POINT ( 'NONE',  ( 0.000000000000000000, 0.000000000000000000, 605.0000000000000000 ) ) ;
#157 = DIRECTION ( 'NONE',  ( 1.000000000000000000, 0.000000000000000000, 0.000000000000000000 ) ) ;
#158 = AXIS2_PLACEMENT_3D ( 'NONE', #19, #111, #109 ) ;
#159 = EDGE_CURVE ( 'NONE', #244, #190, #189, .T. ) ;
#160 = CYLINDRICAL_SURFACE ( 'NONE', #25, 2.000000000000000000 ) ;
#161 = ADVANCED_FACE ( 'NONE', ( #358 ), #10, .T. ) ;
#162 = ORIENTED_EDGE ( 'NONE', *, *, #207, .F. ) ;
#163 = PERSON_AND_ORGANIZATION_ROLE ( 'design_owner' ) ;
#164 = PRODUCT_DEFINITION_SHAPE ( 'NONE', 'NONE',  #184 ) ;
#165 = LINE ( 'NONE', #68, #317 ) ;
#166 = APPROVAL_ROLE ( '' ) ;
#167 = CARTESIAN_POINT ( 'NONE',  ( 0.000000000000000000, 0.000000000000000000, 605.0000000000000000 ) ) ;
#168 = PERSON_AND_ORGANIZATION ( #298, #103 ) ;
#169 = DIRECTION ( 'NONE',  ( 1.000000000000000000, 0.000000000000000000, 0.000000000000000000 ) ) ;
#170 = CIRCLE ( 'NONE', #240, 0.5000000000000004441 ) ;
#171 = AXIS2_PLACEMENT_3D ( 'NONE', #263, #261, #26 ) ;
#172 = CARTESIAN_POINT ( 'NONE',  ( 2.000000000000000000, 2.449293598294706414E-16, 605.0000000000000000 ) ) ;
#173 = CARTESIAN_POINT ( 'NONE',  ( 0.000000000000000000, 0.000000000000000000, 5.499999999999949374 ) ) ;
#174 = CIRCLE ( 'NONE', #54, 7.000000000000000000 ) ;
#175 = ORIENTED_EDGE ( 'NONE', *, *, #23, .T. ) ;
#176 = PLANE ( 'NONE',  #205 ) ;
#177 = FACE_BOUND ( 'NONE', #84, .T. ) ;
#178 = EDGE_LOOP ( 'NONE', ( #252, #271 ) ) ;
#179 = EDGE_CURVE ( 'NONE', #119, #190, #7, .T. ) ;
#180 = EDGE_LOOP ( 'NONE', ( #120, #326 ) ) ;
#181 = SHAPE_DEFINITION_REPRESENTATION ( #164, #72 ) ;
#182 = VECTOR ( 'NONE', #48, 1000.000000000000000 ) ;
#183 = ORIENTED_EDGE ( 'NONE', *, *, #201, .F. ) ;
#184 = PRODUCT_DEFINITION ( 'NEZNÁMÝ', '', #142, #21 ) ;
#185 = PLANE ( 'NONE',  #60 ) ;
#186 = VERTEX_POINT ( 'NONE', #101 ) ;
#187 = CC_DESIGN_DATE_AND_TIME_ASSIGNMENT ( #77, #260, ( #150 ) ) ;
#188 = PERSON_AND_ORGANIZATION ( #298, #103 ) ;
#189 = LINE ( 'NONE', #285, #182 ) ;
#190 = VERTEX_POINT ( 'NONE', #305 ) ;
#191 = AXIS2_PLACEMENT_3D ( 'NONE', #340, #32, #227 ) ;
#192 = APPLICATION_PROTOCOL_DEFINITION ( 'international standard', 'config_control_design', 1994, #297 ) ;
#193 = DIRECTION ( 'NONE',  ( 0.000000000000000000, 0.000000000000000000, -1.000000000000000000 ) ) ;
#194 = ORIENTED_EDGE ( 'NONE', *, *, #128, .F. ) ;
#195 = COORDINATED_UNIVERSAL_TIME_OFFSET ( 1, 0, .AHEAD. ) ;
#196 = CARTESIAN_POINT ( 'NONE',  ( 7.000000000000000000, 8.572527594031473190E-16, 5.000000000000000000 ) ) ;
#197 = PERSON_AND_ORGANIZATION ( #298, #103 ) ;
#198 = DIRECTION ( 'NONE',  ( 0.000000000000000000, 0.000000000000000000, -1.000000000000000000 ) ) ;
#199 = AXIS2_PLACEMENT_3D ( 'NONE', #95, #287, #76 ) ;
#200 = APPROVAL_ROLE ( '' ) ;
#201 = EDGE_CURVE ( 'NONE', #348, #146, #362, .T. ) ;
#202 = CALENDAR_DATE ( 2022, 8, 7 ) ;
#203 = CARTESIAN_POINT ( 'NONE',  ( 0.000000000000000000, 0.000000000000000000, 5.000000000000000000 ) ) ;
#204 = EDGE_CURVE ( 'NONE', #244, #104, #293, .T. ) ;
#205 = AXIS2_PLACEMENT_3D ( 'NONE', #147, #143, #355 ) ;
#206 = SECURITY_CLASSIFICATION_LEVEL ( 'unclassified' ) ;
#207 = EDGE_CURVE ( 'NONE', #186, #153, #73, .T. ) ;
#208 = ORIENTED_EDGE ( 'NONE', *, *, #53, .F. ) ;
#209 = MANIFOLD_SOLID_BREP ( 'Odebrat vysunutím3', #123 ) ;
#210 = EDGE_CURVE ( 'NONE', #70, #153, #174, .T. ) ;
#211 = DIRECTION ( 'NONE',  ( -1.000000000000000000, 1.224646799147351482E-16, 0.000000000000000000 ) ) ;
#212 = AXIS2_PLACEMENT_3D ( 'NONE', #131, #79, #347 ) ;
#213 = CARTESIAN_POINT ( 'NONE',  ( 0.000000000000000000, 0.000000000000000000, 5.000000000000000000 ) ) ;
#214 = DIRECTION ( 'NONE',  ( -0.000000000000000000, -0.000000000000000000, -1.000000000000000000 ) ) ;
#215 = CARTESIAN_POINT ( 'NONE',  ( 0.000000000000000000, 0.000000000000000000, 605.0000000000000000 ) ) ;
#216 = EDGE_CURVE ( 'NONE', #153, #70, #106, .T. ) ;
#217 = ORIENTED_EDGE ( 'NONE', *, *, #329, .F. ) ;
#218 = DIRECTION ( 'NONE',  ( 0.000000000000000000, 0.000000000000000000, 1.000000000000000000 ) ) ;
#219 = ADVANCED_FACE ( 'NONE', ( #321 ), #52, .T. ) ;
#220 = EDGE_LOOP ( 'NONE', ( #125, #306, #222, #38 ) ) ;
#221 = CARTESIAN_POINT ( 'NONE',  ( 0.000000000000000000, 0.000000000000000000, 5.499999999999949374 ) ) ;
#222 = ORIENTED_EDGE ( 'NONE', *, *, #179, .T. ) ;
#223 = APPROVAL_DATE_TIME ( #365, #46 ) ;
#224 = ORIENTED_EDGE ( 'NONE', *, *, #334, .F. ) ;
#225 = CC_DESIGN_APPROVAL ( #63, ( #142 ) ) ;
#226 = CARTESIAN_POINT ( 'NONE',  ( 0.000000000000000000, 0.000000000000000000, 0.000000000000000000 ) ) ;
#227 = DIRECTION ( 'NONE',  ( -1.000000000000000000, 0.000000000000000000, 0.000000000000000000 ) ) ;
#228 = DIRECTION ( 'NONE',  ( 1.000000000000000000, 0.000000000000000000, 0.000000000000000000 ) ) ;
#229 = CARTESIAN_POINT ( 'NONE',  ( 2.000000000000000000, 2.449293598294706414E-16, 605.0000000000000000 ) ) ;
#230 = PRODUCT_RELATED_PRODUCT_CATEGORY ( 'detail', '', ( #45 ) ) ;
#231 = COORDINATED_UNIVERSAL_TIME_OFFSET ( 1, 0, .AHEAD. ) ;
#232 = DIRECTION ( 'NONE',  ( 1.000000000000000000, 0.000000000000000000, 0.000000000000000000 ) ) ;
#233 = PERSON_AND_ORGANIZATION ( #298, #103 ) ;
#234 = CIRCLE ( 'NONE', #315, 4.000000000000000000 ) ;
#235 = DIRECTION ( 'NONE',  ( -0.000000000000000000, -0.000000000000000000, -1.000000000000000000 ) ) ;
#236 = FACE_OUTER_BOUND ( 'NONE', #116, .T. ) ;
#237 = ORIENTED_EDGE ( 'NONE', *, *, #201, .T. ) ;
#238 = DIRECTION ( 'NONE',  ( -0.000000000000000000, -0.000000000000000000, -1.000000000000000000 ) ) ;
#239 = ORIENTED_EDGE ( 'NONE', *, *, #100, .T. ) ;
#240 = AXIS2_PLACEMENT_3D ( 'NONE', #94, #328, #349 ) ;
#241 = VECTOR ( 'NONE', #312, 1000.000000000000000 ) ;
#242 = TOROIDAL_SURFACE ( 'NONE', #307, 4.500000000000000888, 0.5000000000000000000 ) ;
#243 = APPLICATION_CONTEXT ( 'configuration controlled 3d designs of mechanical parts and assemblies' ) ;
#244 = VERTEX_POINT ( 'NONE', #369 ) ;
#245 = LINE ( 'NONE', #270, #259 ) ;
#246 = VERTEX_POINT ( 'NONE', #318 ) ;
#247 = AXIS2_PLACEMENT_3D ( 'NONE', #226, #64, #157 ) ;
#248 = AXIS2_PLACEMENT_3D ( 'NONE', #268, #57, #381 ) ;
#249 = DIRECTION ( 'NONE',  ( -1.000000000000000000, 0.000000000000000000, 0.000000000000000000 ) ) ;
#250 = MECHANICAL_CONTEXT ( 'NONE', #243, 'mechanical' ) ;
#251 = DIRECTION ( 'NONE',  ( 0.000000000000000000, 0.000000000000000000, 1.000000000000000000 ) ) ;
#252 = ORIENTED_EDGE ( 'NONE', *, *, #20, .T. ) ;
#253 = CIRCLE ( 'NONE', #22, 4.500000000000000888 ) ;
#254 = ORIENTED_EDGE ( 'NONE', *, *, #86, .F. ) ;
#255 = CIRCLE ( 'NONE', #158, 2.000000000000000000 ) ;
#256 = ADVANCED_FACE ( 'NONE', ( #345 ), #29, .F. ) ;
#257 = LINE ( 'NONE', #172, #351 ) ;
#258 = CARTESIAN_POINT ( 'NONE',  ( 0.000000000000000000, 0.000000000000000000, 605.0000000000000000 ) ) ;
#259 = VECTOR ( 'NONE', #214, 1000.000000000000000 ) ;
#260 = DATE_TIME_ROLE ( 'classification_date' ) ;
#261 = DIRECTION ( 'NONE',  ( 0.000000000000000000, 0.000000000000000000, -1.000000000000000000 ) ) ;
#262 = AXIS2_PLACEMENT_3D ( 'NONE', #258, #291, #49 ) ;
#263 = CARTESIAN_POINT ( 'NONE',  ( 0.000000000000000000, 0.000000000000000000, 605.0000000000000000 ) ) ;
#264 = COORDINATED_UNIVERSAL_TIME_OFFSET ( 1, 0, .AHEAD. ) ;
#265 = DIRECTION ( 'NONE',  ( 1.000000000000000000, 0.000000000000000000, 0.000000000000000000 ) ) ;
#266 = CYLINDRICAL_SURFACE ( 'NONE', #191, 7.000000000000000000 ) ;
#267 = TOROIDAL_SURFACE ( 'NONE', #78, 4.500000000000000888, 0.5000000000000000000 ) ;
#268 = CARTESIAN_POINT ( 'NONE',  ( 0.000000000000000000, 0.000000000000000000, 5.000000000000000000 ) ) ;
#269 = FACE_OUTER_BOUND ( 'NONE', #11, .T. ) ;
#270 = CARTESIAN_POINT ( 'NONE',  ( -7.000000000000000000, 0.000000000000000000, 5.000000000000000000 ) ) ;
#271 = ORIENTED_EDGE ( 'NONE', *, *, #83, .T. ) ;
#272 = PLANE ( 'NONE',  #248 ) ;
#273 = DIRECTION ( 'NONE',  ( 1.000000000000000000, 0.000000000000000000, 0.000000000000000000 ) ) ;
#274 = CIRCLE ( 'NONE', #37, 4.000000000000000000 ) ;
#275 = AXIS2_PLACEMENT_3D ( 'NONE', #215, #327, #115 ) ;
#276 = FACE_BOUND ( 'NONE', #35, .T. ) ;
#277 = VERTEX_POINT ( 'NONE', #28 ) ;
#278 = EDGE_LOOP ( 'NONE', ( #62, #302, #237, #194 ) ) ;
#279 = APPLICATION_PROTOCOL_DEFINITION ( 'international standard', 'config_control_design', 1994, #243 ) ;
#280 = DIRECTION ( 'NONE',  ( -0.000000000000000000, -0.000000000000000000, -1.000000000000000000 ) ) ;
#281 = CC_DESIGN_DATE_AND_TIME_ASSIGNMENT ( #41, #12, ( #184 ) ) ;
#282 =( GEOMETRIC_REPRESENTATION_CONTEXT ( 3 ) GLOBAL_UNCERTAINTY_ASSIGNED_CONTEXT ( ( #44 ) ) GLOBAL_UNIT_ASSIGNED_CONTEXT ( ( #36, #151, #322 ) ) REPRESENTATION_CONTEXT ( 'NONE', 'WORKASPACE' ) );
#283 = FACE_OUTER_BOUND ( 'NONE', #278, .T. ) ;
#284 = ORIENTED_EDGE ( 'NONE', *, *, #310, .T. ) ;
#285 = CARTESIAN_POINT ( 'NONE',  ( -4.000000000000000000, 0.000000000000000000, 605.0000000000000000 ) ) ;
#286 = EDGE_LOOP ( 'NONE', ( #331, #360, #30, #284 ) ) ;
#287 = DIRECTION ( 'NONE',  ( -0.000000000000000000, -0.000000000000000000, -1.000000000000000000 ) ) ;
#288 = AXIS2_PLACEMENT_3D ( 'NONE', #352, #118, #228 ) ;
#289 = CALENDAR_DATE ( 2022, 8, 7 ) ;
#290 = LOCAL_TIME ( 17, 30, 0.000000000000000000, #264 ) ;
#291 = DIRECTION ( 'NONE',  ( -0.000000000000000000, -0.000000000000000000, -1.000000000000000000 ) ) ;
#292 = ORIENTED_EDGE ( 'NONE', *, *, #20, .F. ) ;
#293 = CIRCLE ( 'NONE', #343, 4.000000000000000000 ) ;
#294 = LOCAL_TIME ( 17, 30, 0.000000000000000000, #4 ) ;
#295 = CC_DESIGN_PERSON_AND_ORGANIZATION_ASSIGNMENT ( #130, #137, ( #150 ) ) ;
#296 = ADVANCED_FACE ( 'NONE', ( #110 ), #139, .T. ) ;
#297 = APPLICATION_CONTEXT ( 'configuration controlled 3d designs of mechanical parts and assemblies' ) ;
#298 = PERSON ( 'NEURÈENÝ', 'NEURÈENÝ', 'NEURÈENÝ', ('NEURÈENÝ'), ('NEURÈENÝ'), ('NEURÈENÝ') ) ;
#299 = CIRCLE ( 'NONE', #288, 2.000000000000000000 ) ;
#300 = ORIENTED_EDGE ( 'NONE', *, *, #216, .F. ) ;
#301 = CARTESIAN_POINT ( 'NONE',  ( 0.000000000000000000, 0.000000000000000000, 5.000000000000000000 ) ) ;
#302 = ORIENTED_EDGE ( 'NONE', *, *, #5, .T. ) ;
#303 = VERTEX_POINT ( 'NONE', #374 ) ;
#304 = APPROVAL_ROLE ( '' ) ;
#305 = CARTESIAN_POINT ( 'NONE',  ( -4.000000000000000000, 0.000000000000000000, 5.499999999999949374 ) ) ;
#306 = ORIENTED_EDGE ( 'NONE', *, *, #329, .T. ) ;
#307 = AXIS2_PLACEMENT_3D ( 'NONE', #16, #80, #169 ) ;
#308 = EDGE_CURVE ( 'NONE', #104, #244, #274, .T. ) ;
#309 = CARTESIAN_POINT ( 'NONE',  ( 7.000000000000000000, 8.572527594031473190E-16, 0.000000000000000000 ) ) ;
#310 = EDGE_CURVE ( 'NONE', #146, #348, #255, .T. ) ;
#311 = ORIENTED_EDGE ( 'NONE', *, *, #88, .F. ) ;
#312 = DIRECTION ( 'NONE',  ( -0.000000000000000000, -0.000000000000000000, -1.000000000000000000 ) ) ;
#313 = VECTOR ( 'NONE', #354, 1000.000000000000000 ) ;
#314 = DATE_AND_TIME ( #202, #323 ) ;
#315 = AXIS2_PLACEMENT_3D ( 'NONE', #112, #55, #273 ) ;
#316 = PERSON_AND_ORGANIZATION_ROLE ( 'design_supplier' ) ;
#317 = VECTOR ( 'NONE', #193, 1000.000000000000000 ) ;
#318 = CARTESIAN_POINT ( 'NONE',  ( -2.000000000000000000, 0.000000000000000000, 605.0000000000000000 ) ) ;
#319 = DIRECTION ( 'NONE',  ( 1.224646799147353207E-16, 1.000000000000000000, -0.000000000000000000 ) ) ;
#320 = ADVANCED_FACE ( 'NONE', ( #236 ), #242, .F. ) ;
#321 = FACE_OUTER_BOUND ( 'NONE', #220, .T. ) ;
#322 =( NAMED_UNIT ( * ) SI_UNIT ( $, .STERADIAN. ) SOLID_ANGLE_UNIT ( ) );
#323 = LOCAL_TIME ( 17, 30, 0.000000000000000000, #47 ) ;
#324 = ORIENTED_EDGE ( 'NONE', *, *, #204, .F. ) ;
#325 = CARTESIAN_POINT ( 'NONE',  ( 2.000000000000000000, 2.449293598294706414E-16, 0.000000000000000000 ) ) ;
#326 = ORIENTED_EDGE ( 'NONE', *, *, #308, .T. ) ;
#327 = DIRECTION ( 'NONE',  ( 0.000000000000000000, 0.000000000000000000, 1.000000000000000000 ) ) ;
#328 = DIRECTION ( 'NONE',  ( 0.000000000000000000, -1.000000000000000000, 0.000000000000000000 ) ) ;
#329 = EDGE_CURVE ( 'NONE', #104, #119, #50, .T. ) ;
#330 = CIRCLE ( 'NONE', #275, 2.000000000000000000 ) ;
#331 = ORIENTED_EDGE ( 'NONE', *, *, #5, .F. ) ;
#332 = DIRECTION ( 'NONE',  ( 0.000000000000000000, 0.000000000000000000, 1.000000000000000000 ) ) ;
#333 = EDGE_LOOP ( 'NONE', ( #239, #175 ) ) ;
#334 = EDGE_CURVE ( 'NONE', #122, #246, #330, .T. ) ;
#335 = PERSON_AND_ORGANIZATION_ROLE ( 'creator' ) ;
#336 = ADVANCED_FACE ( 'NONE', ( #89 ), #267, .F. ) ;
#337 = CARTESIAN_POINT ( 'NONE',  ( 0.000000000000000000, 0.000000000000000000, 0.000000000000000000 ) ) ;
#338 = CARTESIAN_POINT ( 'NONE',  ( 0.000000000000000000, 0.000000000000000000, 605.0000000000000000 ) ) ;
#339 = CARTESIAN_POINT ( 'NONE',  ( -2.000000000000000000, 0.000000000000000000, 0.000000000000000000 ) ) ;
#340 = CARTESIAN_POINT ( 'NONE',  ( 0.000000000000000000, 0.000000000000000000, 5.000000000000000000 ) ) ;
#341 = CALENDAR_DATE ( 2022, 8, 7 ) ;
#342 = CARTESIAN_POINT ( 'NONE',  ( 0.000000000000000000, 0.000000000000000000, 605.0000000000000000 ) ) ;
#343 = AXIS2_PLACEMENT_3D ( 'NONE', #338, #251, #97 ) ;
#344 = CARTESIAN_POINT ( 'NONE',  ( 0.000000000000000000, 0.000000000000000000, 0.000000000000000000 ) ) ;
#345 = FACE_OUTER_BOUND ( 'NONE', #286, .T. ) ;
#346 = CIRCLE ( 'NONE', #93, 7.000000000000000000 ) ;
#347 = DIRECTION ( 'NONE',  ( 1.000000000000000000, 0.000000000000000000, 0.000000000000000000 ) ) ;
#348 = VERTEX_POINT ( 'NONE', #325 ) ;
#349 = DIRECTION ( 'NONE',  ( 0.000000000000000000, 0.000000000000000000, -1.000000000000000000 ) ) ;
#350 = DATE_AND_TIME ( #85, #117 ) ;
#351 = VECTOR ( 'NONE', #74, 1000.000000000000000 ) ;
#352 = CARTESIAN_POINT ( 'NONE',  ( 0.000000000000000000, 0.000000000000000000, 605.0000000000000000 ) ) ;
#353 = CC_DESIGN_APPROVAL ( #46, ( #184 ) ) ;
#354 = DIRECTION ( 'NONE',  ( -0.000000000000000000, -0.000000000000000000, -1.000000000000000000 ) ) ;
#355 = DIRECTION ( 'NONE',  ( 1.000000000000000000, 0.000000000000000000, -0.000000000000000000 ) ) ;
#356 = CC_DESIGN_SECURITY_CLASSIFICATION ( #150, ( #142 ) ) ;
#357 = ORIENTED_EDGE ( 'NONE', *, *, #15, .T. ) ;
#358 = FACE_OUTER_BOUND ( 'NONE', #126, .T. ) ;
#359 = ORIENTED_EDGE ( 'NONE', *, *, #100, .F. ) ;
#360 = ORIENTED_EDGE ( 'NONE', *, *, #334, .T. ) ;
#361 = APPROVAL_STATUS ( 'not_yet_approved' ) ;
#362 = CIRCLE ( 'NONE', #247, 2.000000000000000000 ) ;
#363 = EDGE_LOOP ( 'NONE', ( #162, #359, #377, #92 ) ) ;
#364 = CC_DESIGN_APPROVAL ( #98, ( #150 ) ) ;
#365 = DATE_AND_TIME ( #289, #294 ) ;
#366 = DIRECTION ( 'NONE',  ( 1.000000000000000000, 0.000000000000000000, 0.000000000000000000 ) ) ;
#367 = ADVANCED_FACE ( 'NONE', ( #276, #269 ), #176, .F. ) ;
#368 = CARTESIAN_POINT ( 'NONE',  ( -4.500000000000000888, 5.510910596163089556E-16, 5.499999999999949374 ) ) ;
#369 = CARTESIAN_POINT ( 'NONE',  ( -4.000000000000000000, 0.000000000000000000, 605.0000000000000000 ) ) ;
#370 = CIRCLE ( 'NONE', #40, 0.5000000000000004441 ) ;
#371 = PERSON_AND_ORGANIZATION ( #298, #103 ) ;
#372 = DIRECTION ( 'NONE',  ( 0.000000000000000000, 0.000000000000000000, 1.000000000000000000 ) ) ;
#373 = ADVANCED_FACE ( 'NONE', ( #1, #61 ), #272, .T. ) ;
#374 = CARTESIAN_POINT ( 'NONE',  ( -4.500000000000000888, 5.510910596163088569E-16, 4.999999999999975131 ) ) ;
#375 = DIRECTION ( 'NONE',  ( -1.000000000000000000, 0.000000000000000000, 0.000000000000000000 ) ) ;
#376 = CC_DESIGN_PERSON_AND_ORGANIZATION_ASSIGNMENT ( #24, #82, ( #142 ) ) ;
#377 = ORIENTED_EDGE ( 'NONE', *, *, #17, .T. ) ;
#378 = APPROVAL_DATE_TIME ( #350, #98 ) ;
#379 = EDGE_LOOP ( 'NONE', ( #87, #96, #99, #90 ) ) ;
#380 = DIRECTION ( 'NONE',  ( 1.000000000000000000, 0.000000000000000000, 0.000000000000000000 ) ) ;
#381 = DIRECTION ( 'NONE',  ( 1.000000000000000000, 0.000000000000000000, -0.000000000000000000 ) ) ;
ENDSEC;
END-ISO-10303-21;
