ISO-10303-21;
HEADER;
FILE_DESCRIPTION (( 'STEP AP203' ),
    '1' );
FILE_NAME ('87e7.STEP',
    '2022-07-08T14:21:54',
    ( '' ),
    ( '' ),
    'SwSTEP 2.0',
    'SolidWorks 2019',
    '' );
FILE_SCHEMA (( 'CONFIG_CONTROL_DESIGN' ));
ENDSEC;

DATA;
#1 = DIRECTION ( 'NONE',  ( -0.000000000000000000, -0.000000000000000000, -1.000000000000000000 ) ) ;
#2 = EDGE_CURVE ( 'NONE', #370, #374, #304, .T. ) ;
#3 = DIRECTION ( 'NONE',  ( -1.000000000000000000, 0.000000000000000000, 0.000000000000000000 ) ) ;
#4 = DIRECTION ( 'NONE',  ( 0.000000000000000000, 0.000000000000000000, 1.000000000000000000 ) ) ;
#5 = ORIENTED_EDGE ( 'NONE', *, *, #41, .F. ) ;
#6 = DIRECTION ( 'NONE',  ( 1.000000000000000000, 0.000000000000000000, -0.000000000000000000 ) ) ;
#7 = EDGE_CURVE ( 'NONE', #66, #266, #357, .T. ) ;
#8 = DIRECTION ( 'NONE',  ( 0.000000000000000000, 0.000000000000000000, -1.000000000000000000 ) ) ;
#9 = ORIENTED_EDGE ( 'NONE', *, *, #292, .F. ) ;
#10 = AXIS2_PLACEMENT_3D ( 'NONE', #227, #265, #259 ) ;
#11 = AXIS2_PLACEMENT_3D ( 'NONE', #299, #234, #336 ) ;
#12 = DIRECTION ( 'NONE',  ( -0.000000000000000000, -0.000000000000000000, -1.000000000000000000 ) ) ;
#13 = CARTESIAN_POINT ( 'NONE',  ( 0.000000000000000000, 0.000000000000000000, 7.700000000000040146 ) ) ;
#14 = ORIENTED_EDGE ( 'NONE', *, *, #141, .T. ) ;
#15 = EDGE_CURVE ( 'NONE', #66, #307, #279, .T. ) ;
#16 = FACE_OUTER_BOUND ( 'NONE', #74, .T. ) ;
#17 = AXIS2_PLACEMENT_3D ( 'NONE', #225, #78, #344 ) ;
#18 = CIRCLE ( 'NONE', #335, 7.000000000000000888 ) ;
#19 = CARTESIAN_POINT ( 'NONE',  ( 7.700000000000001066, 0.000000000000000000, 7.700000000000040146 ) ) ;
#20 = PERSON_AND_ORGANIZATION_ROLE ( 'classification_officer' ) ;
#21 = EDGE_LOOP ( 'NONE', ( #164, #242 ) ) ;
#22 = APPROVAL ( #158, 'NEURÈENÝ' ) ;
#23 = MECHANICAL_CONTEXT ( 'NONE', #297, 'mechanical' ) ;
#24 = LINE ( 'NONE', #245, #364 ) ;
#25 = APPROVAL_DATE_TIME ( #82, #331 ) ;
#26 = CARTESIAN_POINT ( 'NONE',  ( -7.000000000000000888, 0.000000000000000000, 657.0000000000000000 ) ) ;
#27 = COORDINATED_UNIVERSAL_TIME_OFFSET ( 1, 0, .AHEAD. ) ;
#28 = DIRECTION ( 'NONE',  ( 1.000000000000000000, 0.000000000000000000, 0.000000000000000000 ) ) ;
#29 = DIRECTION ( 'NONE',  ( 1.000000000000000000, 0.000000000000000000, 0.000000000000000000 ) ) ;
#30 = LOCAL_TIME ( 16, 21, 54.00000000000000000, #218 ) ;
#31 = CC_DESIGN_PERSON_AND_ORGANIZATION_ASSIGNMENT ( #165, #212, ( #337 ) ) ;
#32 = CARTESIAN_POINT ( 'NONE',  ( 0.000000000000000000, 0.000000000000000000, 0.000000000000000000 ) ) ;
#33 = DIRECTION ( 'NONE',  ( -1.000000000000000000, 0.000000000000000000, 0.000000000000000000 ) ) ;
#34 = ORIENTED_EDGE ( 'NONE', *, *, #141, .F. ) ;
#35 = DIRECTION ( 'NONE',  ( -1.000000000000000000, 0.000000000000000000, 0.000000000000000000 ) ) ;
#36 = ORIENTED_EDGE ( 'NONE', *, *, #217, .T. ) ;
#37 = FACE_OUTER_BOUND ( 'NONE', #93, .T. ) ;
#38 = CLOSED_SHELL ( 'NONE', ( #75, #303, #195, #287, #113, #177, #192, #132, #275, #317, #366 ) ) ;
#39 = CC_DESIGN_APPROVAL ( #250, ( #221 ) ) ;
#40 = DIRECTION ( 'NONE',  ( 0.000000000000000000, 0.000000000000000000, 1.000000000000000000 ) ) ;
#41 = EDGE_CURVE ( 'NONE', #363, #173, #104, .T. ) ;
#42 = VERTEX_POINT ( 'NONE', #166 ) ;
#43 = CYLINDRICAL_SURFACE ( 'NONE', #46, 11.00000000000000000 ) ;
#44 = VERTEX_POINT ( 'NONE', #26 ) ;
#45 = CARTESIAN_POINT ( 'NONE',  ( 7.000000000000000888, 8.572527594031474176E-16, 657.0000000000000000 ) ) ;
#46 = AXIS2_PLACEMENT_3D ( 'NONE', #204, #12, #151 ) ;
#47 = PERSON_AND_ORGANIZATION ( #189, #208 ) ;
#48 = VERTEX_POINT ( 'NONE', #83 ) ;
#49 = EDGE_CURVE ( 'NONE', #202, #266, #53, .T. ) ;
#50 = PERSON_AND_ORGANIZATION ( #189, #208 ) ;
#51 = APPROVAL_DATE_TIME ( #139, #22 ) ;
#52 = ORIENTED_EDGE ( 'NONE', *, *, #97, .T. ) ;
#53 = CIRCLE ( 'NONE', #116, 7.700000000000001066 ) ;
#54 = APPROVAL_PERSON_ORGANIZATION ( #283, #250, #346 ) ;
#55 = PERSON_AND_ORGANIZATION_ROLE ( 'design_supplier' ) ;
#56 = EDGE_CURVE ( 'NONE', #374, #370, #334, .T. ) ;
#57 = DIRECTION ( 'NONE',  ( 0.000000000000000000, 0.000000000000000000, -1.000000000000000000 ) ) ;
#58 = FACE_BOUND ( 'NONE', #368, .T. ) ;
#59 = AXIS2_PLACEMENT_3D ( 'NONE', #125, #296, #153 ) ;
#60 = EDGE_CURVE ( 'NONE', #173, #363, #223, .T. ) ;
#61 = CARTESIAN_POINT ( 'NONE',  ( -7.000000000000000888, 0.000000000000000000, 657.0000000000000000 ) ) ;
#62 = DIRECTION ( 'NONE',  ( -0.000000000000000000, -0.000000000000000000, -1.000000000000000000 ) ) ;
#63 = CARTESIAN_POINT ( 'NONE',  ( 0.000000000000000000, 0.000000000000000000, 657.0000000000000000 ) ) ;
#64 =( NAMED_UNIT ( * ) PLANE_ANGLE_UNIT ( ) SI_UNIT ( $, .RADIAN. ) );
#65 = DIRECTION ( 'NONE',  ( 0.000000000000000000, 0.000000000000000000, 1.000000000000000000 ) ) ;
#66 = VERTEX_POINT ( 'NONE', #379 ) ;
#67 = EDGE_CURVE ( 'NONE', #370, #42, #24, .T. ) ;
#68 = DIRECTION ( 'NONE',  ( 0.000000000000000000, 0.000000000000000000, 1.000000000000000000 ) ) ;
#69 = EDGE_LOOP ( 'NONE', ( #209, #149 ) ) ;
#70 = VECTOR ( 'NONE', #290, 1000.000000000000000 ) ;
#71 = DIRECTION ( 'NONE',  ( 0.000000000000000000, 0.000000000000000000, -1.000000000000000000 ) ) ;
#72 = ORIENTED_EDGE ( 'NONE', *, *, #264, .T. ) ;
#73 = ADVANCED_BREP_SHAPE_REPRESENTATION ( '87e7', ( #314, #229 ), #380 ) ;
#74 = EDGE_LOOP ( 'NONE', ( #302, #96, #124, #130 ) ) ;
#75 = ADVANCED_FACE ( 'NONE', ( #220 ), #136, .F. ) ;
#76 = VECTOR ( 'NONE', #57, 1000.000000000000000 ) ;
#77 = CALENDAR_DATE ( 2022, 8, 7 ) ;
#78 = DIRECTION ( 'NONE',  ( 0.000000000000000000, 0.000000000000000000, 1.000000000000000000 ) ) ;
#79 = EDGE_CURVE ( 'NONE', #246, #42, #378, .T. ) ;
#80 = ORIENTED_EDGE ( 'NONE', *, *, #15, .T. ) ;
#81 = CIRCLE ( 'NONE', #200, 5.000000000000000000 ) ;
#82 = DATE_AND_TIME ( #77, #30 ) ;
#83 = CARTESIAN_POINT ( 'NONE',  ( 5.000000000000000000, 6.123233995736766282E-16, 657.0000000000000000 ) ) ;
#84 = LINE ( 'NONE', #226, #273 ) ;
#85 = EDGE_CURVE ( 'NONE', #89, #173, #258, .T. ) ;
#86 = DIRECTION ( 'NONE',  ( 1.000000000000000000, 0.000000000000000000, -0.000000000000000000 ) ) ;
#87 = ORIENTED_EDGE ( 'NONE', *, *, #85, .F. ) ;
#88 = CARTESIAN_POINT ( 'NONE',  ( 0.000000000000000000, 0.000000000000000000, 657.0000000000000000 ) ) ;
#89 = VERTEX_POINT ( 'NONE', #144 ) ;
#90 = EDGE_CURVE ( 'NONE', #44, #66, #231, .T. ) ;
#91 = CARTESIAN_POINT ( 'NONE',  ( 0.000000000000000000, 0.000000000000000000, 7.000000000000000000 ) ) ;
#92 = DIRECTION ( 'NONE',  ( -1.000000000000000000, 0.000000000000000000, 0.000000000000000000 ) ) ;
#93 = EDGE_LOOP ( 'NONE', ( #211, #52 ) ) ;
#94 = CIRCLE ( 'NONE', #105, 11.00000000000000000 ) ;
#95 = CARTESIAN_POINT ( 'NONE',  ( 11.00000000000000000, 1.347111479062088405E-15, 0.000000000000000000 ) ) ;
#96 = ORIENTED_EDGE ( 'NONE', *, *, #170, .T. ) ;
#97 = EDGE_CURVE ( 'NONE', #339, #44, #168, .T. ) ;
#98 = DIRECTION ( 'NONE',  ( 0.000000000000000000, 0.000000000000000000, 1.000000000000000000 ) ) ;
#99 = EDGE_LOOP ( 'NONE', ( #359, #254, #338, #87 ) ) ;
#100 = PRODUCT_DEFINITION_FORMATION_WITH_SPECIFIED_SOURCE ( 'LIBOVOLNÝ', '', #337, .NOT_KNOWN. ) ;
#101 =( NAMED_UNIT ( * ) SI_UNIT ( $, .STERADIAN. ) SOLID_ANGLE_UNIT ( ) );
#102 = APPROVAL_STATUS ( 'not_yet_approved' ) ;
#103 = DIRECTION ( 'NONE',  ( 1.000000000000000000, 0.000000000000000000, 0.000000000000000000 ) ) ;
#104 = CIRCLE ( 'NONE', #179, 5.000000000000000000 ) ;
#105 = AXIS2_PLACEMENT_3D ( 'NONE', #362, #98, #367 ) ;
#106 = DIRECTION ( 'NONE',  ( 1.224646799147353207E-16, 1.000000000000000000, -0.000000000000000000 ) ) ;
#107 = APPROVAL_ROLE ( '' ) ;
#108 = CARTESIAN_POINT ( 'NONE',  ( 0.000000000000000000, 0.000000000000000000, 0.000000000000000000 ) ) ;
#109 = PERSON_AND_ORGANIZATION ( #189, #208 ) ;
#110 = DIRECTION ( 'NONE',  ( 0.000000000000000000, 0.000000000000000000, 1.000000000000000000 ) ) ;
#111 = APPROVAL_PERSON_ORGANIZATION ( #47, #22, #371 ) ;
#112 = DIRECTION ( 'NONE',  ( -0.000000000000000000, -0.000000000000000000, -1.000000000000000000 ) ) ;
#113 = ADVANCED_FACE ( 'NONE', ( #148 ), #355, .T. ) ;
#114 = DIRECTION ( 'NONE',  ( 0.000000000000000000, 0.000000000000000000, 1.000000000000000000 ) ) ;
#115 = ORIENTED_EDGE ( 'NONE', *, *, #292, .T. ) ;
#116 = AXIS2_PLACEMENT_3D ( 'NONE', #191, #277, #103 ) ;
#117 = AXIS2_PLACEMENT_3D ( 'NONE', #288, #114, #86 ) ;
#118 = FACE_OUTER_BOUND ( 'NONE', #69, .T. ) ;
#119 = PRODUCT_RELATED_PRODUCT_CATEGORY ( 'detail', '', ( #337 ) ) ;
#120 = FACE_OUTER_BOUND ( 'NONE', #240, .T. ) ;
#121 = APPLICATION_PROTOCOL_DEFINITION ( 'international standard', 'config_control_design', 1994, #297 ) ;
#122 = FACE_BOUND ( 'NONE', #238, .T. ) ;
#123 = CYLINDRICAL_SURFACE ( 'NONE', #196, 5.000000000000000000 ) ;
#124 = ORIENTED_EDGE ( 'NONE', *, *, #85, .T. ) ;
#125 = CARTESIAN_POINT ( 'NONE',  ( 0.000000000000000000, 0.000000000000000000, 7.700000000000040146 ) ) ;
#126 = EDGE_LOOP ( 'NONE', ( #34, #233, #161, #294 ) ) ;
#127 = TOROIDAL_SURFACE ( 'NONE', #326, 7.700000000000001066, 0.6999999999999999556 ) ;
#128 = CC_DESIGN_PERSON_AND_ORGANIZATION_ASSIGNMENT ( #50, #185, ( #221 ) ) ;
#129 = DIRECTION ( 'NONE',  ( -1.000000000000000000, 0.000000000000000000, 0.000000000000000000 ) ) ;
#130 = ORIENTED_EDGE ( 'NONE', *, *, #60, .T. ) ;
#131 = ORIENTED_EDGE ( 'NONE', *, *, #49, .T. ) ;
#132 = ADVANCED_FACE ( 'NONE', ( #120 ), #167, .T. ) ;
#133 = CC_DESIGN_SECURITY_CLASSIFICATION ( #319, ( #100 ) ) ;
#134 = UNCERTAINTY_MEASURE_WITH_UNIT (LENGTH_MEASURE( 1.000000000000000082E-05 ), #369, 'distance_accuracy_value', 'NONE');
#135 = DATE_AND_TIME ( #305, #267 ) ;
#136 = CYLINDRICAL_SURFACE ( 'NONE', #232, 5.000000000000000000 ) ;
#137 = CARTESIAN_POINT ( 'NONE',  ( 0.000000000000000000, 0.000000000000000000, 0.000000000000000000 ) ) ;
#138 = EDGE_LOOP ( 'NONE', ( #215, #14, #252, #333 ) ) ;
#139 = DATE_AND_TIME ( #345, #157 ) ;
#140 = AXIS2_PLACEMENT_3D ( 'NONE', #332, #65, #156 ) ;
#141 = EDGE_CURVE ( 'NONE', #374, #246, #354, .T. ) ;
#142 = CARTESIAN_POINT ( 'NONE',  ( 0.000000000000000000, 0.000000000000000000, 7.000000000000000000 ) ) ;
#143 = CARTESIAN_POINT ( 'NONE',  ( -5.000000000000000000, 0.000000000000000000, 657.0000000000000000 ) ) ;
#144 = CARTESIAN_POINT ( 'NONE',  ( -5.000000000000000000, 0.000000000000000000, 657.0000000000000000 ) ) ;
#145 = EDGE_CURVE ( 'NONE', #48, #363, #84, .T. ) ;
#146 = CC_DESIGN_APPROVAL ( #331, ( #319 ) ) ;
#147 = CARTESIAN_POINT ( 'NONE',  ( -5.000000000000000000, 0.000000000000000000, 0.000000000000000000 ) ) ;
#148 = FACE_OUTER_BOUND ( 'NONE', #126, .T. ) ;
#149 = ORIENTED_EDGE ( 'NONE', *, *, #56, .T. ) ;
#150 = EDGE_CURVE ( 'NONE', #89, #48, #349, .T. ) ;
#151 = DIRECTION ( 'NONE',  ( -1.000000000000000000, 0.000000000000000000, 0.000000000000000000 ) ) ;
#152 = ORIENTED_EDGE ( 'NONE', *, *, #97, .F. ) ;
#153 = DIRECTION ( 'NONE',  ( 1.000000000000000000, 0.000000000000000000, 0.000000000000000000 ) ) ;
#154 = DIRECTION ( 'NONE',  ( 1.000000000000000000, 0.000000000000000000, 0.000000000000000000 ) ) ;
#155 = ORIENTED_EDGE ( 'NONE', *, *, #217, .F. ) ;
#156 = DIRECTION ( 'NONE',  ( 1.000000000000000000, 0.000000000000000000, -0.000000000000000000 ) ) ;
#157 = LOCAL_TIME ( 16, 21, 54.00000000000000000, #243 ) ;
#158 = APPROVAL_STATUS ( 'not_yet_approved' ) ;
#159 = EDGE_LOOP ( 'NONE', ( #131, #72 ) ) ;
#160 = PERSON_AND_ORGANIZATION_ROLE ( 'creator' ) ;
#161 = ORIENTED_EDGE ( 'NONE', *, *, #67, .T. ) ;
#162 = AXIS2_PLACEMENT_3D ( 'NONE', #239, #40, #154 ) ;
#163 = DIRECTION ( 'NONE',  ( 1.000000000000000000, 0.000000000000000000, 0.000000000000000000 ) ) ;
#164 = ORIENTED_EDGE ( 'NONE', *, *, #377, .F. ) ;
#165 = PERSON_AND_ORGANIZATION ( #189, #208 ) ;
#166 = CARTESIAN_POINT ( 'NONE',  ( -11.00000000000000000, 0.000000000000000000, 0.000000000000000000 ) ) ;
#167 = CYLINDRICAL_SURFACE ( 'NONE', #306, 7.000000000000000888 ) ;
#168 = CIRCLE ( 'NONE', #10, 7.000000000000000888 ) ;
#169 = AXIS2_PLACEMENT_3D ( 'NONE', #91, #1, #3 ) ;
#170 = EDGE_CURVE ( 'NONE', #48, #89, #81, .T. ) ;
#171 = DIRECTION ( 'NONE',  ( 0.000000000000000000, 0.000000000000000000, -1.000000000000000000 ) ) ;
#172 = CARTESIAN_POINT ( 'NONE',  ( 7.000000000000000888, 8.572527594031474176E-16, 657.0000000000000000 ) ) ;
#173 = VERTEX_POINT ( 'NONE', #147 ) ;
#174 = AXIS2_PLACEMENT_3D ( 'NONE', #19, #268, #8 ) ;
#175 = PLANE ( 'NONE',  #224 ) ;
#176 = PRODUCT_DEFINITION_SHAPE ( 'NONE', 'NONE',  #221 ) ;
#177 = ADVANCED_FACE ( 'NONE', ( #318, #118 ), #175, .T. ) ;
#178 = CARTESIAN_POINT ( 'NONE',  ( 7.000000000000000888, 8.572527594031474176E-16, 7.700000000000040146 ) ) ;
#179 = AXIS2_PLACEMENT_3D ( 'NONE', #193, #282, #186 ) ;
#180 = DIRECTION ( 'NONE',  ( 1.000000000000000000, 0.000000000000000000, 0.000000000000000000 ) ) ;
#181 = FACE_OUTER_BOUND ( 'NONE', #324, .T. ) ;
#182 = CC_DESIGN_PERSON_AND_ORGANIZATION_ASSIGNMENT ( #281, #20, ( #319 ) ) ;
#183 = ORIENTED_EDGE ( 'NONE', *, *, #15, .F. ) ;
#184 = AXIS2_PLACEMENT_3D ( 'NONE', #249, #106, #347 ) ;
#185 = PERSON_AND_ORGANIZATION_ROLE ( 'creator' ) ;
#186 = DIRECTION ( 'NONE',  ( 1.000000000000000000, 0.000000000000000000, 0.000000000000000000 ) ) ;
#187 = DIRECTION ( 'NONE',  ( 0.000000000000000000, 0.000000000000000000, 1.000000000000000000 ) ) ;
#188 = DATE_TIME_ROLE ( 'creation_date' ) ;
#189 = PERSON ( 'NEURÈENÝ', 'NEURÈENÝ', 'NEURÈENÝ', ('NEURÈENÝ'), ('NEURÈENÝ'), ('NEURÈENÝ') ) ;
#190 = DATE_AND_TIME ( #214, #248 ) ;
#191 = CARTESIAN_POINT ( 'NONE',  ( 0.000000000000000000, 0.000000000000000000, 7.000000000000000000 ) ) ;
#192 = ADVANCED_FACE ( 'NONE', ( #58, #257 ), #381, .F. ) ;
#193 = CARTESIAN_POINT ( 'NONE',  ( 0.000000000000000000, 0.000000000000000000, 0.000000000000000000 ) ) ;
#194 = DIRECTION ( 'NONE',  ( 1.000000000000000000, 0.000000000000000000, 0.000000000000000000 ) ) ;
#195 = ADVANCED_FACE ( 'NONE', ( #197 ), #321, .T. ) ;
#196 = AXIS2_PLACEMENT_3D ( 'NONE', #237, #71, #129 ) ;
#197 = FACE_OUTER_BOUND ( 'NONE', #272, .T. ) ;
#198 = CARTESIAN_POINT ( 'NONE',  ( 7.700000000000001066, 0.000000000000000000, 7.000000000000020428 ) ) ;
#199 = DIRECTION ( 'NONE',  ( -0.000000000000000000, -0.000000000000000000, -1.000000000000000000 ) ) ;
#200 = AXIS2_PLACEMENT_3D ( 'NONE', #63, #351, #29 ) ;
#201 = CARTESIAN_POINT ( 'NONE',  ( 0.000000000000000000, 0.000000000000000000, 657.0000000000000000 ) ) ;
#202 = VERTEX_POINT ( 'NONE', #198 ) ;
#203 = EDGE_CURVE ( 'NONE', #339, #307, #323, .T. ) ;
#204 = CARTESIAN_POINT ( 'NONE',  ( 0.000000000000000000, 0.000000000000000000, 7.000000000000000000 ) ) ;
#205 = ORIENTED_EDGE ( 'NONE', *, *, #170, .F. ) ;
#206 = CARTESIAN_POINT ( 'NONE',  ( 0.000000000000000000, 0.000000000000000000, 7.700000000000040146 ) ) ;
#207 = ORIENTED_EDGE ( 'NONE', *, *, #203, .F. ) ;
#208 = ORGANIZATION ( 'NEURÈENÝ', 'NEURÈENÝ', '' ) ;
#209 = ORIENTED_EDGE ( 'NONE', *, *, #2, .T. ) ;
#210 = CARTESIAN_POINT ( 'NONE',  ( 11.00000000000000000, 1.347111479062088405E-15, 7.000000000000000000 ) ) ;
#211 = ORIENTED_EDGE ( 'NONE', *, *, #322, .T. ) ;
#212 = PERSON_AND_ORGANIZATION_ROLE ( 'design_owner' ) ;
#213 = EDGE_LOOP ( 'NONE', ( #183, #300, #263, #155 ) ) ;
#214 = CALENDAR_DATE ( 2022, 8, 7 ) ;
#215 = ORIENTED_EDGE ( 'NONE', *, *, #56, .F. ) ;
#216 = AXIS2_PLACEMENT_3D ( 'NONE', #262, #230, #194 ) ;
#217 = EDGE_CURVE ( 'NONE', #307, #202, #280, .T. ) ;
#218 = COORDINATED_UNIVERSAL_TIME_OFFSET ( 1, 0, .AHEAD. ) ;
#219 = SECURITY_CLASSIFICATION_LEVEL ( 'unclassified' ) ;
#220 = FACE_OUTER_BOUND ( 'NONE', #99, .T. ) ;
#221 = PRODUCT_DEFINITION ( 'NEZNÁMÝ', '', #100, #328 ) ;
#222 = PERSON_AND_ORGANIZATION ( #189, #208 ) ;
#223 = CIRCLE ( 'NONE', #260, 5.000000000000000000 ) ;
#224 = AXIS2_PLACEMENT_3D ( 'NONE', #142, #293, #6 ) ;
#225 = CARTESIAN_POINT ( 'NONE',  ( 0.000000000000000000, 0.000000000000000000, 7.000000000000000000 ) ) ;
#226 = CARTESIAN_POINT ( 'NONE',  ( 5.000000000000000000, 6.123233995736766282E-16, 657.0000000000000000 ) ) ;
#227 = CARTESIAN_POINT ( 'NONE',  ( 0.000000000000000000, 0.000000000000000000, 657.0000000000000000 ) ) ;
#228 = AXIS2_PLACEMENT_3D ( 'NONE', #284, #110, #278 ) ;
#229 = AXIS2_PLACEMENT_3D ( 'NONE', #137, #276, #163 ) ;
#230 = DIRECTION ( 'NONE',  ( 0.000000000000000000, 0.000000000000000000, 1.000000000000000000 ) ) ;
#231 = LINE ( 'NONE', #61, #342 ) ;
#232 = AXIS2_PLACEMENT_3D ( 'NONE', #201, #171, #35 ) ;
#233 = ORIENTED_EDGE ( 'NONE', *, *, #2, .F. ) ;
#234 = DIRECTION ( 'NONE',  ( -0.000000000000000000, -0.000000000000000000, -1.000000000000000000 ) ) ;
#235 = ORIENTED_EDGE ( 'NONE', *, *, #90, .F. ) ;
#236 = CC_DESIGN_DATE_AND_TIME_ASSIGNMENT ( #190, #343, ( #319 ) ) ;
#237 = CARTESIAN_POINT ( 'NONE',  ( 0.000000000000000000, 0.000000000000000000, 657.0000000000000000 ) ) ;
#238 = EDGE_LOOP ( 'NONE', ( #341, #205 ) ) ;
#239 = CARTESIAN_POINT ( 'NONE',  ( 0.000000000000000000, 0.000000000000000000, 657.0000000000000000 ) ) ;
#240 = EDGE_LOOP ( 'NONE', ( #207, #330, #270, #80 ) ) ;
#241 = DIRECTION ( 'NONE',  ( 0.000000000000000000, 0.000000000000000000, 1.000000000000000000 ) ) ;
#242 = ORIENTED_EDGE ( 'NONE', *, *, #79, .F. ) ;
#243 = COORDINATED_UNIVERSAL_TIME_OFFSET ( 1, 0, .AHEAD. ) ;
#244 = CC_DESIGN_PERSON_AND_ORGANIZATION_ASSIGNMENT ( #375, #55, ( #100 ) ) ;
#245 = CARTESIAN_POINT ( 'NONE',  ( -11.00000000000000000, 0.000000000000000000, 7.000000000000000000 ) ) ;
#246 = VERTEX_POINT ( 'NONE', #95 ) ;
#247 = AXIS2_PLACEMENT_3D ( 'NONE', #88, #289, #33 ) ;
#248 = LOCAL_TIME ( 16, 21, 54.00000000000000000, #348 ) ;
#249 = CARTESIAN_POINT ( 'NONE',  ( -7.700000000000001066, 9.429780353434621002E-16, 7.700000000000040146 ) ) ;
#250 = APPROVAL ( #102, 'NEURÈENÝ' ) ;
#251 = APPROVAL_DATE_TIME ( #135, #250 ) ;
#252 = ORIENTED_EDGE ( 'NONE', *, *, #79, .T. ) ;
#253 = APPROVAL_STATUS ( 'not_yet_approved' ) ;
#254 = ORIENTED_EDGE ( 'NONE', *, *, #145, .T. ) ;
#255 = AXIS2_PLACEMENT_3D ( 'NONE', #32, #4, #356 ) ;
#256 = CIRCLE ( 'NONE', #11, 7.700000000000001066 ) ;
#257 = FACE_OUTER_BOUND ( 'NONE', #21, .T. ) ;
#258 = LINE ( 'NONE', #143, #76 ) ;
#259 = DIRECTION ( 'NONE',  ( 1.000000000000000000, 0.000000000000000000, 0.000000000000000000 ) ) ;
#260 = AXIS2_PLACEMENT_3D ( 'NONE', #108, #316, #310 ) ;
#261 = LOCAL_TIME ( 16, 21, 54.00000000000000000, #311 ) ;
#262 = CARTESIAN_POINT ( 'NONE',  ( 0.000000000000000000, 0.000000000000000000, 657.0000000000000000 ) ) ;
#263 = ORIENTED_EDGE ( 'NONE', *, *, #49, .F. ) ;
#264 = EDGE_CURVE ( 'NONE', #266, #202, #256, .T. ) ;
#265 = DIRECTION ( 'NONE',  ( 0.000000000000000000, 0.000000000000000000, 1.000000000000000000 ) ) ;
#266 = VERTEX_POINT ( 'NONE', #358 ) ;
#267 = LOCAL_TIME ( 16, 21, 54.00000000000000000, #27 ) ;
#268 = DIRECTION ( 'NONE',  ( 0.000000000000000000, -1.000000000000000000, 0.000000000000000000 ) ) ;
#269 = CARTESIAN_POINT ( 'NONE',  ( 5.000000000000000000, 6.123233995736766282E-16, 0.000000000000000000 ) ) ;
#270 = ORIENTED_EDGE ( 'NONE', *, *, #90, .T. ) ;
#271 = CARTESIAN_POINT ( 'NONE',  ( -11.00000000000000000, 0.000000000000000000, 7.000000000000000000 ) ) ;
#272 = EDGE_LOOP ( 'NONE', ( #152, #327, #115, #235 ) ) ;
#273 = VECTOR ( 'NONE', #350, 1000.000000000000000 ) ;
#274 = ORIENTED_EDGE ( 'NONE', *, *, #7, .F. ) ;
#275 = ADVANCED_FACE ( 'NONE', ( #122, #37 ), #329, .T. ) ;
#276 = DIRECTION ( 'NONE',  ( 0.000000000000000000, 0.000000000000000000, 1.000000000000000000 ) ) ;
#277 = DIRECTION ( 'NONE',  ( -0.000000000000000000, -0.000000000000000000, -1.000000000000000000 ) ) ;
#278 = DIRECTION ( 'NONE',  ( 1.000000000000000000, 0.000000000000000000, 0.000000000000000000 ) ) ;
#279 = CIRCLE ( 'NONE', #228, 7.000000000000000888 ) ;
#280 = CIRCLE ( 'NONE', #174, 0.7000000000000000666 ) ;
#281 = PERSON_AND_ORGANIZATION ( #189, #208 ) ;
#282 = DIRECTION ( 'NONE',  ( -0.000000000000000000, -0.000000000000000000, -1.000000000000000000 ) ) ;
#283 = PERSON_AND_ORGANIZATION ( #189, #208 ) ;
#284 = CARTESIAN_POINT ( 'NONE',  ( 0.000000000000000000, 0.000000000000000000, 7.700000000000040146 ) ) ;
#285 = CARTESIAN_POINT ( 'NONE',  ( 0.000000000000000000, 0.000000000000000000, 657.0000000000000000 ) ) ;
#286 = TOROIDAL_SURFACE ( 'NONE', #59, 7.700000000000001066, 0.6999999999999999556 ) ;
#287 = ADVANCED_FACE ( 'NONE', ( #295 ), #43, .T. ) ;
#288 = CARTESIAN_POINT ( 'NONE',  ( 0.000000000000000000, 0.000000000000000000, 0.000000000000000000 ) ) ;
#289 = DIRECTION ( 'NONE',  ( -0.000000000000000000, -0.000000000000000000, -1.000000000000000000 ) ) ;
#290 = DIRECTION ( 'NONE',  ( -0.000000000000000000, -0.000000000000000000, -1.000000000000000000 ) ) ;
#291 = ORIENTED_EDGE ( 'NONE', *, *, #264, .F. ) ;
#292 = EDGE_CURVE ( 'NONE', #307, #66, #18, .T. ) ;
#293 = DIRECTION ( 'NONE',  ( 0.000000000000000000, 0.000000000000000000, 1.000000000000000000 ) ) ;
#294 = ORIENTED_EDGE ( 'NONE', *, *, #377, .T. ) ;
#295 = FACE_OUTER_BOUND ( 'NONE', #138, .T. ) ;
#296 = DIRECTION ( 'NONE',  ( 0.000000000000000000, 0.000000000000000000, 1.000000000000000000 ) ) ;
#297 = APPLICATION_CONTEXT ( 'configuration controlled 3d designs of mechanical parts and assemblies' ) ;
#298 = APPROVAL_PERSON_ORGANIZATION ( #222, #331, #107 ) ;
#299 = CARTESIAN_POINT ( 'NONE',  ( 0.000000000000000000, 0.000000000000000000, 7.000000000000000000 ) ) ;
#300 = ORIENTED_EDGE ( 'NONE', *, *, #7, .T. ) ;
#301 = FACE_OUTER_BOUND ( 'NONE', #213, .T. ) ;
#302 = ORIENTED_EDGE ( 'NONE', *, *, #145, .F. ) ;
#303 = ADVANCED_FACE ( 'NONE', ( #301 ), #127, .F. ) ;
#304 = CIRCLE ( 'NONE', #352, 11.00000000000000000 ) ;
#305 = CALENDAR_DATE ( 2022, 8, 7 ) ;
#306 = AXIS2_PLACEMENT_3D ( 'NONE', #285, #199, #92 ) ;
#307 = VERTEX_POINT ( 'NONE', #178 ) ;
#308 = CC_DESIGN_PERSON_AND_ORGANIZATION_ASSIGNMENT ( #109, #160, ( #100 ) ) ;
#309 = DATE_AND_TIME ( #376, #261 ) ;
#310 = DIRECTION ( 'NONE',  ( 1.000000000000000000, 0.000000000000000000, 0.000000000000000000 ) ) ;
#311 = COORDINATED_UNIVERSAL_TIME_OFFSET ( 1, 0, .AHEAD. ) ;
#312 = CARTESIAN_POINT ( 'NONE',  ( 0.000000000000000000, 0.000000000000000000, 7.000000000000000000 ) ) ;
#313 = CC_DESIGN_APPROVAL ( #22, ( #100 ) ) ;
#314 = MANIFOLD_SOLID_BREP ( 'Odebrat vysunutím3', #38 ) ;
#315 = SHAPE_DEFINITION_REPRESENTATION ( #176, #73 ) ;
#316 = DIRECTION ( 'NONE',  ( -0.000000000000000000, -0.000000000000000000, -1.000000000000000000 ) ) ;
#317 = ADVANCED_FACE ( 'NONE', ( #181 ), #286, .F. ) ;
#318 = FACE_BOUND ( 'NONE', #159, .T. ) ;
#319 = SECURITY_CLASSIFICATION ( '', '', #219 ) ;
#320 = APPLICATION_CONTEXT ( 'configuration controlled 3d designs of mechanical parts and assemblies' ) ;
#321 = CYLINDRICAL_SURFACE ( 'NONE', #247, 7.000000000000000888 ) ;
#322 = EDGE_CURVE ( 'NONE', #44, #339, #373, .T. ) ;
#323 = LINE ( 'NONE', #172, #70 ) ;
#324 = EDGE_LOOP ( 'NONE', ( #274, #9, #36, #291 ) ) ;
#325 = CARTESIAN_POINT ( 'NONE',  ( 11.00000000000000000, 1.347111479062088405E-15, 7.000000000000000000 ) ) ;
#326 = AXIS2_PLACEMENT_3D ( 'NONE', #206, #68, #180 ) ;
#327 = ORIENTED_EDGE ( 'NONE', *, *, #203, .T. ) ;
#328 = DESIGN_CONTEXT ( 'detailed design', #320, 'design' ) ;
#329 = PLANE ( 'NONE',  #140 ) ;
#330 = ORIENTED_EDGE ( 'NONE', *, *, #322, .F. ) ;
#331 = APPROVAL ( #253, 'NEURÈENÝ' ) ;
#332 = CARTESIAN_POINT ( 'NONE',  ( 0.000000000000000000, 0.000000000000000000, 657.0000000000000000 ) ) ;
#333 = ORIENTED_EDGE ( 'NONE', *, *, #67, .F. ) ;
#334 = CIRCLE ( 'NONE', #17, 11.00000000000000000 ) ;
#335 = AXIS2_PLACEMENT_3D ( 'NONE', #13, #241, #361 ) ;
#336 = DIRECTION ( 'NONE',  ( 1.000000000000000000, 0.000000000000000000, 0.000000000000000000 ) ) ;
#337 = PRODUCT ( '87e7', '87e7', '', ( #23 ) ) ;
#338 = ORIENTED_EDGE ( 'NONE', *, *, #41, .T. ) ;
#339 = VERTEX_POINT ( 'NONE', #45 ) ;
#340 = APPLICATION_PROTOCOL_DEFINITION ( 'international standard', 'config_control_design', 1994, #320 ) ;
#341 = ORIENTED_EDGE ( 'NONE', *, *, #150, .F. ) ;
#342 = VECTOR ( 'NONE', #62, 1000.000000000000000 ) ;
#343 = DATE_TIME_ROLE ( 'classification_date' ) ;
#344 = DIRECTION ( 'NONE',  ( 1.000000000000000000, 0.000000000000000000, 0.000000000000000000 ) ) ;
#345 = CALENDAR_DATE ( 2022, 8, 7 ) ;
#346 = APPROVAL_ROLE ( '' ) ;
#347 = DIRECTION ( 'NONE',  ( -1.000000000000000000, 1.224646799147351975E-16, 0.000000000000000000 ) ) ;
#348 = COORDINATED_UNIVERSAL_TIME_OFFSET ( 1, 0, .AHEAD. ) ;
#349 = CIRCLE ( 'NONE', #216, 5.000000000000000000 ) ;
#350 = DIRECTION ( 'NONE',  ( 0.000000000000000000, 0.000000000000000000, -1.000000000000000000 ) ) ;
#351 = DIRECTION ( 'NONE',  ( 0.000000000000000000, 0.000000000000000000, 1.000000000000000000 ) ) ;
#352 = AXIS2_PLACEMENT_3D ( 'NONE', #312, #187, #28 ) ;
#353 = ORIENTED_EDGE ( 'NONE', *, *, #60, .F. ) ;
#354 = LINE ( 'NONE', #325, #365 ) ;
#355 = CYLINDRICAL_SURFACE ( 'NONE', #169, 11.00000000000000000 ) ;
#356 = DIRECTION ( 'NONE',  ( 1.000000000000000000, 0.000000000000000000, 0.000000000000000000 ) ) ;
#357 = CIRCLE ( 'NONE', #184, 0.7000000000000000666 ) ;
#358 = CARTESIAN_POINT ( 'NONE',  ( -7.700000000000001066, 9.429780353434621002E-16, 7.000000000000020428 ) ) ;
#359 = ORIENTED_EDGE ( 'NONE', *, *, #150, .T. ) ;
#360 = CC_DESIGN_DATE_AND_TIME_ASSIGNMENT ( #309, #188, ( #221 ) ) ;
#361 = DIRECTION ( 'NONE',  ( 1.000000000000000000, 0.000000000000000000, 0.000000000000000000 ) ) ;
#362 = CARTESIAN_POINT ( 'NONE',  ( 0.000000000000000000, 0.000000000000000000, 0.000000000000000000 ) ) ;
#363 = VERTEX_POINT ( 'NONE', #269 ) ;
#364 = VECTOR ( 'NONE', #372, 1000.000000000000000 ) ;
#365 = VECTOR ( 'NONE', #112, 1000.000000000000000 ) ;
#366 = ADVANCED_FACE ( 'NONE', ( #16 ), #123, .F. ) ;
#367 = DIRECTION ( 'NONE',  ( 1.000000000000000000, 0.000000000000000000, 0.000000000000000000 ) ) ;
#368 = EDGE_LOOP ( 'NONE', ( #353, #5 ) ) ;
#369 =( LENGTH_UNIT ( ) NAMED_UNIT ( * ) SI_UNIT ( .MILLI., .METRE. ) );
#370 = VERTEX_POINT ( 'NONE', #271 ) ;
#371 = APPROVAL_ROLE ( '' ) ;
#372 = DIRECTION ( 'NONE',  ( -0.000000000000000000, -0.000000000000000000, -1.000000000000000000 ) ) ;
#373 = CIRCLE ( 'NONE', #162, 7.000000000000000888 ) ;
#374 = VERTEX_POINT ( 'NONE', #210 ) ;
#375 = PERSON_AND_ORGANIZATION ( #189, #208 ) ;
#376 = CALENDAR_DATE ( 2022, 8, 7 ) ;
#377 = EDGE_CURVE ( 'NONE', #42, #246, #94, .T. ) ;
#378 = CIRCLE ( 'NONE', #255, 11.00000000000000000 ) ;
#379 = CARTESIAN_POINT ( 'NONE',  ( -7.000000000000000888, 0.000000000000000000, 7.700000000000040146 ) ) ;
#380 =( GEOMETRIC_REPRESENTATION_CONTEXT ( 3 ) GLOBAL_UNCERTAINTY_ASSIGNED_CONTEXT ( ( #134 ) ) GLOBAL_UNIT_ASSIGNED_CONTEXT ( ( #369, #64, #101 ) ) REPRESENTATION_CONTEXT ( 'NONE', 'WORKASPACE' ) );
#381 = PLANE ( 'NONE',  #117 ) ;
ENDSEC;
END-ISO-10303-21;
