ISO-10303-21;
HEADER;
FILE_DESCRIPTION (( 'STEP AP203' ),
    '1' );
FILE_NAME ('5bcc.STEP',
    '2022-07-08T15:52:52',
    ( '' ),
    ( '' ),
    'SwSTEP 2.0',
    'SolidWorks 2019',
    '' );
FILE_SCHEMA (( 'CONFIG_CONTROL_DESIGN' ));
ENDSEC;

DATA;
#1 = ORIENTED_EDGE ( 'NONE', *, *, #372, .T. ) ;
#2 = AXIS2_PLACEMENT_3D ( 'NONE', #204, #228, #227 ) ;
#3 = LOCAL_TIME ( 17, 52, 52.00000000000000000, #330 ) ;
#4 = CC_DESIGN_PERSON_AND_ORGANIZATION_ASSIGNMENT ( #220, #241, ( #356 ) ) ;
#5 = APPROVAL_ROLE ( '' ) ;
#6 = ORIENTED_EDGE ( 'NONE', *, *, #55, .T. ) ;
#7 = VERTEX_POINT ( 'NONE', #249 ) ;
#8 = EDGE_CURVE ( 'NONE', #155, #65, #245, .T. ) ;
#9 = DIRECTION ( 'NONE',  ( -1.000000000000000000, 0.000000000000000000, 0.000000000000000000 ) ) ;
#10 = ORIENTED_EDGE ( 'NONE', *, *, #73, .F. ) ;
#11 = APPROVAL ( #237, 'NEURÈENÝ' ) ;
#12 = DATE_TIME_ROLE ( 'creation_date' ) ;
#13 = SECURITY_CLASSIFICATION ( '', '', #271 ) ;
#14 = CARTESIAN_POINT ( 'NONE',  ( -5.000000000000000000, 0.000000000000000000, 3.000000000000000000 ) ) ;
#15 = APPROVAL_DATE_TIME ( #358, #104 ) ;
#16 = CARTESIAN_POINT ( 'NONE',  ( 0.000000000000000000, 0.000000000000000000, 0.000000000000000000 ) ) ;
#17 = PERSON_AND_ORGANIZATION ( #138, #312 ) ;
#18 = CARTESIAN_POINT ( 'NONE',  ( -1.000000000000000000, 0.000000000000000000, 178.0000000000000000 ) ) ;
#19 = CC_DESIGN_DATE_AND_TIME_ASSIGNMENT ( #302, #12, ( #82 ) ) ;
#20 = DIRECTION ( 'NONE',  ( 1.000000000000000000, 0.000000000000000000, 0.000000000000000000 ) ) ;
#21 = ORIENTED_EDGE ( 'NONE', *, *, #372, .F. ) ;
#22 = CARTESIAN_POINT ( 'NONE',  ( 2.500000000000000000, 3.061616997868383141E-16, 178.0000000000000000 ) ) ;
#23 = EDGE_CURVE ( 'NONE', #37, #155, #38, .T. ) ;
#24 = FACE_OUTER_BOUND ( 'NONE', #258, .T. ) ;
#25 = CIRCLE ( 'NONE', #70, 2.799999999999999822 ) ;
#26 = CC_DESIGN_SECURITY_CLASSIFICATION ( #13, ( #356 ) ) ;
#27 = DIRECTION ( 'NONE',  ( -1.000000000000000000, 0.000000000000000000, 0.000000000000000000 ) ) ;
#28 = CC_DESIGN_PERSON_AND_ORGANIZATION_ASSIGNMENT ( #294, #153, ( #280 ) ) ;
#29 = DIRECTION ( 'NONE',  ( 1.224646799147353207E-16, 1.000000000000000000, -0.000000000000000000 ) ) ;
#30 = CC_DESIGN_PERSON_AND_ORGANIZATION_ASSIGNMENT ( #48, #80, ( #13 ) ) ;
#31 = DIRECTION ( 'NONE',  ( 1.000000000000000000, 0.000000000000000000, 0.000000000000000000 ) ) ;
#32 = ORIENTED_EDGE ( 'NONE', *, *, #8, .T. ) ;
#33 = LINE ( 'NONE', #289, #124 ) ;
#34 = VERTEX_POINT ( 'NONE', #14 ) ;
#35 = CC_DESIGN_DATE_AND_TIME_ASSIGNMENT ( #170, #247, ( #13 ) ) ;
#36 = FACE_OUTER_BOUND ( 'NONE', #67, .T. ) ;
#37 = VERTEX_POINT ( 'NONE', #333 ) ;
#38 = CIRCLE ( 'NONE', #118, 2.500000000000000000 ) ;
#39 = AXIS2_PLACEMENT_3D ( 'NONE', #131, #211, #31 ) ;
#40 = CARTESIAN_POINT ( 'NONE',  ( 0.000000000000000000, 0.000000000000000000, 3.299999999999997158 ) ) ;
#41 = ORIENTED_EDGE ( 'NONE', *, *, #128, .T. ) ;
#42 = ORIENTED_EDGE ( 'NONE', *, *, #184, .F. ) ;
#43 = EDGE_CURVE ( 'NONE', #94, #301, #51, .T. ) ;
#44 = COORDINATED_UNIVERSAL_TIME_OFFSET ( 1, 0, .AHEAD. ) ;
#45 = LINE ( 'NONE', #137, #224 ) ;
#46 = CARTESIAN_POINT ( 'NONE',  ( 2.500000000000000000, 3.061616997868383141E-16, 3.299999999999997158 ) ) ;
#47 = DIRECTION ( 'NONE',  ( 0.000000000000000000, 0.000000000000000000, -1.000000000000000000 ) ) ;
#48 = PERSON_AND_ORGANIZATION ( #138, #312 ) ;
#49 = EDGE_LOOP ( 'NONE', ( #381, #141, #292, #196 ) ) ;
#50 = COORDINATED_UNIVERSAL_TIME_OFFSET ( 1, 0, .AHEAD. ) ;
#51 = LINE ( 'NONE', #367, #56 ) ;
#52 = LOCAL_TIME ( 17, 52, 52.00000000000000000, #278 ) ;
#53 = CYLINDRICAL_SURFACE ( 'NONE', #343, 1.000000000000000000 ) ;
#54 = DIRECTION ( 'NONE',  ( -0.000000000000000000, -0.000000000000000000, -1.000000000000000000 ) ) ;
#55 = EDGE_CURVE ( 'NONE', #127, #207, #154, .T. ) ;
#56 = VECTOR ( 'NONE', #79, 1000.000000000000000 ) ;
#57 = FACE_OUTER_BOUND ( 'NONE', #239, .T. ) ;
#58 = CIRCLE ( 'NONE', #163, 0.2999999999999999334 ) ;
#59 = ADVANCED_FACE ( 'NONE', ( #107, #306 ), #337, .F. ) ;
#60 = CARTESIAN_POINT ( 'NONE',  ( 5.000000000000000000, 6.123233995736766282E-16, 3.000000000000000000 ) ) ;
#61 = FACE_OUTER_BOUND ( 'NONE', #322, .T. ) ;
#62 = CARTESIAN_POINT ( 'NONE',  ( 2.799999999999999822, 0.000000000000000000, 2.999999999999998668 ) ) ;
#63 = CIRCLE ( 'NONE', #368, 1.000000000000000000 ) ;
#64 = CIRCLE ( 'NONE', #379, 0.2999999999999999334 ) ;
#65 = VERTEX_POINT ( 'NONE', #46 ) ;
#66 = DIRECTION ( 'NONE',  ( 1.000000000000000000, 0.000000000000000000, 0.000000000000000000 ) ) ;
#67 = EDGE_LOOP ( 'NONE', ( #160, #326, #263, #42 ) ) ;
#68 = DIRECTION ( 'NONE',  ( -0.000000000000000000, -0.000000000000000000, -1.000000000000000000 ) ) ;
#69 = ORIENTED_EDGE ( 'NONE', *, *, #43, .T. ) ;
#70 = AXIS2_PLACEMENT_3D ( 'NONE', #121, #373, #226 ) ;
#71 = AXIS2_PLACEMENT_3D ( 'NONE', #253, #342, #87 ) ;
#72 = EDGE_CURVE ( 'NONE', #357, #236, #229, .T. ) ;
#73 = EDGE_CURVE ( 'NONE', #152, #238, #311, .T. ) ;
#74 = EDGE_LOOP ( 'NONE', ( #101, #351, #324, #1 ) ) ;
#75 = ORIENTED_EDGE ( 'NONE', *, *, #231, .T. ) ;
#76 = DIRECTION ( 'NONE',  ( 1.000000000000000000, 0.000000000000000000, 0.000000000000000000 ) ) ;
#77 = CALENDAR_DATE ( 2022, 8, 7 ) ;
#78 = CARTESIAN_POINT ( 'NONE',  ( 0.000000000000000000, 0.000000000000000000, 3.000000000000000000 ) ) ;
#79 = DIRECTION ( 'NONE',  ( 0.000000000000000000, 0.000000000000000000, -1.000000000000000000 ) ) ;
#80 = PERSON_AND_ORGANIZATION_ROLE ( 'classification_officer' ) ;
#81 = DIRECTION ( 'NONE',  ( 1.000000000000000000, 0.000000000000000000, 0.000000000000000000 ) ) ;
#82 = PRODUCT_DEFINITION ( 'NEZNÁMÝ', '', #356, #255 ) ;
#83 = CARTESIAN_POINT ( 'NONE',  ( 0.000000000000000000, 0.000000000000000000, 178.0000000000000000 ) ) ;
#84 = AXIS2_PLACEMENT_3D ( 'NONE', #369, #286, #86 ) ;
#85 = CARTESIAN_POINT ( 'NONE',  ( -2.799999999999999822, 3.429011037612589276E-16, 2.999999999999998668 ) ) ;
#86 = DIRECTION ( 'NONE',  ( 1.000000000000000000, 0.000000000000000000, 0.000000000000000000 ) ) ;
#87 = DIRECTION ( 'NONE',  ( 1.000000000000000000, 0.000000000000000000, 0.000000000000000000 ) ) ;
#88 = DIRECTION ( 'NONE',  ( 0.000000000000000000, 0.000000000000000000, -1.000000000000000000 ) ) ;
#89 = CYLINDRICAL_SURFACE ( 'NONE', #215, 5.000000000000000000 ) ;
#90 = ADVANCED_FACE ( 'NONE', ( #105 ), #279, .F. ) ;
#91 = CARTESIAN_POINT ( 'NONE',  ( 0.000000000000000000, 0.000000000000000000, 0.000000000000000000 ) ) ;
#92 = ORIENTED_EDGE ( 'NONE', *, *, #126, .T. ) ;
#93 = CIRCLE ( 'NONE', #165, 2.500000000000000000 ) ;
#94 = VERTEX_POINT ( 'NONE', #18 ) ;
#95 = FACE_OUTER_BOUND ( 'NONE', #132, .T. ) ;
#96 = ORIENTED_EDGE ( 'NONE', *, *, #293, .F. ) ;
#97 = AXIS2_PLACEMENT_3D ( 'NONE', #169, #272, #303 ) ;
#98 = ORIENTED_EDGE ( 'NONE', *, *, #334, .F. ) ;
#99 = CC_DESIGN_PERSON_AND_ORGANIZATION_ASSIGNMENT ( #266, #139, ( #82 ) ) ;
#100 = AXIS2_PLACEMENT_3D ( 'NONE', #315, #177, #199 ) ;
#101 = ORIENTED_EDGE ( 'NONE', *, *, #296, .F. ) ;
#102 = ORIENTED_EDGE ( 'NONE', *, *, #110, .F. ) ;
#103 = CALENDAR_DATE ( 2022, 8, 7 ) ;
#104 = APPROVAL ( #218, 'NEURÈENÝ' ) ;
#105 = FACE_OUTER_BOUND ( 'NONE', #295, .T. ) ;
#106 = CIRCLE ( 'NONE', #156, 1.000000000000000000 ) ;
#107 = FACE_BOUND ( 'NONE', #189, .T. ) ;
#108 = PERSON_AND_ORGANIZATION ( #138, #312 ) ;
#109 = DIRECTION ( 'NONE',  ( 0.000000000000000000, 0.000000000000000000, 1.000000000000000000 ) ) ;
#110 = EDGE_CURVE ( 'NONE', #238, #301, #250, .T. ) ;
#111 = CARTESIAN_POINT ( 'NONE',  ( 0.000000000000000000, 0.000000000000000000, 0.000000000000000000 ) ) ;
#112 = PRODUCT_DEFINITION_SHAPE ( 'NONE', 'NONE',  #82 ) ;
#113 = CARTESIAN_POINT ( 'NONE',  ( 2.799999999999999822, 0.000000000000000000, 3.299999999999997158 ) ) ;
#114 = LOCAL_TIME ( 17, 52, 52.00000000000000000, #50 ) ;
#115 = CYLINDRICAL_SURFACE ( 'NONE', #2, 5.000000000000000000 ) ;
#116 = PLANE ( 'NONE',  #176 ) ;
#117 = EDGE_CURVE ( 'NONE', #34, #207, #45, .T. ) ;
#118 = AXIS2_PLACEMENT_3D ( 'NONE', #366, #242, #359 ) ;
#119 = DIRECTION ( 'NONE',  ( -1.000000000000000000, 0.000000000000000000, 0.000000000000000000 ) ) ;
#120 = AXIS2_PLACEMENT_3D ( 'NONE', #281, #314, #145 ) ;
#121 = CARTESIAN_POINT ( 'NONE',  ( 0.000000000000000000, 0.000000000000000000, 3.000000000000000000 ) ) ;
#122 = ORIENTED_EDGE ( 'NONE', *, *, #222, .F. ) ;
#123 = ORIENTED_EDGE ( 'NONE', *, *, #364, .T. ) ;
#124 = VECTOR ( 'NONE', #68, 1000.000000000000000 ) ;
#125 = CALENDAR_DATE ( 2022, 8, 7 ) ;
#126 = EDGE_CURVE ( 'NONE', #301, #238, #63, .T. ) ;
#127 = VERTEX_POINT ( 'NONE', #140 ) ;
#128 = EDGE_CURVE ( 'NONE', #34, #219, #268, .T. ) ;
#129 = CARTESIAN_POINT ( 'NONE',  ( 0.000000000000000000, 0.000000000000000000, 0.000000000000000000 ) ) ;
#130 = EDGE_LOOP ( 'NONE', ( #150, #214 ) ) ;
#131 = CARTESIAN_POINT ( 'NONE',  ( 0.000000000000000000, 0.000000000000000000, 3.299999999999997158 ) ) ;
#132 = EDGE_LOOP ( 'NONE', ( #96, #32, #123, #98 ) ) ;
#133 = AXIS2_PLACEMENT_3D ( 'NONE', #354, #235, #151 ) ;
#134 = CC_DESIGN_PERSON_AND_ORGANIZATION_ASSIGNMENT ( #108, #360, ( #356 ) ) ;
#135 = DATE_AND_TIME ( #77, #3 ) ;
#136 = EDGE_CURVE ( 'NONE', #7, #236, #58, .T. ) ;
#137 = CARTESIAN_POINT ( 'NONE',  ( -5.000000000000000000, 0.000000000000000000, 3.000000000000000000 ) ) ;
#138 = PERSON ( 'NEURÈENÝ', 'NEURÈENÝ', 'NEURÈENÝ', ('NEURÈENÝ'), ('NEURÈENÝ'), ('NEURÈENÝ') ) ;
#139 = PERSON_AND_ORGANIZATION_ROLE ( 'creator' ) ;
#140 = CARTESIAN_POINT ( 'NONE',  ( 5.000000000000000000, 6.123233995736766282E-16, 0.000000000000000000 ) ) ;
#141 = ORIENTED_EDGE ( 'NONE', *, *, #23, .F. ) ;
#142 = DIRECTION ( 'NONE',  ( 1.000000000000000000, 0.000000000000000000, -0.000000000000000000 ) ) ;
#143 = FACE_OUTER_BOUND ( 'NONE', #232, .T. ) ;
#144 = CC_DESIGN_APPROVAL ( #11, ( #82 ) ) ;
#145 = DIRECTION ( 'NONE',  ( 1.000000000000000000, 0.000000000000000000, -0.000000000000000000 ) ) ;
#146 = FACE_OUTER_BOUND ( 'NONE', #270, .T. ) ;
#147 = AXIS2_PLACEMENT_3D ( 'NONE', #16, #244, #194 ) ;
#148 = CARTESIAN_POINT ( 'NONE',  ( 1.000000000000000000, 1.224646799147353207E-16, 0.000000000000000000 ) ) ;
#149 = DIRECTION ( 'NONE',  ( -1.000000000000000000, 0.000000000000000000, 0.000000000000000000 ) ) ;
#150 = ORIENTED_EDGE ( 'NONE', *, *, #72, .T. ) ;
#151 = DIRECTION ( 'NONE',  ( 1.000000000000000000, 0.000000000000000000, 0.000000000000000000 ) ) ;
#152 = VERTEX_POINT ( 'NONE', #256 ) ;
#153 = PERSON_AND_ORGANIZATION_ROLE ( 'design_owner' ) ;
#154 = CIRCLE ( 'NONE', #287, 5.000000000000000000 ) ;
#155 = VERTEX_POINT ( 'NONE', #22 ) ;
#156 = AXIS2_PLACEMENT_3D ( 'NONE', #83, #345, #340 ) ;
#157 =( LENGTH_UNIT ( ) NAMED_UNIT ( * ) SI_UNIT ( .MILLI., .METRE. ) );
#158 = ORIENTED_EDGE ( 'NONE', *, *, #262, .F. ) ;
#159 = CARTESIAN_POINT ( 'NONE',  ( -1.000000000000000000, 0.000000000000000000, 0.000000000000000000 ) ) ;
#160 = ORIENTED_EDGE ( 'NONE', *, *, #136, .F. ) ;
#161 = AXIS2_PLACEMENT_3D ( 'NONE', #248, #109, #221 ) ;
#162 = DIRECTION ( 'NONE',  ( -0.000000000000000000, -0.000000000000000000, -1.000000000000000000 ) ) ;
#163 = AXIS2_PLACEMENT_3D ( 'NONE', #198, #29, #254 ) ;
#164 = ADVANCED_FACE ( 'NONE', ( #143 ), #53, .F. ) ;
#165 = AXIS2_PLACEMENT_3D ( 'NONE', #40, #187, #347 ) ;
#166 = CALENDAR_DATE ( 2022, 8, 7 ) ;
#167 = DIRECTION ( 'NONE',  ( 0.000000000000000000, 0.000000000000000000, -1.000000000000000000 ) ) ;
#168 = ADVANCED_FACE ( 'NONE', ( #230, #24 ), #116, .T. ) ;
#169 = CARTESIAN_POINT ( 'NONE',  ( 0.000000000000000000, 0.000000000000000000, 0.000000000000000000 ) ) ;
#170 = DATE_AND_TIME ( #103, #344 ) ;
#171 = CARTESIAN_POINT ( 'NONE',  ( 0.000000000000000000, 0.000000000000000000, 0.000000000000000000 ) ) ;
#172 = AXIS2_PLACEMENT_3D ( 'NONE', #361, #47, #191 ) ;
#173 = ORIENTED_EDGE ( 'NONE', *, *, #43, .F. ) ;
#174 = FACE_BOUND ( 'NONE', #290, .T. ) ;
#175 = DIRECTION ( 'NONE',  ( 0.000000000000000000, 0.000000000000000000, -1.000000000000000000 ) ) ;
#176 = AXIS2_PLACEMENT_3D ( 'NONE', #252, #339, #142 ) ;
#177 = DIRECTION ( 'NONE',  ( 0.000000000000000000, 0.000000000000000000, 1.000000000000000000 ) ) ;
#178 = DIRECTION ( 'NONE',  ( -0.000000000000000000, -0.000000000000000000, -1.000000000000000000 ) ) ;
#179 = UNCERTAINTY_MEASURE_WITH_UNIT (LENGTH_MEASURE( 1.000000000000000082E-05 ), #157, 'distance_accuracy_value', 'NONE');
#180 = DIRECTION ( 'NONE',  ( 1.000000000000000000, 0.000000000000000000, 0.000000000000000000 ) ) ;
#181 = VECTOR ( 'NONE', #167, 1000.000000000000000 ) ;
#182 = DIRECTION ( 'NONE',  ( 0.000000000000000000, 0.000000000000000000, 1.000000000000000000 ) ) ;
#183 = ORIENTED_EDGE ( 'NONE', *, *, #126, .F. ) ;
#184 = EDGE_CURVE ( 'NONE', #236, #357, #25, .T. ) ;
#185 = DIRECTION ( 'NONE',  ( -0.000000000000000000, -0.000000000000000000, -1.000000000000000000 ) ) ;
#186 = ORIENTED_EDGE ( 'NONE', *, *, #55, .F. ) ;
#187 = DIRECTION ( 'NONE',  ( 0.000000000000000000, 0.000000000000000000, 1.000000000000000000 ) ) ;
#188 = ADVANCED_FACE ( 'NONE', ( #61 ), #115, .T. ) ;
#189 = EDGE_LOOP ( 'NONE', ( #183, #102 ) ) ;
#190 = CALENDAR_DATE ( 2022, 8, 7 ) ;
#191 = DIRECTION ( 'NONE',  ( -1.000000000000000000, 0.000000000000000000, 0.000000000000000000 ) ) ;
#192 = ORIENTED_EDGE ( 'NONE', *, *, #73, .T. ) ;
#193 = CC_DESIGN_APPROVAL ( #104, ( #13 ) ) ;
#194 = DIRECTION ( 'NONE',  ( 1.000000000000000000, 0.000000000000000000, -0.000000000000000000 ) ) ;
#195 = ADVANCED_FACE ( 'NONE', ( #146 ), #378, .F. ) ;
#196 = ORIENTED_EDGE ( 'NONE', *, *, #308, .T. ) ;
#197 = APPROVAL_ROLE ( '' ) ;
#198 = CARTESIAN_POINT ( 'NONE',  ( -2.799999999999999822, 3.429011037612588783E-16, 3.299999999999997158 ) ) ;
#199 = DIRECTION ( 'NONE',  ( 1.000000000000000000, 0.000000000000000000, 0.000000000000000000 ) ) ;
#200 = PLANE ( 'NONE',  #120 ) ;
#201 = APPROVAL ( #305, 'NEURÈENÝ' ) ;
#202 = CARTESIAN_POINT ( 'NONE',  ( -5.000000000000000000, 0.000000000000000000, 0.000000000000000000 ) ) ;
#203 = LINE ( 'NONE', #60, #288 ) ;
#204 = CARTESIAN_POINT ( 'NONE',  ( 0.000000000000000000, 0.000000000000000000, 3.000000000000000000 ) ) ;
#205 = CARTESIAN_POINT ( 'NONE',  ( 0.000000000000000000, 0.000000000000000000, 3.000000000000000000 ) ) ;
#206 = MECHANICAL_CONTEXT ( 'NONE', #332, 'mechanical' ) ;
#207 = VERTEX_POINT ( 'NONE', #202 ) ;
#208 = CC_DESIGN_APPROVAL ( #201, ( #356 ) ) ;
#209 = FACE_OUTER_BOUND ( 'NONE', #74, .T. ) ;
#210 = ORIENTED_EDGE ( 'NONE', *, *, #222, .T. ) ;
#211 = DIRECTION ( 'NONE',  ( 0.000000000000000000, 0.000000000000000000, 1.000000000000000000 ) ) ;
#212 = ORIENTED_EDGE ( 'NONE', *, *, #23, .T. ) ;
#213 = COORDINATED_UNIVERSAL_TIME_OFFSET ( 1, 0, .AHEAD. ) ;
#214 = ORIENTED_EDGE ( 'NONE', *, *, #184, .T. ) ;
#215 = AXIS2_PLACEMENT_3D ( 'NONE', #205, #321, #9 ) ;
#216 = ORIENTED_EDGE ( 'NONE', *, *, #110, .T. ) ;
#217 = DIRECTION ( 'NONE',  ( -0.000000000000000000, -0.000000000000000000, -1.000000000000000000 ) ) ;
#218 = APPROVAL_STATUS ( 'not_yet_approved' ) ;
#219 = VERTEX_POINT ( 'NONE', #375 ) ;
#220 = PERSON_AND_ORGANIZATION ( #138, #312 ) ;
#221 = DIRECTION ( 'NONE',  ( 1.000000000000000000, 0.000000000000000000, 0.000000000000000000 ) ) ;
#222 = EDGE_CURVE ( 'NONE', #152, #94, #106, .T. ) ;
#223 = DIRECTION ( 'NONE',  ( 0.000000000000000000, 0.000000000000000000, 1.000000000000000000 ) ) ;
#224 = VECTOR ( 'NONE', #162, 1000.000000000000000 ) ;
#225 = CIRCLE ( 'NONE', #328, 5.000000000000000000 ) ;
#226 = DIRECTION ( 'NONE',  ( 1.000000000000000000, 0.000000000000000000, 0.000000000000000000 ) ) ;
#227 = DIRECTION ( 'NONE',  ( -1.000000000000000000, 0.000000000000000000, 0.000000000000000000 ) ) ;
#228 = DIRECTION ( 'NONE',  ( -0.000000000000000000, -0.000000000000000000, -1.000000000000000000 ) ) ;
#229 = CIRCLE ( 'NONE', #362, 2.799999999999999822 ) ;
#230 = FACE_BOUND ( 'NONE', #130, .T. ) ;
#231 = EDGE_CURVE ( 'NONE', #94, #152, #370, .T. ) ;
#232 = EDGE_LOOP ( 'NONE', ( #75, #192, #216, #173 ) ) ;
#233 = CIRCLE ( 'NONE', #39, 2.500000000000000000 ) ;
#234 = ADVANCED_BREP_SHAPE_REPRESENTATION ( '5bcc', ( #260, #307 ), #336 ) ;
#235 = DIRECTION ( 'NONE',  ( 0.000000000000000000, 0.000000000000000000, 1.000000000000000000 ) ) ;
#236 = VERTEX_POINT ( 'NONE', #85 ) ;
#237 = APPROVAL_STATUS ( 'not_yet_approved' ) ;
#238 = VERTEX_POINT ( 'NONE', #148 ) ;
#239 = EDGE_LOOP ( 'NONE', ( #212, #265 ) ) ;
#240 = TOROIDAL_SURFACE ( 'NONE', #133, 2.799999999999999822, 0.2999999999999999889 ) ;
#241 = PERSON_AND_ORGANIZATION_ROLE ( 'creator' ) ;
#242 = DIRECTION ( 'NONE',  ( 0.000000000000000000, 0.000000000000000000, 1.000000000000000000 ) ) ;
#243 = ADVANCED_FACE ( 'NONE', ( #284 ), #374, .T. ) ;
#244 = DIRECTION ( 'NONE',  ( 0.000000000000000000, 0.000000000000000000, 1.000000000000000000 ) ) ;
#245 = LINE ( 'NONE', #276, #377 ) ;
#246 = AXIS2_PLACEMENT_3D ( 'NONE', #346, #185, #149 ) ;
#247 = DATE_TIME_ROLE ( 'classification_date' ) ;
#248 = CARTESIAN_POINT ( 'NONE',  ( 0.000000000000000000, 0.000000000000000000, 3.000000000000000000 ) ) ;
#249 = CARTESIAN_POINT ( 'NONE',  ( -2.500000000000000000, 0.000000000000000000, 3.299999999999997158 ) ) ;
#250 = CIRCLE ( 'NONE', #97, 1.000000000000000000 ) ;
#251 = LOCAL_TIME ( 17, 52, 52.00000000000000000, #213 ) ;
#252 = CARTESIAN_POINT ( 'NONE',  ( 0.000000000000000000, 0.000000000000000000, 3.000000000000000000 ) ) ;
#253 = CARTESIAN_POINT ( 'NONE',  ( 0.000000000000000000, 0.000000000000000000, 178.0000000000000000 ) ) ;
#254 = DIRECTION ( 'NONE',  ( -1.000000000000000000, 1.224646799147353207E-16, 0.000000000000000000 ) ) ;
#255 = DESIGN_CONTEXT ( 'detailed design', #309, 'design' ) ;
#256 = CARTESIAN_POINT ( 'NONE',  ( 1.000000000000000000, 1.224646799147353207E-16, 178.0000000000000000 ) ) ;
#257 = ORIENTED_EDGE ( 'NONE', *, *, #231, .F. ) ;
#258 = EDGE_LOOP ( 'NONE', ( #41, #331 ) ) ;
#259 = PERSON_AND_ORGANIZATION ( #138, #312 ) ;
#260 = MANIFOLD_SOLID_BREP ( 'Odebrat vysunutím3', #376 ) ;
#261 = AXIS2_PLACEMENT_3D ( 'NONE', #380, #318, #180 ) ;
#262 = EDGE_CURVE ( 'NONE', #65, #357, #64, .T. ) ;
#263 = ORIENTED_EDGE ( 'NONE', *, *, #262, .T. ) ;
#264 = APPLICATION_PROTOCOL_DEFINITION ( 'international standard', 'config_control_design', 1994, #309 ) ;
#265 = ORIENTED_EDGE ( 'NONE', *, *, #293, .T. ) ;
#266 = PERSON_AND_ORGANIZATION ( #138, #312 ) ;
#267 = ORIENTED_EDGE ( 'NONE', *, *, #296, .T. ) ;
#268 = CIRCLE ( 'NONE', #161, 5.000000000000000000 ) ;
#269 = APPROVAL_ROLE ( '' ) ;
#270 = EDGE_LOOP ( 'NONE', ( #348, #353, #355, #158 ) ) ;
#271 = SECURITY_CLASSIFICATION_LEVEL ( 'unclassified' ) ;
#272 = DIRECTION ( 'NONE',  ( -0.000000000000000000, -0.000000000000000000, -1.000000000000000000 ) ) ;
#273 = APPROVAL_DATE_TIME ( #135, #201 ) ;
#274 = DIRECTION ( 'NONE',  ( -0.000000000000000000, -0.000000000000000000, -1.000000000000000000 ) ) ;
#275 = SHAPE_DEFINITION_REPRESENTATION ( #112, #234 ) ;
#276 = CARTESIAN_POINT ( 'NONE',  ( 2.500000000000000000, 3.061616997868383141E-16, 178.0000000000000000 ) ) ;
#277 = EDGE_CURVE ( 'NONE', #219, #34, #365, .T. ) ;
#278 = COORDINATED_UNIVERSAL_TIME_OFFSET ( 1, 0, .AHEAD. ) ;
#279 = CYLINDRICAL_SURFACE ( 'NONE', #172, 1.000000000000000000 ) ;
#280 = PRODUCT ( '5bcc', '5bcc', '', ( #206 ) ) ;
#281 = CARTESIAN_POINT ( 'NONE',  ( 0.000000000000000000, 0.000000000000000000, 178.0000000000000000 ) ) ;
#282 = CARTESIAN_POINT ( 'NONE',  ( 0.000000000000000000, 0.000000000000000000, 178.0000000000000000 ) ) ;
#283 = AXIS2_PLACEMENT_3D ( 'NONE', #313, #54, #119 ) ;
#284 = FACE_OUTER_BOUND ( 'NONE', #49, .T. ) ;
#285 = ADVANCED_FACE ( 'NONE', ( #174, #57 ), #200, .T. ) ;
#286 = DIRECTION ( 'NONE',  ( 0.000000000000000000, 0.000000000000000000, 1.000000000000000000 ) ) ;
#287 = AXIS2_PLACEMENT_3D ( 'NONE', #111, #223, #76 ) ;
#288 = VECTOR ( 'NONE', #178, 1000.000000000000000 ) ;
#289 = CARTESIAN_POINT ( 'NONE',  ( -2.500000000000000000, 0.000000000000000000, 178.0000000000000000 ) ) ;
#290 = EDGE_LOOP ( 'NONE', ( #257, #122 ) ) ;
#291 = DIRECTION ( 'NONE',  ( 1.000000000000000000, 0.000000000000000000, 0.000000000000000000 ) ) ;
#292 = ORIENTED_EDGE ( 'NONE', *, *, #334, .T. ) ;
#293 = EDGE_CURVE ( 'NONE', #155, #37, #320, .T. ) ;
#294 = PERSON_AND_ORGANIZATION ( #138, #312 ) ;
#295 = EDGE_LOOP ( 'NONE', ( #10, #210, #69, #92 ) ) ;
#296 = EDGE_CURVE ( 'NONE', #219, #127, #203, .T. ) ;
#297 =( NAMED_UNIT ( * ) SI_UNIT ( $, .STERADIAN. ) SOLID_ANGLE_UNIT ( ) );
#298 = ORIENTED_EDGE ( 'NONE', *, *, #277, .F. ) ;
#299 = APPROVAL_PERSON_ORGANIZATION ( #259, #11, #5 ) ;
#300 = APPROVAL_DATE_TIME ( #327, #11 ) ;
#301 = VERTEX_POINT ( 'NONE', #159 ) ;
#302 = DATE_AND_TIME ( #166, #52 ) ;
#303 = DIRECTION ( 'NONE',  ( 1.000000000000000000, 0.000000000000000000, 0.000000000000000000 ) ) ;
#304 = ADVANCED_FACE ( 'NONE', ( #209 ), #89, .T. ) ;
#305 = APPROVAL_STATUS ( 'not_yet_approved' ) ;
#306 = FACE_OUTER_BOUND ( 'NONE', #310, .T. ) ;
#307 = AXIS2_PLACEMENT_3D ( 'NONE', #129, #182, #291 ) ;
#308 = EDGE_CURVE ( 'NONE', #7, #65, #233, .T. ) ;
#309 = APPLICATION_CONTEXT ( 'configuration controlled 3d designs of mechanical parts and assemblies' ) ;
#310 = EDGE_LOOP ( 'NONE', ( #21, #186 ) ) ;
#311 = LINE ( 'NONE', #338, #181 ) ;
#312 = ORGANIZATION ( 'NEURÈENÝ', 'NEURÈENÝ', '' ) ;
#313 = CARTESIAN_POINT ( 'NONE',  ( 0.000000000000000000, 0.000000000000000000, 178.0000000000000000 ) ) ;
#314 = DIRECTION ( 'NONE',  ( 0.000000000000000000, 0.000000000000000000, 1.000000000000000000 ) ) ;
#315 = CARTESIAN_POINT ( 'NONE',  ( 0.000000000000000000, 0.000000000000000000, 3.000000000000000000 ) ) ;
#316 = APPROVAL_PERSON_ORGANIZATION ( #17, #104, #197 ) ;
#317 = DIRECTION ( 'NONE',  ( 0.000000000000000000, -1.000000000000000000, 0.000000000000000000 ) ) ;
#318 = DIRECTION ( 'NONE',  ( 0.000000000000000000, 0.000000000000000000, 1.000000000000000000 ) ) ;
#319 = ADVANCED_FACE ( 'NONE', ( #36 ), #240, .F. ) ;
#320 = CIRCLE ( 'NONE', #71, 2.500000000000000000 ) ;
#321 = DIRECTION ( 'NONE',  ( -0.000000000000000000, -0.000000000000000000, -1.000000000000000000 ) ) ;
#322 = EDGE_LOOP ( 'NONE', ( #298, #267, #6, #329 ) ) ;
#323 = DIRECTION ( 'NONE',  ( 0.000000000000000000, 0.000000000000000000, 1.000000000000000000 ) ) ;
#324 = ORIENTED_EDGE ( 'NONE', *, *, #117, .T. ) ;
#325 = CYLINDRICAL_SURFACE ( 'NONE', #246, 2.500000000000000000 ) ;
#326 = ORIENTED_EDGE ( 'NONE', *, *, #364, .F. ) ;
#327 = DATE_AND_TIME ( #125, #251 ) ;
#328 = AXIS2_PLACEMENT_3D ( 'NONE', #91, #323, #66 ) ;
#329 = ORIENTED_EDGE ( 'NONE', *, *, #117, .F. ) ;
#330 = COORDINATED_UNIVERSAL_TIME_OFFSET ( 1, 0, .AHEAD. ) ;
#331 = ORIENTED_EDGE ( 'NONE', *, *, #277, .T. ) ;
#332 = APPLICATION_CONTEXT ( 'configuration controlled 3d designs of mechanical parts and assemblies' ) ;
#333 = CARTESIAN_POINT ( 'NONE',  ( -2.500000000000000000, 0.000000000000000000, 178.0000000000000000 ) ) ;
#334 = EDGE_CURVE ( 'NONE', #37, #7, #33, .T. ) ;
#335 = PERSON_AND_ORGANIZATION ( #138, #312 ) ;
#336 =( GEOMETRIC_REPRESENTATION_CONTEXT ( 3 ) GLOBAL_UNCERTAINTY_ASSIGNED_CONTEXT ( ( #179 ) ) GLOBAL_UNIT_ASSIGNED_CONTEXT ( ( #157, #352, #297 ) ) REPRESENTATION_CONTEXT ( 'NONE', 'WORKASPACE' ) );
#337 = PLANE ( 'NONE',  #147 ) ;
#338 = CARTESIAN_POINT ( 'NONE',  ( 1.000000000000000000, 1.224646799147353207E-16, 178.0000000000000000 ) ) ;
#339 = DIRECTION ( 'NONE',  ( 0.000000000000000000, 0.000000000000000000, 1.000000000000000000 ) ) ;
#340 = DIRECTION ( 'NONE',  ( 1.000000000000000000, 0.000000000000000000, 0.000000000000000000 ) ) ;
#341 = ADVANCED_FACE ( 'NONE', ( #95 ), #325, .T. ) ;
#342 = DIRECTION ( 'NONE',  ( 0.000000000000000000, 0.000000000000000000, 1.000000000000000000 ) ) ;
#343 = AXIS2_PLACEMENT_3D ( 'NONE', #282, #175, #27 ) ;
#344 = LOCAL_TIME ( 17, 52, 52.00000000000000000, #44 ) ;
#345 = DIRECTION ( 'NONE',  ( 0.000000000000000000, 0.000000000000000000, 1.000000000000000000 ) ) ;
#346 = CARTESIAN_POINT ( 'NONE',  ( 0.000000000000000000, 0.000000000000000000, 178.0000000000000000 ) ) ;
#347 = DIRECTION ( 'NONE',  ( 1.000000000000000000, 0.000000000000000000, 0.000000000000000000 ) ) ;
#348 = ORIENTED_EDGE ( 'NONE', *, *, #308, .F. ) ;
#349 = APPROVAL_PERSON_ORGANIZATION ( #335, #201, #269 ) ;
#350 = APPLICATION_PROTOCOL_DEFINITION ( 'international standard', 'config_control_design', 1994, #332 ) ;
#351 = ORIENTED_EDGE ( 'NONE', *, *, #128, .F. ) ;
#352 =( NAMED_UNIT ( * ) PLANE_ANGLE_UNIT ( ) SI_UNIT ( $, .RADIAN. ) );
#353 = ORIENTED_EDGE ( 'NONE', *, *, #136, .T. ) ;
#354 = CARTESIAN_POINT ( 'NONE',  ( 0.000000000000000000, 0.000000000000000000, 3.299999999999997158 ) ) ;
#355 = ORIENTED_EDGE ( 'NONE', *, *, #72, .F. ) ;
#356 = PRODUCT_DEFINITION_FORMATION_WITH_SPECIFIED_SOURCE ( 'LIBOVOLNÝ', '', #280, .NOT_KNOWN. ) ;
#357 = VERTEX_POINT ( 'NONE', #62 ) ;
#358 = DATE_AND_TIME ( #190, #114 ) ;
#359 = DIRECTION ( 'NONE',  ( 1.000000000000000000, 0.000000000000000000, 0.000000000000000000 ) ) ;
#360 = PERSON_AND_ORGANIZATION_ROLE ( 'design_supplier' ) ;
#361 = CARTESIAN_POINT ( 'NONE',  ( 0.000000000000000000, 0.000000000000000000, 178.0000000000000000 ) ) ;
#362 = AXIS2_PLACEMENT_3D ( 'NONE', #78, #274, #81 ) ;
#363 = DIRECTION ( 'NONE',  ( -0.000000000000000000, -0.000000000000000000, -1.000000000000000000 ) ) ;
#364 = EDGE_CURVE ( 'NONE', #65, #7, #93, .T. ) ;
#365 = CIRCLE ( 'NONE', #100, 5.000000000000000000 ) ;
#366 = CARTESIAN_POINT ( 'NONE',  ( 0.000000000000000000, 0.000000000000000000, 178.0000000000000000 ) ) ;
#367 = CARTESIAN_POINT ( 'NONE',  ( -1.000000000000000000, 0.000000000000000000, 178.0000000000000000 ) ) ;
#368 = AXIS2_PLACEMENT_3D ( 'NONE', #171, #363, #20 ) ;
#369 = CARTESIAN_POINT ( 'NONE',  ( 0.000000000000000000, 0.000000000000000000, 178.0000000000000000 ) ) ;
#370 = CIRCLE ( 'NONE', #84, 1.000000000000000000 ) ;
#371 = PRODUCT_RELATED_PRODUCT_CATEGORY ( 'detail', '', ( #280 ) ) ;
#372 = EDGE_CURVE ( 'NONE', #207, #127, #225, .T. ) ;
#373 = DIRECTION ( 'NONE',  ( -0.000000000000000000, -0.000000000000000000, -1.000000000000000000 ) ) ;
#374 = CYLINDRICAL_SURFACE ( 'NONE', #283, 2.500000000000000000 ) ;
#375 = CARTESIAN_POINT ( 'NONE',  ( 5.000000000000000000, 6.123233995736766282E-16, 3.000000000000000000 ) ) ;
#376 = CLOSED_SHELL ( 'NONE', ( #164, #195, #341, #188, #304, #168, #59, #243, #285, #319, #90 ) ) ;
#377 = VECTOR ( 'NONE', #217, 1000.000000000000000 ) ;
#378 = TOROIDAL_SURFACE ( 'NONE', #261, 2.799999999999999822, 0.2999999999999999889 ) ;
#379 = AXIS2_PLACEMENT_3D ( 'NONE', #113, #317, #88 ) ;
#380 = CARTESIAN_POINT ( 'NONE',  ( 0.000000000000000000, 0.000000000000000000, 3.299999999999997158 ) ) ;
#381 = ORIENTED_EDGE ( 'NONE', *, *, #8, .F. ) ;
ENDSEC;
END-ISO-10303-21;
