ISO-10303-21;
HEADER;
FILE_DESCRIPTION (( 'STEP AP203' ),
    '1' );
FILE_NAME ('3a12.STEP',
    '2022-07-08T15:44:58',
    ( '' ),
    ( '' ),
    'SwSTEP 2.0',
    'SolidWorks 2019',
    '' );
FILE_SCHEMA (( 'CONFIG_CONTROL_DESIGN' ));
ENDSEC;

DATA;
#1 = PERSON_AND_ORGANIZATION ( #254, #230 ) ;
#2 = VERTEX_POINT ( 'NONE', #72 ) ;
#3 = PRODUCT_DEFINITION_SHAPE ( 'NONE', 'NONE',  #173 ) ;
#4 = ORIENTED_EDGE ( 'NONE', *, *, #192, .F. ) ;
#5 = APPROVAL_ROLE ( '' ) ;
#6 = AXIS2_PLACEMENT_3D ( 'NONE', #355, #260, #27 ) ;
#7 = DATE_AND_TIME ( #183, #141 ) ;
#8 = DIRECTION ( 'NONE',  ( 0.000000000000000000, 0.000000000000000000, -1.000000000000000000 ) ) ;
#9 = EDGE_CURVE ( 'NONE', #14, #2, #54, .T. ) ;
#10 = ORIENTED_EDGE ( 'NONE', *, *, #280, .T. ) ;
#11 = CALENDAR_DATE ( 2022, 8, 7 ) ;
#12 = CARTESIAN_POINT ( 'NONE',  ( 0.000000000000000000, 0.000000000000000000, 0.000000000000000000 ) ) ;
#13 = DIRECTION ( 'NONE',  ( -0.000000000000000000, -0.000000000000000000, -1.000000000000000000 ) ) ;
#14 = VERTEX_POINT ( 'NONE', #125 ) ;
#15 = AXIS2_PLACEMENT_3D ( 'NONE', #66, #178, #120 ) ;
#16 = EDGE_CURVE ( 'NONE', #2, #14, #217, .T. ) ;
#17 = CIRCLE ( 'NONE', #179, 0.2999999999999999334 ) ;
#18 = ORIENTED_EDGE ( 'NONE', *, *, #157, .T. ) ;
#19 = LINE ( 'NONE', #163, #234 ) ;
#20 = EDGE_LOOP ( 'NONE', ( #90, #356 ) ) ;
#21 = DIRECTION ( 'NONE',  ( 1.000000000000000000, 0.000000000000000000, 0.000000000000000000 ) ) ;
#22 = VERTEX_POINT ( 'NONE', #74 ) ;
#23 = DIRECTION ( 'NONE',  ( -0.000000000000000000, -0.000000000000000000, -1.000000000000000000 ) ) ;
#24 = APPROVAL_PERSON_ORGANIZATION ( #276, #207, #150 ) ;
#25 = CARTESIAN_POINT ( 'NONE',  ( 0.000000000000000000, 0.000000000000000000, 3.000000000000000000 ) ) ;
#26 = DIRECTION ( 'NONE',  ( 0.000000000000000000, 0.000000000000000000, -1.000000000000000000 ) ) ;
#27 = DIRECTION ( 'NONE',  ( -1.000000000000000000, 0.000000000000000000, 0.000000000000000000 ) ) ;
#28 = ADVANCED_FACE ( 'NONE', ( #372 ), #49, .T. ) ;
#29 = DIRECTION ( 'NONE',  ( 0.000000000000000000, 0.000000000000000000, -1.000000000000000000 ) ) ;
#30 = CARTESIAN_POINT ( 'NONE',  ( 1.500000000000000222, 1.836970198721030181E-16, 253.0000000000000000 ) ) ;
#31 = ORIENTED_EDGE ( 'NONE', *, *, #16, .F. ) ;
#32 = PERSON_AND_ORGANIZATION ( #254, #230 ) ;
#33 = APPROVAL_STATUS ( 'not_yet_approved' ) ;
#34 = EDGE_LOOP ( 'NONE', ( #223, #252, #180, #238 ) ) ;
#35 = DATE_AND_TIME ( #155, #235 ) ;
#36 = CC_DESIGN_PERSON_AND_ORGANIZATION_ASSIGNMENT ( #213, #70, ( #374 ) ) ;
#37 = VECTOR ( 'NONE', #129, 1000.000000000000000 ) ;
#38 = AXIS2_PLACEMENT_3D ( 'NONE', #253, #137, #342 ) ;
#39 = PERSON_AND_ORGANIZATION ( #254, #230 ) ;
#40 = DIRECTION ( 'NONE',  ( 1.000000000000000000, 0.000000000000000000, 0.000000000000000000 ) ) ;
#41 = VERTEX_POINT ( 'NONE', #135 ) ;
#42 = DIRECTION ( 'NONE',  ( -0.000000000000000000, -0.000000000000000000, -1.000000000000000000 ) ) ;
#43 = ORIENTED_EDGE ( 'NONE', *, *, #215, .F. ) ;
#44 = CARTESIAN_POINT ( 'NONE',  ( 0.000000000000000000, 0.000000000000000000, 0.000000000000000000 ) ) ;
#45 = DIRECTION ( 'NONE',  ( -0.000000000000000000, -0.000000000000000000, -1.000000000000000000 ) ) ;
#46 = CIRCLE ( 'NONE', #153, 2.799999999999999822 ) ;
#47 = AXIS2_PLACEMENT_3D ( 'NONE', #115, #203, #236 ) ;
#48 = DIRECTION ( 'NONE',  ( 1.000000000000000000, 0.000000000000000000, 0.000000000000000000 ) ) ;
#49 = CYLINDRICAL_SURFACE ( 'NONE', #95, 2.500000000000000000 ) ;
#50 = CARTESIAN_POINT ( 'NONE',  ( 2.500000000000000000, 3.061616997868383141E-16, 253.0000000000000000 ) ) ;
#51 = CARTESIAN_POINT ( 'NONE',  ( 0.000000000000000000, 0.000000000000000000, 0.000000000000000000 ) ) ;
#52 = CC_DESIGN_PERSON_AND_ORGANIZATION_ASSIGNMENT ( #269, #216, ( #69 ) ) ;
#53 = DIRECTION ( 'NONE',  ( -1.000000000000000000, 0.000000000000000000, 0.000000000000000000 ) ) ;
#54 = CIRCLE ( 'NONE', #261, 1.500000000000000222 ) ;
#55 = CARTESIAN_POINT ( 'NONE',  ( -2.500000000000000000, 0.000000000000000000, 253.0000000000000000 ) ) ;
#56 = FACE_OUTER_BOUND ( 'NONE', #249, .T. ) ;
#57 = ADVANCED_FACE ( 'NONE', ( #247, #122 ), #96, .T. ) ;
#58 = VERTEX_POINT ( 'NONE', #92 ) ;
#59 = CIRCLE ( 'NONE', #377, 5.000000000000000000 ) ;
#60 = FACE_OUTER_BOUND ( 'NONE', #268, .T. ) ;
#61 = VERTEX_POINT ( 'NONE', #273 ) ;
#62 = CIRCLE ( 'NONE', #318, 2.500000000000000000 ) ;
#63 = EDGE_CURVE ( 'NONE', #61, #22, #59, .T. ) ;
#64 = COORDINATED_UNIVERSAL_TIME_OFFSET ( 1, 0, .AHEAD. ) ;
#65 = FACE_BOUND ( 'NONE', #283, .T. ) ;
#66 = CARTESIAN_POINT ( 'NONE',  ( 0.000000000000000000, 0.000000000000000000, 3.000000000000000000 ) ) ;
#67 = CLOSED_SHELL ( 'NONE', ( #97, #228, #28, #376, #270, #57, #132, #357, #116, #126, #369 ) ) ;
#68 = AXIS2_PLACEMENT_3D ( 'NONE', #371, #259, #224 ) ;
#69 = SECURITY_CLASSIFICATION ( '', '', #299 ) ;
#70 = PERSON_AND_ORGANIZATION_ROLE ( 'design_supplier' ) ;
#71 = CARTESIAN_POINT ( 'NONE',  ( 0.000000000000000000, 0.000000000000000000, 3.299999999999997158 ) ) ;
#72 = CARTESIAN_POINT ( 'NONE',  ( -1.500000000000000222, 0.000000000000000000, 0.000000000000000000 ) ) ;
#73 = LINE ( 'NONE', #50, #37 ) ;
#74 = CARTESIAN_POINT ( 'NONE',  ( 5.000000000000000000, 6.123233995736766282E-16, 0.000000000000000000 ) ) ;
#75 = CARTESIAN_POINT ( 'NONE',  ( 1.500000000000000222, 1.836970198721030181E-16, 253.0000000000000000 ) ) ;
#76 = ORIENTED_EDGE ( 'NONE', *, *, #9, .T. ) ;
#77 = CC_DESIGN_APPROVAL ( #320, ( #69 ) ) ;
#78 = ORIENTED_EDGE ( 'NONE', *, *, #311, .F. ) ;
#79 = UNCERTAINTY_MEASURE_WITH_UNIT (LENGTH_MEASURE( 1.000000000000000082E-05 ), #291, 'distance_accuracy_value', 'NONE');
#80 = CC_DESIGN_DATE_AND_TIME_ASSIGNMENT ( #210, #181, ( #69 ) ) ;
#81 = DIRECTION ( 'NONE',  ( 0.000000000000000000, 0.000000000000000000, 1.000000000000000000 ) ) ;
#82 = CARTESIAN_POINT ( 'NONE',  ( -5.000000000000000000, 0.000000000000000000, 3.000000000000000000 ) ) ;
#83 = LINE ( 'NONE', #55, #211 ) ;
#84 = EDGE_CURVE ( 'NONE', #58, #266, #307, .T. ) ;
#85 = CYLINDRICAL_SURFACE ( 'NONE', #6, 1.500000000000000222 ) ;
#86 = CARTESIAN_POINT ( 'NONE',  ( 2.799999999999999822, 0.000000000000000000, 3.299999999999997158 ) ) ;
#87 =( NAMED_UNIT ( * ) SI_UNIT ( $, .STERADIAN. ) SOLID_ANGLE_UNIT ( ) );
#88 = VECTOR ( 'NONE', #29, 1000.000000000000000 ) ;
#89 = CYLINDRICAL_SURFACE ( 'NONE', #167, 5.000000000000000000 ) ;
#90 = ORIENTED_EDGE ( 'NONE', *, *, #63, .F. ) ;
#91 = CALENDAR_DATE ( 2022, 8, 7 ) ;
#92 = CARTESIAN_POINT ( 'NONE',  ( -2.500000000000000000, 0.000000000000000000, 3.299999999999997158 ) ) ;
#93 = ORIENTED_EDGE ( 'NONE', *, *, #311, .T. ) ;
#94 = COORDINATED_UNIVERSAL_TIME_OFFSET ( 1, 0, .AHEAD. ) ;
#95 = AXIS2_PLACEMENT_3D ( 'NONE', #164, #45, #312 ) ;
#96 = PLANE ( 'NONE',  #15 ) ;
#97 = ADVANCED_FACE ( 'NONE', ( #329 ), #323, .F. ) ;
#98 = ORIENTED_EDGE ( 'NONE', *, *, #280, .F. ) ;
#99 = AXIS2_PLACEMENT_3D ( 'NONE', #231, #349, #379 ) ;
#100 = CARTESIAN_POINT ( 'NONE',  ( 0.000000000000000000, 0.000000000000000000, 253.0000000000000000 ) ) ;
#101 = DIRECTION ( 'NONE',  ( 1.000000000000000000, 0.000000000000000000, -0.000000000000000000 ) ) ;
#102 = COORDINATED_UNIVERSAL_TIME_OFFSET ( 1, 0, .AHEAD. ) ;
#103 = CARTESIAN_POINT ( 'NONE',  ( 0.000000000000000000, 0.000000000000000000, 253.0000000000000000 ) ) ;
#104 = DIRECTION ( 'NONE',  ( 1.000000000000000000, 0.000000000000000000, 0.000000000000000000 ) ) ;
#105 = LINE ( 'NONE', #345, #219 ) ;
#106 = ORIENTED_EDGE ( 'NONE', *, *, #198, .F. ) ;
#107 = DIRECTION ( 'NONE',  ( -0.000000000000000000, -0.000000000000000000, -1.000000000000000000 ) ) ;
#108 = ORIENTED_EDGE ( 'NONE', *, *, #378, .F. ) ;
#109 = CC_DESIGN_PERSON_AND_ORGANIZATION_ASSIGNMENT ( #32, #364, ( #173 ) ) ;
#110 = CIRCLE ( 'NONE', #274, 2.500000000000000000 ) ;
#111 = CARTESIAN_POINT ( 'NONE',  ( -2.500000000000000000, 0.000000000000000000, 253.0000000000000000 ) ) ;
#112 = DIRECTION ( 'NONE',  ( 0.000000000000000000, 0.000000000000000000, -1.000000000000000000 ) ) ;
#113 = APPROVAL_PERSON_ORGANIZATION ( #1, #303, #5 ) ;
#114 = DIRECTION ( 'NONE',  ( 1.000000000000000000, 0.000000000000000000, 0.000000000000000000 ) ) ;
#115 = CARTESIAN_POINT ( 'NONE',  ( 0.000000000000000000, 0.000000000000000000, 3.000000000000000000 ) ) ;
#116 = ADVANCED_FACE ( 'NONE', ( #218, #334 ), #189, .T. ) ;
#117 = TOROIDAL_SURFACE ( 'NONE', #341, 2.799999999999999822, 0.2999999999999999889 ) ;
#118 = CIRCLE ( 'NONE', #262, 1.500000000000000222 ) ;
#119 = DATE_AND_TIME ( #11, #326 ) ;
#120 = DIRECTION ( 'NONE',  ( 1.000000000000000000, 0.000000000000000000, -0.000000000000000000 ) ) ;
#121 = EDGE_LOOP ( 'NONE', ( #43, #250, #133, #321 ) ) ;
#122 = FACE_OUTER_BOUND ( 'NONE', #277, .T. ) ;
#123 = APPROVAL_STATUS ( 'not_yet_approved' ) ;
#124 = LINE ( 'NONE', #365, #136 ) ;
#125 = CARTESIAN_POINT ( 'NONE',  ( 1.500000000000000222, 1.836970198721030181E-16, 0.000000000000000000 ) ) ;
#126 = ADVANCED_FACE ( 'NONE', ( #60 ), #117, .F. ) ;
#127 = AXIS2_PLACEMENT_3D ( 'NONE', #12, #267, #149 ) ;
#128 = EDGE_LOOP ( 'NONE', ( #106, #358, #243, #337 ) ) ;
#129 = DIRECTION ( 'NONE',  ( -0.000000000000000000, -0.000000000000000000, -1.000000000000000000 ) ) ;
#130 = ORIENTED_EDGE ( 'NONE', *, *, #186, .T. ) ;
#131 = DIRECTION ( 'NONE',  ( 1.000000000000000000, 0.000000000000000000, 0.000000000000000000 ) ) ;
#132 = ADVANCED_FACE ( 'NONE', ( #65, #156 ), #242, .F. ) ;
#133 = ORIENTED_EDGE ( 'NONE', *, *, #143, .T. ) ;
#134 = FACE_OUTER_BOUND ( 'NONE', #121, .T. ) ;
#135 = CARTESIAN_POINT ( 'NONE',  ( 2.500000000000000000, 3.061616997868383141E-16, 253.0000000000000000 ) ) ;
#136 = VECTOR ( 'NONE', #42, 1000.000000000000000 ) ;
#137 = DIRECTION ( 'NONE',  ( 0.000000000000000000, 0.000000000000000000, 1.000000000000000000 ) ) ;
#138 = DIRECTION ( 'NONE',  ( 1.000000000000000000, 0.000000000000000000, 0.000000000000000000 ) ) ;
#139 = APPLICATION_CONTEXT ( 'configuration controlled 3d designs of mechanical parts and assemblies' ) ;
#140 = DIRECTION ( 'NONE',  ( 0.000000000000000000, 0.000000000000000000, 1.000000000000000000 ) ) ;
#141 = LOCAL_TIME ( 17, 44, 58.00000000000000000, #94 ) ;
#142 = APPLICATION_PROTOCOL_DEFINITION ( 'international standard', 'config_control_design', 1994, #139 ) ;
#143 = EDGE_CURVE ( 'NONE', #282, #61, #124, .T. ) ;
#144 = COORDINATED_UNIVERSAL_TIME_OFFSET ( 1, 0, .AHEAD. ) ;
#145 = CIRCLE ( 'NONE', #200, 1.500000000000000222 ) ;
#146 = CIRCLE ( 'NONE', #348, 2.500000000000000000 ) ;
#147 = VERTEX_POINT ( 'NONE', #158 ) ;
#148 = APPROVAL_DATE_TIME ( #35, #320 ) ;
#149 = DIRECTION ( 'NONE',  ( 1.000000000000000000, 0.000000000000000000, -0.000000000000000000 ) ) ;
#150 = APPROVAL_ROLE ( '' ) ;
#151 = DIRECTION ( 'NONE',  ( 1.224646799147353207E-16, 1.000000000000000000, -0.000000000000000000 ) ) ;
#152 = AXIS2_PLACEMENT_3D ( 'NONE', #214, #362, #101 ) ;
#153 = AXIS2_PLACEMENT_3D ( 'NONE', #278, #13, #182 ) ;
#154 = CIRCLE ( 'NONE', #360, 5.000000000000000000 ) ;
#155 = CALENDAR_DATE ( 2022, 8, 7 ) ;
#156 = FACE_OUTER_BOUND ( 'NONE', #20, .T. ) ;
#157 = EDGE_CURVE ( 'NONE', #184, #266, #46, .T. ) ;
#158 = CARTESIAN_POINT ( 'NONE',  ( 2.500000000000000000, 3.061616997868383141E-16, 3.299999999999997158 ) ) ;
#159 = ORIENTED_EDGE ( 'NONE', *, *, #246, .F. ) ;
#160 = ADVANCED_BREP_SHAPE_REPRESENTATION ( '3a12', ( #287, #99 ), #162 ) ;
#161 = CYLINDRICAL_SURFACE ( 'NONE', #68, 5.000000000000000000 ) ;
#162 =( GEOMETRIC_REPRESENTATION_CONTEXT ( 3 ) GLOBAL_UNCERTAINTY_ASSIGNED_CONTEXT ( ( #79 ) ) GLOBAL_UNIT_ASSIGNED_CONTEXT ( ( #291, #350, #87 ) ) REPRESENTATION_CONTEXT ( 'NONE', 'WORKASPACE' ) );
#163 = CARTESIAN_POINT ( 'NONE',  ( -1.500000000000000222, 0.000000000000000000, 253.0000000000000000 ) ) ;
#164 = CARTESIAN_POINT ( 'NONE',  ( 0.000000000000000000, 0.000000000000000000, 253.0000000000000000 ) ) ;
#165 = CARTESIAN_POINT ( 'NONE',  ( 0.000000000000000000, 0.000000000000000000, 3.299999999999997158 ) ) ;
#166 = DIRECTION ( 'NONE',  ( -0.000000000000000000, -0.000000000000000000, -1.000000000000000000 ) ) ;
#167 = AXIS2_PLACEMENT_3D ( 'NONE', #176, #319, #53 ) ;
#168 = CARTESIAN_POINT ( 'NONE',  ( -2.799999999999999822, 3.429011037612589276E-16, 2.999999999999998668 ) ) ;
#169 = PRODUCT_RELATED_PRODUCT_CATEGORY ( 'detail', '', ( #292 ) ) ;
#170 = DIRECTION ( 'NONE',  ( -0.000000000000000000, -0.000000000000000000, -1.000000000000000000 ) ) ;
#171 = CARTESIAN_POINT ( 'NONE',  ( 0.000000000000000000, 0.000000000000000000, 253.0000000000000000 ) ) ;
#172 = LINE ( 'NONE', #30, #88 ) ;
#173 = PRODUCT_DEFINITION ( 'NEZNÁMÝ', '', #374, #227 ) ;
#174 = APPROVAL_PERSON_ORGANIZATION ( #39, #320, #302 ) ;
#175 = PERSON_AND_ORGANIZATION ( #254, #230 ) ;
#176 = CARTESIAN_POINT ( 'NONE',  ( 0.000000000000000000, 0.000000000000000000, 3.000000000000000000 ) ) ;
#177 = DATE_AND_TIME ( #91, #354 ) ;
#178 = DIRECTION ( 'NONE',  ( 0.000000000000000000, 0.000000000000000000, 1.000000000000000000 ) ) ;
#179 = AXIS2_PLACEMENT_3D ( 'NONE', #86, #380, #26 ) ;
#180 = ORIENTED_EDGE ( 'NONE', *, *, #157, .F. ) ;
#181 = DATE_TIME_ROLE ( 'classification_date' ) ;
#182 = DIRECTION ( 'NONE',  ( 1.000000000000000000, 0.000000000000000000, 0.000000000000000000 ) ) ;
#183 = CALENDAR_DATE ( 2022, 8, 7 ) ;
#184 = VERTEX_POINT ( 'NONE', #285 ) ;
#185 = APPROVAL_DATE_TIME ( #177, #207 ) ;
#186 = EDGE_CURVE ( 'NONE', #328, #2, #19, .T. ) ;
#187 = DIRECTION ( 'NONE',  ( -1.000000000000000000, 0.000000000000000000, 0.000000000000000000 ) ) ;
#188 = APPROVAL_STATUS ( 'not_yet_approved' ) ;
#189 = PLANE ( 'NONE',  #152 ) ;
#190 = DIRECTION ( 'NONE',  ( 1.000000000000000000, 0.000000000000000000, 0.000000000000000000 ) ) ;
#191 = EDGE_LOOP ( 'NONE', ( #226, #298, #76, #212 ) ) ;
#192 = EDGE_CURVE ( 'NONE', #208, #328, #145, .T. ) ;
#193 = CARTESIAN_POINT ( 'NONE',  ( 0.000000000000000000, 0.000000000000000000, 3.000000000000000000 ) ) ;
#194 = ORIENTED_EDGE ( 'NONE', *, *, #9, .F. ) ;
#195 = CC_DESIGN_APPROVAL ( #207, ( #374 ) ) ;
#196 = ORIENTED_EDGE ( 'NONE', *, *, #84, .F. ) ;
#197 = DIRECTION ( 'NONE',  ( 0.000000000000000000, 0.000000000000000000, 1.000000000000000000 ) ) ;
#198 = EDGE_CURVE ( 'NONE', #41, #147, #73, .T. ) ;
#199 = EDGE_CURVE ( 'NONE', #367, #282, #265, .T. ) ;
#200 = AXIS2_PLACEMENT_3D ( 'NONE', #229, #197, #131 ) ;
#201 = MECHANICAL_CONTEXT ( 'NONE', #139, 'mechanical' ) ;
#202 = AXIS2_PLACEMENT_3D ( 'NONE', #25, #368, #344 ) ;
#203 = DIRECTION ( 'NONE',  ( 0.000000000000000000, 0.000000000000000000, 1.000000000000000000 ) ) ;
#204 = EDGE_LOOP ( 'NONE', ( #241, #4 ) ) ;
#205 = PERSON_AND_ORGANIZATION_ROLE ( 'creator' ) ;
#206 = CARTESIAN_POINT ( 'NONE',  ( -2.799999999999999822, 3.429011037612588783E-16, 3.299999999999997158 ) ) ;
#207 = APPROVAL ( #123, 'NEURÈENÝ' ) ;
#208 = VERTEX_POINT ( 'NONE', #75 ) ;
#209 = AXIS2_PLACEMENT_3D ( 'NONE', #51, #284, #104 ) ;
#210 = DATE_AND_TIME ( #332, #245 ) ;
#211 = VECTOR ( 'NONE', #170, 1000.000000000000000 ) ;
#212 = ORIENTED_EDGE ( 'NONE', *, *, #186, .F. ) ;
#213 = PERSON_AND_ORGANIZATION ( #254, #230 ) ;
#214 = CARTESIAN_POINT ( 'NONE',  ( 0.000000000000000000, 0.000000000000000000, 253.0000000000000000 ) ) ;
#215 = EDGE_CURVE ( 'NONE', #367, #22, #105, .T. ) ;
#216 = PERSON_AND_ORGANIZATION_ROLE ( 'classification_officer' ) ;
#217 = CIRCLE ( 'NONE', #209, 1.500000000000000222 ) ;
#218 = FACE_BOUND ( 'NONE', #204, .T. ) ;
#219 = VECTOR ( 'NONE', #23, 1000.000000000000000 ) ;
#220 = ORIENTED_EDGE ( 'NONE', *, *, #333, .T. ) ;
#221 = DIRECTION ( 'NONE',  ( 0.000000000000000000, 0.000000000000000000, 1.000000000000000000 ) ) ;
#222 = CC_DESIGN_DATE_AND_TIME_ASSIGNMENT ( #7, #248, ( #173 ) ) ;
#223 = ORIENTED_EDGE ( 'NONE', *, *, #290, .F. ) ;
#224 = DIRECTION ( 'NONE',  ( -1.000000000000000000, 0.000000000000000000, 0.000000000000000000 ) ) ;
#225 = ORIENTED_EDGE ( 'NONE', *, *, #363, .F. ) ;
#226 = ORIENTED_EDGE ( 'NONE', *, *, #347, .T. ) ;
#227 = DESIGN_CONTEXT ( 'detailed design', #359, 'design' ) ;
#228 = ADVANCED_FACE ( 'NONE', ( #313 ), #300, .F. ) ;
#229 = CARTESIAN_POINT ( 'NONE',  ( 0.000000000000000000, 0.000000000000000000, 253.0000000000000000 ) ) ;
#230 = ORGANIZATION ( 'NEURÈENÝ', 'NEURÈENÝ', '' ) ;
#231 = CARTESIAN_POINT ( 'NONE',  ( 0.000000000000000000, 0.000000000000000000, 0.000000000000000000 ) ) ;
#232 = FACE_OUTER_BOUND ( 'NONE', #279, .T. ) ;
#233 = FACE_OUTER_BOUND ( 'NONE', #128, .T. ) ;
#234 = VECTOR ( 'NONE', #112, 1000.000000000000000 ) ;
#235 = LOCAL_TIME ( 17, 44, 58.00000000000000000, #144 ) ;
#236 = DIRECTION ( 'NONE',  ( 1.000000000000000000, 0.000000000000000000, 0.000000000000000000 ) ) ;
#237 = CIRCLE ( 'NONE', #47, 5.000000000000000000 ) ;
#238 = ORIENTED_EDGE ( 'NONE', *, *, #333, .F. ) ;
#239 = PERSON_AND_ORGANIZATION ( #254, #230 ) ;
#240 = CC_DESIGN_PERSON_AND_ORGANIZATION_ASSIGNMENT ( #239, #205, ( #374 ) ) ;
#241 = ORIENTED_EDGE ( 'NONE', *, *, #347, .F. ) ;
#242 = PLANE ( 'NONE',  #127 ) ;
#243 = ORIENTED_EDGE ( 'NONE', *, *, #378, .T. ) ;
#244 = CARTESIAN_POINT ( 'NONE',  ( 0.000000000000000000, 0.000000000000000000, 0.000000000000000000 ) ) ;
#245 = LOCAL_TIME ( 17, 44, 58.00000000000000000, #64 ) ;
#246 = EDGE_CURVE ( 'NONE', #147, #58, #281, .T. ) ;
#247 = FACE_BOUND ( 'NONE', #343, .T. ) ;
#248 = DATE_TIME_ROLE ( 'creation_date' ) ;
#249 = EDGE_LOOP ( 'NONE', ( #225, #339, #130, #306 ) ) ;
#250 = ORIENTED_EDGE ( 'NONE', *, *, #340, .F. ) ;
#251 = DIRECTION ( 'NONE',  ( 0.000000000000000000, 0.000000000000000000, 1.000000000000000000 ) ) ;
#252 = ORIENTED_EDGE ( 'NONE', *, *, #84, .T. ) ;
#253 = CARTESIAN_POINT ( 'NONE',  ( 0.000000000000000000, 0.000000000000000000, 3.299999999999997158 ) ) ;
#254 = PERSON ( 'NEURÈENÝ', 'NEURÈENÝ', 'NEURÈENÝ', ('NEURÈENÝ'), ('NEURÈENÝ'), ('NEURÈENÝ') ) ;
#255 = ORIENTED_EDGE ( 'NONE', *, *, #215, .T. ) ;
#256 = CARTESIAN_POINT ( 'NONE',  ( 0.000000000000000000, 0.000000000000000000, 253.0000000000000000 ) ) ;
#257 = ORIENTED_EDGE ( 'NONE', *, *, #199, .F. ) ;
#258 = AXIS2_PLACEMENT_3D ( 'NONE', #193, #107, #375 ) ;
#259 = DIRECTION ( 'NONE',  ( -0.000000000000000000, -0.000000000000000000, -1.000000000000000000 ) ) ;
#260 = DIRECTION ( 'NONE',  ( 0.000000000000000000, 0.000000000000000000, -1.000000000000000000 ) ) ;
#261 = AXIS2_PLACEMENT_3D ( 'NONE', #370, #166, #190 ) ;
#262 = AXIS2_PLACEMENT_3D ( 'NONE', #171, #140, #114 ) ;
#263 = DIRECTION ( 'NONE',  ( -0.000000000000000000, -0.000000000000000000, -1.000000000000000000 ) ) ;
#264 = CARTESIAN_POINT ( 'NONE',  ( 0.000000000000000000, 0.000000000000000000, 253.0000000000000000 ) ) ;
#265 = CIRCLE ( 'NONE', #202, 5.000000000000000000 ) ;
#266 = VERTEX_POINT ( 'NONE', #168 ) ;
#267 = DIRECTION ( 'NONE',  ( 0.000000000000000000, 0.000000000000000000, 1.000000000000000000 ) ) ;
#268 = EDGE_LOOP ( 'NONE', ( #196, #159, #220, #98 ) ) ;
#269 = PERSON_AND_ORGANIZATION ( #254, #230 ) ;
#270 = ADVANCED_FACE ( 'NONE', ( #134 ), #161, .T. ) ;
#271 = DIRECTION ( 'NONE',  ( 1.000000000000000000, 0.000000000000000000, 0.000000000000000000 ) ) ;
#272 = AXIS2_PLACEMENT_3D ( 'NONE', #206, #151, #361 ) ;
#273 = CARTESIAN_POINT ( 'NONE',  ( -5.000000000000000000, 0.000000000000000000, 0.000000000000000000 ) ) ;
#274 = AXIS2_PLACEMENT_3D ( 'NONE', #256, #81, #305 ) ;
#275 = ORIENTED_EDGE ( 'NONE', *, *, #143, .F. ) ;
#276 = PERSON_AND_ORGANIZATION ( #254, #230 ) ;
#277 = EDGE_LOOP ( 'NONE', ( #301, #330 ) ) ;
#278 = CARTESIAN_POINT ( 'NONE',  ( 0.000000000000000000, 0.000000000000000000, 3.000000000000000000 ) ) ;
#279 = EDGE_LOOP ( 'NONE', ( #257, #255, #325, #275 ) ) ;
#280 = EDGE_CURVE ( 'NONE', #266, #184, #294, .T. ) ;
#281 = CIRCLE ( 'NONE', #38, 2.500000000000000000 ) ;
#282 = VERTEX_POINT ( 'NONE', #82 ) ;
#283 = EDGE_LOOP ( 'NONE', ( #31, #194 ) ) ;
#284 = DIRECTION ( 'NONE',  ( -0.000000000000000000, -0.000000000000000000, -1.000000000000000000 ) ) ;
#285 = CARTESIAN_POINT ( 'NONE',  ( 2.799999999999999822, 0.000000000000000000, 2.999999999999998668 ) ) ;
#286 = CC_DESIGN_SECURITY_CLASSIFICATION ( #69, ( #374 ) ) ;
#287 = MANIFOLD_SOLID_BREP ( 'Odebrat vysunutím3', #67 ) ;
#288 = EDGE_CURVE ( 'NONE', #304, #41, #110, .T. ) ;
#289 = APPLICATION_PROTOCOL_DEFINITION ( 'international standard', 'config_control_design', 1994, #359 ) ;
#290 = EDGE_CURVE ( 'NONE', #58, #147, #62, .T. ) ;
#291 =( LENGTH_UNIT ( ) NAMED_UNIT ( * ) SI_UNIT ( .MILLI., .METRE. ) );
#292 = PRODUCT ( '3a12', '3a12', '', ( #201 ) ) ;
#293 = EDGE_LOOP ( 'NONE', ( #366, #93 ) ) ;
#294 = CIRCLE ( 'NONE', #258, 2.799999999999999822 ) ;
#295 = COORDINATED_UNIVERSAL_TIME_OFFSET ( 1, 0, .AHEAD. ) ;
#296 = ORIENTED_EDGE ( 'NONE', *, *, #246, .T. ) ;
#297 = APPROVAL_DATE_TIME ( #119, #303 ) ;
#298 = ORIENTED_EDGE ( 'NONE', *, *, #363, .T. ) ;
#299 = SECURITY_CLASSIFICATION_LEVEL ( 'unclassified' ) ;
#300 = TOROIDAL_SURFACE ( 'NONE', #314, 2.799999999999999822, 0.2999999999999999889 ) ;
#301 = ORIENTED_EDGE ( 'NONE', *, *, #340, .T. ) ;
#302 = APPROVAL_ROLE ( '' ) ;
#303 = APPROVAL ( #33, 'NEURÈENÝ' ) ;
#304 = VERTEX_POINT ( 'NONE', #111 ) ;
#305 = DIRECTION ( 'NONE',  ( 1.000000000000000000, 0.000000000000000000, 0.000000000000000000 ) ) ;
#306 = ORIENTED_EDGE ( 'NONE', *, *, #16, .T. ) ;
#307 = CIRCLE ( 'NONE', #272, 0.2999999999999999334 ) ;
#308 = DIRECTION ( 'NONE',  ( 0.000000000000000000, 0.000000000000000000, 1.000000000000000000 ) ) ;
#309 = CC_DESIGN_APPROVAL ( #303, ( #173 ) ) ;
#310 = ORIENTED_EDGE ( 'NONE', *, *, #198, .T. ) ;
#311 = EDGE_CURVE ( 'NONE', #41, #304, #146, .T. ) ;
#312 = DIRECTION ( 'NONE',  ( -1.000000000000000000, 0.000000000000000000, 0.000000000000000000 ) ) ;
#313 = FACE_OUTER_BOUND ( 'NONE', #34, .T. ) ;
#314 = AXIS2_PLACEMENT_3D ( 'NONE', #165, #338, #21 ) ;
#315 = CARTESIAN_POINT ( 'NONE',  ( -1.500000000000000222, 0.000000000000000000, 253.0000000000000000 ) ) ;
#316 = PERSON_AND_ORGANIZATION_ROLE ( 'design_owner' ) ;
#317 = DIRECTION ( 'NONE',  ( -1.000000000000000000, 0.000000000000000000, 0.000000000000000000 ) ) ;
#318 = AXIS2_PLACEMENT_3D ( 'NONE', #373, #251, #138 ) ;
#319 = DIRECTION ( 'NONE',  ( -0.000000000000000000, -0.000000000000000000, -1.000000000000000000 ) ) ;
#320 = APPROVAL ( #188, 'NEURÈENÝ' ) ;
#321 = ORIENTED_EDGE ( 'NONE', *, *, #63, .T. ) ;
#322 = SHAPE_DEFINITION_REPRESENTATION ( #3, #160 ) ;
#323 = CYLINDRICAL_SURFACE ( 'NONE', #353, 1.500000000000000222 ) ;
#324 = EDGE_CURVE ( 'NONE', #22, #61, #154, .T. ) ;
#325 = ORIENTED_EDGE ( 'NONE', *, *, #324, .T. ) ;
#326 = LOCAL_TIME ( 17, 44, 58.00000000000000000, #295 ) ;
#327 = DIRECTION ( 'NONE',  ( 0.000000000000000000, 0.000000000000000000, 1.000000000000000000 ) ) ;
#328 = VERTEX_POINT ( 'NONE', #315 ) ;
#329 = FACE_OUTER_BOUND ( 'NONE', #191, .T. ) ;
#330 = ORIENTED_EDGE ( 'NONE', *, *, #199, .T. ) ;
#331 = DIRECTION ( 'NONE',  ( 0.000000000000000000, 0.000000000000000000, 1.000000000000000000 ) ) ;
#332 = CALENDAR_DATE ( 2022, 8, 7 ) ;
#333 = EDGE_CURVE ( 'NONE', #147, #184, #17, .T. ) ;
#334 = FACE_OUTER_BOUND ( 'NONE', #293, .T. ) ;
#335 = EDGE_LOOP ( 'NONE', ( #78, #310, #296, #108 ) ) ;
#336 = DIRECTION ( 'NONE',  ( 1.000000000000000000, 0.000000000000000000, 0.000000000000000000 ) ) ;
#337 = ORIENTED_EDGE ( 'NONE', *, *, #290, .T. ) ;
#338 = DIRECTION ( 'NONE',  ( 0.000000000000000000, 0.000000000000000000, 1.000000000000000000 ) ) ;
#339 = ORIENTED_EDGE ( 'NONE', *, *, #192, .T. ) ;
#340 = EDGE_CURVE ( 'NONE', #282, #367, #237, .T. ) ;
#341 = AXIS2_PLACEMENT_3D ( 'NONE', #71, #331, #40 ) ;
#342 = DIRECTION ( 'NONE',  ( 1.000000000000000000, 0.000000000000000000, 0.000000000000000000 ) ) ;
#343 = EDGE_LOOP ( 'NONE', ( #18, #10 ) ) ;
#344 = DIRECTION ( 'NONE',  ( 1.000000000000000000, 0.000000000000000000, 0.000000000000000000 ) ) ;
#345 = CARTESIAN_POINT ( 'NONE',  ( 5.000000000000000000, 6.123233995736766282E-16, 3.000000000000000000 ) ) ;
#346 = CYLINDRICAL_SURFACE ( 'NONE', #381, 2.500000000000000000 ) ;
#347 = EDGE_CURVE ( 'NONE', #328, #208, #118, .T. ) ;
#348 = AXIS2_PLACEMENT_3D ( 'NONE', #103, #221, #336 ) ;
#349 = DIRECTION ( 'NONE',  ( 0.000000000000000000, 0.000000000000000000, 1.000000000000000000 ) ) ;
#350 =( NAMED_UNIT ( * ) PLANE_ANGLE_UNIT ( ) SI_UNIT ( $, .RADIAN. ) );
#351 = CC_DESIGN_PERSON_AND_ORGANIZATION_ASSIGNMENT ( #175, #316, ( #292 ) ) ;
#352 = CARTESIAN_POINT ( 'NONE',  ( 5.000000000000000000, 6.123233995736766282E-16, 3.000000000000000000 ) ) ;
#353 = AXIS2_PLACEMENT_3D ( 'NONE', #100, #8, #187 ) ;
#354 = LOCAL_TIME ( 17, 44, 58.00000000000000000, #102 ) ;
#355 = CARTESIAN_POINT ( 'NONE',  ( 0.000000000000000000, 0.000000000000000000, 253.0000000000000000 ) ) ;
#356 = ORIENTED_EDGE ( 'NONE', *, *, #324, .F. ) ;
#357 = ADVANCED_FACE ( 'NONE', ( #233 ), #346, .T. ) ;
#358 = ORIENTED_EDGE ( 'NONE', *, *, #288, .F. ) ;
#359 = APPLICATION_CONTEXT ( 'configuration controlled 3d designs of mechanical parts and assemblies' ) ;
#360 = AXIS2_PLACEMENT_3D ( 'NONE', #44, #308, #48 ) ;
#361 = DIRECTION ( 'NONE',  ( -1.000000000000000000, 1.224646799147353207E-16, 0.000000000000000000 ) ) ;
#362 = DIRECTION ( 'NONE',  ( 0.000000000000000000, 0.000000000000000000, 1.000000000000000000 ) ) ;
#363 = EDGE_CURVE ( 'NONE', #208, #14, #172, .T. ) ;
#364 = PERSON_AND_ORGANIZATION_ROLE ( 'creator' ) ;
#365 = CARTESIAN_POINT ( 'NONE',  ( -5.000000000000000000, 0.000000000000000000, 3.000000000000000000 ) ) ;
#366 = ORIENTED_EDGE ( 'NONE', *, *, #288, .T. ) ;
#367 = VERTEX_POINT ( 'NONE', #352 ) ;
#368 = DIRECTION ( 'NONE',  ( 0.000000000000000000, 0.000000000000000000, 1.000000000000000000 ) ) ;
#369 = ADVANCED_FACE ( 'NONE', ( #56 ), #85, .F. ) ;
#370 = CARTESIAN_POINT ( 'NONE',  ( 0.000000000000000000, 0.000000000000000000, 0.000000000000000000 ) ) ;
#371 = CARTESIAN_POINT ( 'NONE',  ( 0.000000000000000000, 0.000000000000000000, 3.000000000000000000 ) ) ;
#372 = FACE_OUTER_BOUND ( 'NONE', #335, .T. ) ;
#373 = CARTESIAN_POINT ( 'NONE',  ( 0.000000000000000000, 0.000000000000000000, 3.299999999999997158 ) ) ;
#374 = PRODUCT_DEFINITION_FORMATION_WITH_SPECIFIED_SOURCE ( 'LIBOVOLNÝ', '', #292, .NOT_KNOWN. ) ;
#375 = DIRECTION ( 'NONE',  ( 1.000000000000000000, 0.000000000000000000, 0.000000000000000000 ) ) ;
#376 = ADVANCED_FACE ( 'NONE', ( #232 ), #89, .T. ) ;
#377 = AXIS2_PLACEMENT_3D ( 'NONE', #244, #327, #271 ) ;
#378 = EDGE_CURVE ( 'NONE', #304, #58, #83, .T. ) ;
#379 = DIRECTION ( 'NONE',  ( 1.000000000000000000, 0.000000000000000000, 0.000000000000000000 ) ) ;
#380 = DIRECTION ( 'NONE',  ( 0.000000000000000000, -1.000000000000000000, 0.000000000000000000 ) ) ;
#381 = AXIS2_PLACEMENT_3D ( 'NONE', #264, #263, #317 ) ;
ENDSEC;
END-ISO-10303-21;
