ISO-10303-21;
HEADER;
FILE_DESCRIPTION (( 'STEP AP203' ),
    '1' );
FILE_NAME ('14d0.STEP',
    '2022-07-08T15:27:47',
    ( '' ),
    ( '' ),
    'SwSTEP 2.0',
    'SolidWorks 2019',
    '' );
FILE_SCHEMA (( 'CONFIG_CONTROL_DESIGN' ));
ENDSEC;

DATA;
#1 = ORIENTED_EDGE ( 'NONE', *, *, #268, .F. ) ;
#2 = AXIS2_PLACEMENT_3D ( 'NONE', #216, #334, #166 ) ;
#3 = APPROVAL ( #322, 'NEURÈENÝ' ) ;
#4 = DIRECTION ( 'NONE',  ( -1.000000000000000000, 1.224646799147351482E-16, 0.000000000000000000 ) ) ;
#5 = CALENDAR_DATE ( 2022, 8, 7 ) ;
#6 =( GEOMETRIC_REPRESENTATION_CONTEXT ( 3 ) GLOBAL_UNCERTAINTY_ASSIGNED_CONTEXT ( ( #100 ) ) GLOBAL_UNIT_ASSIGNED_CONTEXT ( ( #352, #28, #112 ) ) REPRESENTATION_CONTEXT ( 'NONE', 'WORKASPACE' ) );
#7 = DIRECTION ( 'NONE',  ( 1.000000000000000000, 0.000000000000000000, 0.000000000000000000 ) ) ;
#8 = COORDINATED_UNIVERSAL_TIME_OFFSET ( 1, 0, .AHEAD. ) ;
#9 = CARTESIAN_POINT ( 'NONE',  ( -7.000000000000000000, 0.000000000000000000, 5.000000000000000000 ) ) ;
#10 = CC_DESIGN_PERSON_AND_ORGANIZATION_ASSIGNMENT ( #208, #360, ( #312 ) ) ;
#11 = SHAPE_DEFINITION_REPRESENTATION ( #164, #15 ) ;
#12 = VERTEX_POINT ( 'NONE', #91 ) ;
#13 = ORIENTED_EDGE ( 'NONE', *, *, #321, .T. ) ;
#14 = CIRCLE ( 'NONE', #220, 2.100000000000000089 ) ;
#15 = ADVANCED_BREP_SHAPE_REPRESENTATION ( '14d0', ( #338, #39 ), #6 ) ;
#16 = LINE ( 'NONE', #187, #228 ) ;
#17 = EDGE_CURVE ( 'NONE', #98, #211, #185, .T. ) ;
#18 = DIRECTION ( 'NONE',  ( 1.000000000000000000, 0.000000000000000000, 0.000000000000000000 ) ) ;
#19 = DIRECTION ( 'NONE',  ( 1.000000000000000000, 0.000000000000000000, 0.000000000000000000 ) ) ;
#20 = VECTOR ( 'NONE', #206, 1000.000000000000000 ) ;
#21 = ORIENTED_EDGE ( 'NONE', *, *, #321, .F. ) ;
#22 = LINE ( 'NONE', #335, #77 ) ;
#23 = ORIENTED_EDGE ( 'NONE', *, *, #117, .T. ) ;
#24 = LINE ( 'NONE', #135, #45 ) ;
#25 = CC_DESIGN_APPROVAL ( #3, ( #190 ) ) ;
#26 = CARTESIAN_POINT ( 'NONE',  ( 0.000000000000000000, 0.000000000000000000, 5.000000000000000000 ) ) ;
#27 = VERTEX_POINT ( 'NONE', #122 ) ;
#28 =( NAMED_UNIT ( * ) PLANE_ANGLE_UNIT ( ) SI_UNIT ( $, .RADIAN. ) );
#29 = EDGE_CURVE ( 'NONE', #124, #372, #145, .T. ) ;
#30 = EDGE_LOOP ( 'NONE', ( #344, #94 ) ) ;
#31 = CARTESIAN_POINT ( 'NONE',  ( 0.000000000000000000, 0.000000000000000000, 230.0000000000000000 ) ) ;
#32 = AXIS2_PLACEMENT_3D ( 'NONE', #326, #72, #7 ) ;
#33 = DIRECTION ( 'NONE',  ( 1.000000000000000000, 0.000000000000000000, 0.000000000000000000 ) ) ;
#34 = EDGE_CURVE ( 'NONE', #54, #12, #182, .T. ) ;
#35 = DIRECTION ( 'NONE',  ( -1.000000000000000000, 0.000000000000000000, 0.000000000000000000 ) ) ;
#36 = PERSON_AND_ORGANIZATION ( #227, #291 ) ;
#37 = CYLINDRICAL_SURFACE ( 'NONE', #115, 2.100000000000000089 ) ;
#38 = COORDINATED_UNIVERSAL_TIME_OFFSET ( 1, 0, .AHEAD. ) ;
#39 = AXIS2_PLACEMENT_3D ( 'NONE', #118, #296, #260 ) ;
#40 = DIRECTION ( 'NONE',  ( 0.000000000000000000, 0.000000000000000000, 1.000000000000000000 ) ) ;
#41 = LOCAL_TIME ( 17, 27, 47.00000000000000000, #38 ) ;
#42 = LINE ( 'NONE', #9, #20 ) ;
#43 = CARTESIAN_POINT ( 'NONE',  ( 2.100000000000000089, 2.571758278209441957E-16, 230.0000000000000000 ) ) ;
#44 = PERSON_AND_ORGANIZATION ( #227, #291 ) ;
#45 = VECTOR ( 'NONE', #331, 1000.000000000000000 ) ;
#46 = ORIENTED_EDGE ( 'NONE', *, *, #137, .F. ) ;
#47 = EDGE_CURVE ( 'NONE', #211, #247, #74, .T. ) ;
#48 = CARTESIAN_POINT ( 'NONE',  ( 2.100000000000000089, 2.571758278209441957E-16, 0.000000000000000000 ) ) ;
#49 = APPROVAL ( #156, 'NEURÈENÝ' ) ;
#50 = CIRCLE ( 'NONE', #177, 4.500000000000000888 ) ;
#51 = LOCAL_TIME ( 17, 27, 47.00000000000000000, #269 ) ;
#52 = DIRECTION ( 'NONE',  ( 1.000000000000000000, 0.000000000000000000, 0.000000000000000000 ) ) ;
#53 = ORIENTED_EDGE ( 'NONE', *, *, #268, .T. ) ;
#54 = VERTEX_POINT ( 'NONE', #157 ) ;
#55 = CYLINDRICAL_SURFACE ( 'NONE', #201, 7.000000000000000000 ) ;
#56 = ORIENTED_EDGE ( 'NONE', *, *, #17, .F. ) ;
#57 = AXIS2_PLACEMENT_3D ( 'NONE', #270, #69, #292 ) ;
#58 = DIRECTION ( 'NONE',  ( 0.000000000000000000, 0.000000000000000000, 1.000000000000000000 ) ) ;
#59 = EDGE_LOOP ( 'NONE', ( #224, #136 ) ) ;
#60 = CYLINDRICAL_SURFACE ( 'NONE', #377, 2.100000000000000089 ) ;
#61 = CARTESIAN_POINT ( 'NONE',  ( 0.000000000000000000, 0.000000000000000000, 0.000000000000000000 ) ) ;
#62 = CIRCLE ( 'NONE', #126, 4.000000000000000000 ) ;
#63 = DIRECTION ( 'NONE',  ( -0.000000000000000000, -0.000000000000000000, -1.000000000000000000 ) ) ;
#64 = PERSON_AND_ORGANIZATION_ROLE ( 'design_owner' ) ;
#65 = EDGE_CURVE ( 'NONE', #124, #274, #42, .T. ) ;
#66 = PERSON_AND_ORGANIZATION_ROLE ( 'creator' ) ;
#67 = CARTESIAN_POINT ( 'NONE',  ( -7.000000000000000000, 0.000000000000000000, 5.000000000000000000 ) ) ;
#68 = AXIS2_PLACEMENT_3D ( 'NONE', #213, #181, #290 ) ;
#69 = DIRECTION ( 'NONE',  ( -0.000000000000000000, -0.000000000000000000, -1.000000000000000000 ) ) ;
#70 = APPROVAL_DATE_TIME ( #362, #49 ) ;
#71 = FACE_BOUND ( 'NONE', #139, .T. ) ;
#72 = DIRECTION ( 'NONE',  ( 0.000000000000000000, 0.000000000000000000, 1.000000000000000000 ) ) ;
#73 = CYLINDRICAL_SURFACE ( 'NONE', #2, 4.000000000000000000 ) ;
#74 = CIRCLE ( 'NONE', #57, 2.100000000000000089 ) ;
#75 = SECURITY_CLASSIFICATION ( '', '', #293 ) ;
#76 = CARTESIAN_POINT ( 'NONE',  ( -4.500000000000000888, 5.510910596163088569E-16, 5.000000000000002665 ) ) ;
#77 = VECTOR ( 'NONE', #376, 1000.000000000000000 ) ;
#78 = ORIENTED_EDGE ( 'NONE', *, *, #245, .T. ) ;
#79 = FACE_OUTER_BOUND ( 'NONE', #252, .T. ) ;
#80 = FACE_OUTER_BOUND ( 'NONE', #374, .T. ) ;
#81 = VERTEX_POINT ( 'NONE', #99 ) ;
#82 = DIRECTION ( 'NONE',  ( -1.000000000000000000, 0.000000000000000000, 0.000000000000000000 ) ) ;
#83 = ORIENTED_EDGE ( 'NONE', *, *, #183, .T. ) ;
#84 = AXIS2_PLACEMENT_3D ( 'NONE', #140, #251, #4 ) ;
#85 = FACE_OUTER_BOUND ( 'NONE', #378, .T. ) ;
#86 = DIRECTION ( 'NONE',  ( -0.000000000000000000, -0.000000000000000000, -1.000000000000000000 ) ) ;
#87 = DIRECTION ( 'NONE',  ( 1.000000000000000000, 0.000000000000000000, 0.000000000000000000 ) ) ;
#88 = AXIS2_PLACEMENT_3D ( 'NONE', #265, #263, #153 ) ;
#89 = COORDINATED_UNIVERSAL_TIME_OFFSET ( 1, 0, .AHEAD. ) ;
#90 = APPROVAL_STATUS ( 'not_yet_approved' ) ;
#91 = CARTESIAN_POINT ( 'NONE',  ( -4.000000000000000000, 0.000000000000000000, 230.0000000000000000 ) ) ;
#92 = ADVANCED_FACE ( 'NONE', ( #71, #155 ), #235, .F. ) ;
#93 = CALENDAR_DATE ( 2022, 8, 7 ) ;
#94 = ORIENTED_EDGE ( 'NONE', *, *, #149, .F. ) ;
#95 = AXIS2_PLACEMENT_3D ( 'NONE', #212, #189, #367 ) ;
#96 = PERSON_AND_ORGANIZATION ( #227, #291 ) ;
#97 = EDGE_CURVE ( 'NONE', #372, #347, #16, .T. ) ;
#98 = VERTEX_POINT ( 'NONE', #43 ) ;
#99 = CARTESIAN_POINT ( 'NONE',  ( 4.500000000000000888, 0.000000000000000000, 5.000000000000002665 ) ) ;
#100 = UNCERTAINTY_MEASURE_WITH_UNIT (LENGTH_MEASURE( 1.000000000000000082E-05 ), #352, 'distance_accuracy_value', 'NONE');
#101 = DIRECTION ( 'NONE',  ( -1.000000000000000000, 0.000000000000000000, 0.000000000000000000 ) ) ;
#102 = CIRCLE ( 'NONE', #95, 2.100000000000000089 ) ;
#103 = CC_DESIGN_PERSON_AND_ORGANIZATION_ASSIGNMENT ( #148, #64, ( #113 ) ) ;
#104 = PLANE ( 'NONE',  #369 ) ;
#105 = EDGE_LOOP ( 'NONE', ( #111, #200, #1, #336 ) ) ;
#106 = DIRECTION ( 'NONE',  ( 1.000000000000000000, 0.000000000000000000, -0.000000000000000000 ) ) ;
#107 = CIRCLE ( 'NONE', #68, 0.5000000000000004441 ) ;
#108 = CYLINDRICAL_SURFACE ( 'NONE', #233, 4.000000000000000000 ) ;
#109 = ORIENTED_EDGE ( 'NONE', *, *, #137, .T. ) ;
#110 = DIRECTION ( 'NONE',  ( -0.000000000000000000, -0.000000000000000000, -1.000000000000000000 ) ) ;
#111 = ORIENTED_EDGE ( 'NONE', *, *, #162, .F. ) ;
#112 =( NAMED_UNIT ( * ) SI_UNIT ( $, .STERADIAN. ) SOLID_ANGLE_UNIT ( ) );
#113 = PRODUCT ( '14d0', '14d0', '', ( #289 ) ) ;
#114 = ADVANCED_FACE ( 'NONE', ( #128 ), #37, .F. ) ;
#115 = AXIS2_PLACEMENT_3D ( 'NONE', #127, #366, #359 ) ;
#116 = CC_DESIGN_SECURITY_CLASSIFICATION ( #75, ( #312 ) ) ;
#117 = EDGE_CURVE ( 'NONE', #217, #98, #102, .T. ) ;
#118 = CARTESIAN_POINT ( 'NONE',  ( 0.000000000000000000, 0.000000000000000000, 0.000000000000000000 ) ) ;
#119 = CLOSED_SHELL ( 'NONE', ( #114, #273, #248, #375, #332, #173, #92, #240, #357, #231, #381 ) ) ;
#120 = AXIS2_PLACEMENT_3D ( 'NONE', #26, #204, #318 ) ;
#121 = PERSON_AND_ORGANIZATION ( #227, #291 ) ;
#122 = CARTESIAN_POINT ( 'NONE',  ( -4.000000000000000000, 0.000000000000000000, 5.500000000000005329 ) ) ;
#123 = CALENDAR_DATE ( 2022, 8, 7 ) ;
#124 = VERTEX_POINT ( 'NONE', #67 ) ;
#125 = EDGE_CURVE ( 'NONE', #323, #81, #107, .T. ) ;
#126 = AXIS2_PLACEMENT_3D ( 'NONE', #300, #302, #371 ) ;
#127 = CARTESIAN_POINT ( 'NONE',  ( 0.000000000000000000, 0.000000000000000000, 230.0000000000000000 ) ) ;
#128 = FACE_OUTER_BOUND ( 'NONE', #283, .T. ) ;
#129 = EDGE_CURVE ( 'NONE', #274, #347, #327, .T. ) ;
#130 = CARTESIAN_POINT ( 'NONE',  ( -4.000000000000000000, 0.000000000000000000, 230.0000000000000000 ) ) ;
#131 = CIRCLE ( 'NONE', #132, 4.500000000000000888 ) ;
#132 = AXIS2_PLACEMENT_3D ( 'NONE', #138, #192, #19 ) ;
#133 = FACE_OUTER_BOUND ( 'NONE', #59, .T. ) ;
#134 = ORIENTED_EDGE ( 'NONE', *, *, #353, .T. ) ;
#135 = CARTESIAN_POINT ( 'NONE',  ( 4.000000000000000000, 4.898587196589412829E-16, 230.0000000000000000 ) ) ;
#136 = ORIENTED_EDGE ( 'NONE', *, *, #314, .T. ) ;
#137 = EDGE_CURVE ( 'NONE', #217, #247, #22, .T. ) ;
#138 = CARTESIAN_POINT ( 'NONE',  ( 0.000000000000000000, 0.000000000000000000, 5.000000000000000000 ) ) ;
#139 = EDGE_LOOP ( 'NONE', ( #202, #278 ) ) ;
#140 = CARTESIAN_POINT ( 'NONE',  ( -4.500000000000000888, 5.510910596163089556E-16, 5.500000000000005329 ) ) ;
#141 = EDGE_LOOP ( 'NONE', ( #53, #13 ) ) ;
#142 = CARTESIAN_POINT ( 'NONE',  ( 0.000000000000000000, 0.000000000000000000, 5.000000000000000000 ) ) ;
#143 = ORIENTED_EDGE ( 'NONE', *, *, #207, .T. ) ;
#144 = CARTESIAN_POINT ( 'NONE',  ( 7.000000000000000000, 8.572527594031473190E-16, 5.000000000000000000 ) ) ;
#145 = CIRCLE ( 'NONE', #298, 7.000000000000000000 ) ;
#146 = CIRCLE ( 'NONE', #364, 7.000000000000000000 ) ;
#147 = DIRECTION ( 'NONE',  ( -0.000000000000000000, -0.000000000000000000, -1.000000000000000000 ) ) ;
#148 = PERSON_AND_ORGANIZATION ( #227, #291 ) ;
#149 = EDGE_CURVE ( 'NONE', #98, #217, #266, .T. ) ;
#150 = CIRCLE ( 'NONE', #195, 4.000000000000000000 ) ;
#151 = LOCAL_TIME ( 17, 27, 47.00000000000000000, #8 ) ;
#152 = PERSON_AND_ORGANIZATION ( #227, #291 ) ;
#153 = DIRECTION ( 'NONE',  ( 1.000000000000000000, 0.000000000000000000, -0.000000000000000000 ) ) ;
#154 = APPROVAL_DATE_TIME ( #236, #271 ) ;
#155 = FACE_OUTER_BOUND ( 'NONE', #170, .T. ) ;
#156 = APPROVAL_STATUS ( 'not_yet_approved' ) ;
#157 = CARTESIAN_POINT ( 'NONE',  ( 4.000000000000000000, 4.898587196589412829E-16, 230.0000000000000000 ) ) ;
#158 = APPROVAL_ROLE ( '' ) ;
#159 = AXIS2_PLACEMENT_3D ( 'NONE', #31, #58, #288 ) ;
#160 = ORIENTED_EDGE ( 'NONE', *, *, #162, .T. ) ;
#161 = DIRECTION ( 'NONE',  ( -0.000000000000000000, -0.000000000000000000, -1.000000000000000000 ) ) ;
#162 = EDGE_CURVE ( 'NONE', #27, #323, #62, .T. ) ;
#163 = FACE_OUTER_BOUND ( 'NONE', #282, .T. ) ;
#164 = PRODUCT_DEFINITION_SHAPE ( 'NONE', 'NONE',  #190 ) ;
#165 = CIRCLE ( 'NONE', #279, 4.000000000000000000 ) ;
#166 = DIRECTION ( 'NONE',  ( -1.000000000000000000, 0.000000000000000000, 0.000000000000000000 ) ) ;
#167 = FACE_OUTER_BOUND ( 'NONE', #244, .T. ) ;
#168 = ORIENTED_EDGE ( 'NONE', *, *, #325, .F. ) ;
#169 = CARTESIAN_POINT ( 'NONE',  ( -7.000000000000000000, 0.000000000000000000, 0.000000000000000000 ) ) ;
#170 = EDGE_LOOP ( 'NONE', ( #197, #246 ) ) ;
#171 = CARTESIAN_POINT ( 'NONE',  ( 0.000000000000000000, 0.000000000000000000, 5.500000000000005329 ) ) ;
#172 = ORIENTED_EDGE ( 'NONE', *, *, #34, .F. ) ;
#173 = ADVANCED_FACE ( 'NONE', ( #215, #133 ), #104, .T. ) ;
#174 = FACE_BOUND ( 'NONE', #30, .T. ) ;
#175 = DIRECTION ( 'NONE',  ( 0.000000000000000000, 0.000000000000000000, 1.000000000000000000 ) ) ;
#176 = DIRECTION ( 'NONE',  ( 0.000000000000000000, 0.000000000000000000, -1.000000000000000000 ) ) ;
#177 = AXIS2_PLACEMENT_3D ( 'NONE', #142, #110, #230 ) ;
#178 = CARTESIAN_POINT ( 'NONE',  ( 7.000000000000000000, 8.572527594031473190E-16, 0.000000000000000000 ) ) ;
#179 = APPLICATION_CONTEXT ( 'configuration controlled 3d designs of mechanical parts and assemblies' ) ;
#180 = CALENDAR_DATE ( 2022, 8, 7 ) ;
#181 = DIRECTION ( 'NONE',  ( 0.000000000000000000, -1.000000000000000000, 0.000000000000000000 ) ) ;
#182 = CIRCLE ( 'NONE', #32, 4.000000000000000000 ) ;
#183 = EDGE_CURVE ( 'NONE', #12, #27, #191, .T. ) ;
#184 = PERSON_AND_ORGANIZATION_ROLE ( 'design_supplier' ) ;
#185 = LINE ( 'NONE', #329, #238 ) ;
#186 = DATE_AND_TIME ( #93, #348 ) ;
#187 = CARTESIAN_POINT ( 'NONE',  ( 7.000000000000000000, 8.572527594031473190E-16, 5.000000000000000000 ) ) ;
#188 = DESIGN_CONTEXT ( 'detailed design', #310, 'design' ) ;
#189 = DIRECTION ( 'NONE',  ( 0.000000000000000000, 0.000000000000000000, 1.000000000000000000 ) ) ;
#190 = PRODUCT_DEFINITION ( 'NEZNÁMÝ', '', #312, #188 ) ;
#191 = LINE ( 'NONE', #130, #259 ) ;
#192 = DIRECTION ( 'NONE',  ( -0.000000000000000000, -0.000000000000000000, -1.000000000000000000 ) ) ;
#193 = CARTESIAN_POINT ( 'NONE',  ( 0.000000000000000000, 0.000000000000000000, 230.0000000000000000 ) ) ;
#194 = CC_DESIGN_DATE_AND_TIME_ASSIGNMENT ( #257, #365, ( #190 ) ) ;
#195 = AXIS2_PLACEMENT_3D ( 'NONE', #171, #315, #350 ) ;
#196 = CARTESIAN_POINT ( 'NONE',  ( 0.000000000000000000, 0.000000000000000000, 230.0000000000000000 ) ) ;
#197 = ORIENTED_EDGE ( 'NONE', *, *, #129, .F. ) ;
#198 = FACE_OUTER_BOUND ( 'NONE', #105, .T. ) ;
#199 = VERTEX_POINT ( 'NONE', #76 ) ;
#200 = ORIENTED_EDGE ( 'NONE', *, *, #325, .T. ) ;
#201 = AXIS2_PLACEMENT_3D ( 'NONE', #308, #147, #35 ) ;
#202 = ORIENTED_EDGE ( 'NONE', *, *, #353, .F. ) ;
#203 = PLANE ( 'NONE',  #159 ) ;
#204 = DIRECTION ( 'NONE',  ( 0.000000000000000000, 0.000000000000000000, 1.000000000000000000 ) ) ;
#205 = PERSON_AND_ORGANIZATION ( #227, #291 ) ;
#206 = DIRECTION ( 'NONE',  ( -0.000000000000000000, -0.000000000000000000, -1.000000000000000000 ) ) ;
#207 = EDGE_CURVE ( 'NONE', #12, #54, #165, .T. ) ;
#208 = PERSON_AND_ORGANIZATION ( #227, #291 ) ;
#209 = CARTESIAN_POINT ( 'NONE',  ( 0.000000000000000000, 0.000000000000000000, 5.000000000000000000 ) ) ;
#210 = TOROIDAL_SURFACE ( 'NONE', #311, 4.500000000000000888, 0.5000000000000000000 ) ;
#211 = VERTEX_POINT ( 'NONE', #48 ) ;
#212 = CARTESIAN_POINT ( 'NONE',  ( 0.000000000000000000, 0.000000000000000000, 230.0000000000000000 ) ) ;
#213 = CARTESIAN_POINT ( 'NONE',  ( 4.500000000000000888, 0.000000000000000000, 5.500000000000005329 ) ) ;
#214 = AXIS2_PLACEMENT_3D ( 'NONE', #223, #63, #379 ) ;
#215 = FACE_BOUND ( 'NONE', #141, .T. ) ;
#216 = CARTESIAN_POINT ( 'NONE',  ( 0.000000000000000000, 0.000000000000000000, 230.0000000000000000 ) ) ;
#217 = VERTEX_POINT ( 'NONE', #243 ) ;
#218 = CARTESIAN_POINT ( 'NONE',  ( 0.000000000000000000, 0.000000000000000000, 230.0000000000000000 ) ) ;
#219 = ORIENTED_EDGE ( 'NONE', *, *, #97, .T. ) ;
#220 = AXIS2_PLACEMENT_3D ( 'NONE', #354, #86, #284 ) ;
#221 = CARTESIAN_POINT ( 'NONE',  ( -2.100000000000000089, 0.000000000000000000, 0.000000000000000000 ) ) ;
#222 = ORIENTED_EDGE ( 'NONE', *, *, #17, .T. ) ;
#223 = CARTESIAN_POINT ( 'NONE',  ( 0.000000000000000000, 0.000000000000000000, 5.000000000000000000 ) ) ;
#224 = ORIENTED_EDGE ( 'NONE', *, *, #29, .T. ) ;
#225 = CARTESIAN_POINT ( 'NONE',  ( 4.000000000000000000, 4.898587196589412829E-16, 5.500000000000005329 ) ) ;
#226 = ORIENTED_EDGE ( 'NONE', *, *, #149, .T. ) ;
#227 = PERSON ( 'NEURÈENÝ', 'NEURÈENÝ', 'NEURÈENÝ', ('NEURÈENÝ'), ('NEURÈENÝ'), ('NEURÈENÝ') ) ;
#228 = VECTOR ( 'NONE', #294, 1000.000000000000000 ) ;
#229 = ORIENTED_EDGE ( 'NONE', *, *, #307, .F. ) ;
#230 = DIRECTION ( 'NONE',  ( 1.000000000000000000, 0.000000000000000000, 0.000000000000000000 ) ) ;
#231 = ADVANCED_FACE ( 'NONE', ( #163 ), #286, .F. ) ;
#232 = CALENDAR_DATE ( 2022, 8, 7 ) ;
#233 = AXIS2_PLACEMENT_3D ( 'NONE', #193, #272, #101 ) ;
#234 = PERSON_AND_ORGANIZATION_ROLE ( 'classification_officer' ) ;
#235 = PLANE ( 'NONE',  #88 ) ;
#236 = DATE_AND_TIME ( #180, #356 ) ;
#237 = EDGE_LOOP ( 'NONE', ( #143, #253 ) ) ;
#238 = VECTOR ( 'NONE', #258, 1000.000000000000000 ) ;
#239 = AXIS2_PLACEMENT_3D ( 'NONE', #196, #368, #249 ) ;
#240 = ADVANCED_FACE ( 'NONE', ( #167 ), #108, .T. ) ;
#241 = ORIENTED_EDGE ( 'NONE', *, *, #65, .T. ) ;
#242 = DIRECTION ( 'NONE',  ( 1.000000000000000000, 0.000000000000000000, 0.000000000000000000 ) ) ;
#243 = CARTESIAN_POINT ( 'NONE',  ( -2.100000000000000089, 0.000000000000000000, 230.0000000000000000 ) ) ;
#244 = EDGE_LOOP ( 'NONE', ( #250, #309, #83, #160 ) ) ;
#245 = EDGE_CURVE ( 'NONE', #54, #323, #24, .T. ) ;
#246 = ORIENTED_EDGE ( 'NONE', *, *, #341, .F. ) ;
#247 = VERTEX_POINT ( 'NONE', #221 ) ;
#248 = ADVANCED_FACE ( 'NONE', ( #79 ), #73, .T. ) ;
#249 = DIRECTION ( 'NONE',  ( 1.000000000000000000, 0.000000000000000000, 0.000000000000000000 ) ) ;
#250 = ORIENTED_EDGE ( 'NONE', *, *, #245, .F. ) ;
#251 = DIRECTION ( 'NONE',  ( 1.224646799147353207E-16, 1.000000000000000000, -0.000000000000000000 ) ) ;
#252 = EDGE_LOOP ( 'NONE', ( #172, #78, #316, #330 ) ) ;
#253 = ORIENTED_EDGE ( 'NONE', *, *, #34, .T. ) ;
#254 = FACE_OUTER_BOUND ( 'NONE', #297, .T. ) ;
#255 = APPLICATION_PROTOCOL_DEFINITION ( 'international standard', 'config_control_design', 1994, #179 ) ;
#256 = CARTESIAN_POINT ( 'NONE',  ( 0.000000000000000000, 0.000000000000000000, 0.000000000000000000 ) ) ;
#257 = DATE_AND_TIME ( #232, #41 ) ;
#258 = DIRECTION ( 'NONE',  ( 0.000000000000000000, 0.000000000000000000, -1.000000000000000000 ) ) ;
#259 = VECTOR ( 'NONE', #161, 1000.000000000000000 ) ;
#260 = DIRECTION ( 'NONE',  ( 1.000000000000000000, 0.000000000000000000, 0.000000000000000000 ) ) ;
#261 = DIRECTION ( 'NONE',  ( 1.000000000000000000, 0.000000000000000000, 0.000000000000000000 ) ) ;
#262 = APPROVAL_ROLE ( '' ) ;
#263 = DIRECTION ( 'NONE',  ( 0.000000000000000000, 0.000000000000000000, 1.000000000000000000 ) ) ;
#264 = APPLICATION_PROTOCOL_DEFINITION ( 'international standard', 'config_control_design', 1994, #310 ) ;
#265 = CARTESIAN_POINT ( 'NONE',  ( 0.000000000000000000, 0.000000000000000000, 0.000000000000000000 ) ) ;
#266 = CIRCLE ( 'NONE', #239, 2.100000000000000089 ) ;
#267 = CC_DESIGN_APPROVAL ( #271, ( #75 ) ) ;
#268 = EDGE_CURVE ( 'NONE', #81, #199, #131, .T. ) ;
#269 = COORDINATED_UNIVERSAL_TIME_OFFSET ( 1, 0, .AHEAD. ) ;
#270 = CARTESIAN_POINT ( 'NONE',  ( 0.000000000000000000, 0.000000000000000000, 0.000000000000000000 ) ) ;
#271 = APPROVAL ( #90, 'NEURÈENÝ' ) ;
#272 = DIRECTION ( 'NONE',  ( -0.000000000000000000, -0.000000000000000000, -1.000000000000000000 ) ) ;
#273 = ADVANCED_FACE ( 'NONE', ( #198 ), #210, .F. ) ;
#274 = VERTEX_POINT ( 'NONE', #169 ) ;
#275 = CC_DESIGN_DATE_AND_TIME_ASSIGNMENT ( #355, #358, ( #75 ) ) ;
#276 = ORIENTED_EDGE ( 'NONE', *, *, #125, .T. ) ;
#277 = CARTESIAN_POINT ( 'NONE',  ( 0.000000000000000000, 0.000000000000000000, 5.500000000000005329 ) ) ;
#278 = ORIENTED_EDGE ( 'NONE', *, *, #47, .F. ) ;
#279 = AXIS2_PLACEMENT_3D ( 'NONE', #218, #337, #18 ) ;
#280 = DIRECTION ( 'NONE',  ( 0.000000000000000000, 0.000000000000000000, 1.000000000000000000 ) ) ;
#281 = APPROVAL_PERSON_ORGANIZATION ( #205, #271, #320 ) ;
#282 = EDGE_LOOP ( 'NONE', ( #168, #229, #276, #21 ) ) ;
#283 = EDGE_LOOP ( 'NONE', ( #23, #222, #361, #46 ) ) ;
#284 = DIRECTION ( 'NONE',  ( 1.000000000000000000, 0.000000000000000000, 0.000000000000000000 ) ) ;
#285 = DIRECTION ( 'NONE',  ( 0.000000000000000000, 0.000000000000000000, 1.000000000000000000 ) ) ;
#286 = TOROIDAL_SURFACE ( 'NONE', #339, 4.500000000000000888, 0.5000000000000000000 ) ;
#287 = APPROVAL_PERSON_ORGANIZATION ( #152, #49, #158 ) ;
#288 = DIRECTION ( 'NONE',  ( 1.000000000000000000, 0.000000000000000000, -0.000000000000000000 ) ) ;
#289 = MECHANICAL_CONTEXT ( 'NONE', #179, 'mechanical' ) ;
#290 = DIRECTION ( 'NONE',  ( 0.000000000000000000, 0.000000000000000000, -1.000000000000000000 ) ) ;
#291 = ORGANIZATION ( 'NEURÈENÝ', 'NEURÈENÝ', '' ) ;
#292 = DIRECTION ( 'NONE',  ( 1.000000000000000000, 0.000000000000000000, 0.000000000000000000 ) ) ;
#293 = SECURITY_CLASSIFICATION_LEVEL ( 'unclassified' ) ;
#294 = DIRECTION ( 'NONE',  ( -0.000000000000000000, -0.000000000000000000, -1.000000000000000000 ) ) ;
#295 = CC_DESIGN_PERSON_AND_ORGANIZATION_ASSIGNMENT ( #36, #66, ( #190 ) ) ;
#296 = DIRECTION ( 'NONE',  ( 0.000000000000000000, 0.000000000000000000, 1.000000000000000000 ) ) ;
#297 = EDGE_LOOP ( 'NONE', ( #313, #219, #306, #342 ) ) ;
#298 = AXIS2_PLACEMENT_3D ( 'NONE', #209, #40, #242 ) ;
#299 = CC_DESIGN_APPROVAL ( #49, ( #312 ) ) ;
#300 = CARTESIAN_POINT ( 'NONE',  ( 0.000000000000000000, 0.000000000000000000, 5.500000000000005329 ) ) ;
#301 = CARTESIAN_POINT ( 'NONE',  ( 0.000000000000000000, 0.000000000000000000, 5.000000000000000000 ) ) ;
#302 = DIRECTION ( 'NONE',  ( 0.000000000000000000, 0.000000000000000000, 1.000000000000000000 ) ) ;
#303 = CIRCLE ( 'NONE', #120, 7.000000000000000000 ) ;
#304 = DIRECTION ( 'NONE',  ( 0.000000000000000000, 0.000000000000000000, 1.000000000000000000 ) ) ;
#305 = PRODUCT_RELATED_PRODUCT_CATEGORY ( 'detail', '', ( #113 ) ) ;
#306 = ORIENTED_EDGE ( 'NONE', *, *, #341, .T. ) ;
#307 = EDGE_CURVE ( 'NONE', #323, #27, #150, .T. ) ;
#308 = CARTESIAN_POINT ( 'NONE',  ( 0.000000000000000000, 0.000000000000000000, 5.000000000000000000 ) ) ;
#309 = ORIENTED_EDGE ( 'NONE', *, *, #207, .F. ) ;
#310 = APPLICATION_CONTEXT ( 'configuration controlled 3d designs of mechanical parts and assemblies' ) ;
#311 = AXIS2_PLACEMENT_3D ( 'NONE', #277, #280, #87 ) ;
#312 = PRODUCT_DEFINITION_FORMATION_WITH_SPECIFIED_SOURCE ( 'LIBOVOLNÝ', '', #113, .NOT_KNOWN. ) ;
#313 = ORIENTED_EDGE ( 'NONE', *, *, #314, .F. ) ;
#314 = EDGE_CURVE ( 'NONE', #372, #124, #303, .T. ) ;
#315 = DIRECTION ( 'NONE',  ( 0.000000000000000000, 0.000000000000000000, 1.000000000000000000 ) ) ;
#316 = ORIENTED_EDGE ( 'NONE', *, *, #307, .T. ) ;
#317 = CYLINDRICAL_SURFACE ( 'NONE', #214, 7.000000000000000000 ) ;
#318 = DIRECTION ( 'NONE',  ( 1.000000000000000000, 0.000000000000000000, 0.000000000000000000 ) ) ;
#319 = CIRCLE ( 'NONE', #84, 0.5000000000000004441 ) ;
#320 = APPROVAL_ROLE ( '' ) ;
#321 = EDGE_CURVE ( 'NONE', #199, #81, #50, .T. ) ;
#322 = APPROVAL_STATUS ( 'not_yet_approved' ) ;
#323 = VERTEX_POINT ( 'NONE', #225 ) ;
#324 = COORDINATED_UNIVERSAL_TIME_OFFSET ( 1, 0, .AHEAD. ) ;
#325 = EDGE_CURVE ( 'NONE', #27, #199, #319, .T. ) ;
#326 = CARTESIAN_POINT ( 'NONE',  ( 0.000000000000000000, 0.000000000000000000, 230.0000000000000000 ) ) ;
#327 = CIRCLE ( 'NONE', #333, 7.000000000000000000 ) ;
#328 = APPROVAL_DATE_TIME ( #186, #3 ) ;
#329 = CARTESIAN_POINT ( 'NONE',  ( 2.100000000000000089, 2.571758278209441957E-16, 230.0000000000000000 ) ) ;
#330 = ORIENTED_EDGE ( 'NONE', *, *, #183, .F. ) ;
#331 = DIRECTION ( 'NONE',  ( -0.000000000000000000, -0.000000000000000000, -1.000000000000000000 ) ) ;
#332 = ADVANCED_FACE ( 'NONE', ( #85 ), #317, .T. ) ;
#333 = AXIS2_PLACEMENT_3D ( 'NONE', #61, #175, #261 ) ;
#334 = DIRECTION ( 'NONE',  ( -0.000000000000000000, -0.000000000000000000, -1.000000000000000000 ) ) ;
#335 = CARTESIAN_POINT ( 'NONE',  ( -2.100000000000000089, 0.000000000000000000, 230.0000000000000000 ) ) ;
#336 = ORIENTED_EDGE ( 'NONE', *, *, #125, .F. ) ;
#337 = DIRECTION ( 'NONE',  ( 0.000000000000000000, 0.000000000000000000, 1.000000000000000000 ) ) ;
#338 = MANIFOLD_SOLID_BREP ( 'Odebrat vysunutím3', #119 ) ;
#339 = AXIS2_PLACEMENT_3D ( 'NONE', #340, #304, #52 ) ;
#340 = CARTESIAN_POINT ( 'NONE',  ( 0.000000000000000000, 0.000000000000000000, 5.500000000000005329 ) ) ;
#341 = EDGE_CURVE ( 'NONE', #347, #274, #146, .T. ) ;
#342 = ORIENTED_EDGE ( 'NONE', *, *, #65, .F. ) ;
#343 = FACE_OUTER_BOUND ( 'NONE', #237, .T. ) ;
#344 = ORIENTED_EDGE ( 'NONE', *, *, #117, .F. ) ;
#345 = CARTESIAN_POINT ( 'NONE',  ( 0.000000000000000000, 0.000000000000000000, 230.0000000000000000 ) ) ;
#346 = CC_DESIGN_PERSON_AND_ORGANIZATION_ASSIGNMENT ( #44, #184, ( #312 ) ) ;
#347 = VERTEX_POINT ( 'NONE', #178 ) ;
#348 = LOCAL_TIME ( 17, 27, 47.00000000000000000, #89 ) ;
#349 = APPROVAL_PERSON_ORGANIZATION ( #96, #3, #262 ) ;
#350 = DIRECTION ( 'NONE',  ( 1.000000000000000000, 0.000000000000000000, 0.000000000000000000 ) ) ;
#351 = ORIENTED_EDGE ( 'NONE', *, *, #29, .F. ) ;
#352 =( LENGTH_UNIT ( ) NAMED_UNIT ( * ) SI_UNIT ( .MILLI., .METRE. ) );
#353 = EDGE_CURVE ( 'NONE', #247, #211, #14, .T. ) ;
#354 = CARTESIAN_POINT ( 'NONE',  ( 0.000000000000000000, 0.000000000000000000, 0.000000000000000000 ) ) ;
#355 = DATE_AND_TIME ( #123, #51 ) ;
#356 = LOCAL_TIME ( 17, 27, 47.00000000000000000, #324 ) ;
#357 = ADVANCED_FACE ( 'NONE', ( #174, #343 ), #203, .T. ) ;
#358 = DATE_TIME_ROLE ( 'classification_date' ) ;
#359 = DIRECTION ( 'NONE',  ( -1.000000000000000000, 0.000000000000000000, 0.000000000000000000 ) ) ;
#360 = PERSON_AND_ORGANIZATION_ROLE ( 'creator' ) ;
#361 = ORIENTED_EDGE ( 'NONE', *, *, #47, .T. ) ;
#362 = DATE_AND_TIME ( #5, #151 ) ;
#363 = ORIENTED_EDGE ( 'NONE', *, *, #129, .T. ) ;
#364 = AXIS2_PLACEMENT_3D ( 'NONE', #256, #285, #33 ) ;
#365 = DATE_TIME_ROLE ( 'creation_date' ) ;
#366 = DIRECTION ( 'NONE',  ( 0.000000000000000000, 0.000000000000000000, -1.000000000000000000 ) ) ;
#367 = DIRECTION ( 'NONE',  ( 1.000000000000000000, 0.000000000000000000, 0.000000000000000000 ) ) ;
#368 = DIRECTION ( 'NONE',  ( 0.000000000000000000, 0.000000000000000000, 1.000000000000000000 ) ) ;
#369 = AXIS2_PLACEMENT_3D ( 'NONE', #301, #373, #106 ) ;
#370 = ORIENTED_EDGE ( 'NONE', *, *, #97, .F. ) ;
#371 = DIRECTION ( 'NONE',  ( 1.000000000000000000, 0.000000000000000000, 0.000000000000000000 ) ) ;
#372 = VERTEX_POINT ( 'NONE', #144 ) ;
#373 = DIRECTION ( 'NONE',  ( 0.000000000000000000, 0.000000000000000000, 1.000000000000000000 ) ) ;
#374 = EDGE_LOOP ( 'NONE', ( #56, #226, #109, #134 ) ) ;
#375 = ADVANCED_FACE ( 'NONE', ( #254 ), #55, .T. ) ;
#376 = DIRECTION ( 'NONE',  ( 0.000000000000000000, 0.000000000000000000, -1.000000000000000000 ) ) ;
#377 = AXIS2_PLACEMENT_3D ( 'NONE', #345, #176, #82 ) ;
#378 = EDGE_LOOP ( 'NONE', ( #370, #351, #241, #363 ) ) ;
#379 = DIRECTION ( 'NONE',  ( -1.000000000000000000, 0.000000000000000000, 0.000000000000000000 ) ) ;
#380 = CC_DESIGN_PERSON_AND_ORGANIZATION_ASSIGNMENT ( #121, #234, ( #75 ) ) ;
#381 = ADVANCED_FACE ( 'NONE', ( #80 ), #60, .F. ) ;
ENDSEC;
END-ISO-10303-21;
