ISO-10303-21;
HEADER;
FILE_DESCRIPTION (( 'STEP AP203' ),
    '1' );
FILE_NAME ('0761.STEP',
    '2022-07-08T15:31:26',
    ( '' ),
    ( '' ),
    'SwSTEP 2.0',
    'SolidWorks 2019',
    '' );
FILE_SCHEMA (( 'CONFIG_CONTROL_DESIGN' ));
ENDSEC;

DATA;
#1 = DESIGN_CONTEXT ( 'detailed design', #357, 'design' ) ;
#2 = CARTESIAN_POINT ( 'NONE',  ( 0.000000000000000000, 0.000000000000000000, 5.500000000000005329 ) ) ;
#3 = CC_DESIGN_PERSON_AND_ORGANIZATION_ASSIGNMENT ( #141, #147, ( #145 ) ) ;
#4 = ADVANCED_FACE ( 'NONE', ( #294 ), #346, .F. ) ;
#5 = LOCAL_TIME ( 17, 31, 26.00000000000000000, #380 ) ;
#6 = FACE_BOUND ( 'NONE', #108, .T. ) ;
#7 = VERTEX_POINT ( 'NONE', #93 ) ;
#8 = FACE_BOUND ( 'NONE', #191, .T. ) ;
#9 = DIRECTION ( 'NONE',  ( 0.000000000000000000, 0.000000000000000000, 1.000000000000000000 ) ) ;
#10 = DIRECTION ( 'NONE',  ( 0.000000000000000000, 0.000000000000000000, 1.000000000000000000 ) ) ;
#11 = CARTESIAN_POINT ( 'NONE',  ( 0.000000000000000000, 0.000000000000000000, 255.0000000000000000 ) ) ;
#12 = ORIENTED_EDGE ( 'NONE', *, *, #217, .F. ) ;
#13 = ADVANCED_FACE ( 'NONE', ( #230, #351 ), #315, .F. ) ;
#14 = AXIS2_PLACEMENT_3D ( 'NONE', #100, #127, #186 ) ;
#15 = DIRECTION ( 'NONE',  ( 0.000000000000000000, 0.000000000000000000, 1.000000000000000000 ) ) ;
#16 = CC_DESIGN_SECURITY_CLASSIFICATION ( #98, ( #158 ) ) ;
#17 = ORIENTED_EDGE ( 'NONE', *, *, #242, .T. ) ;
#18 = DIRECTION ( 'NONE',  ( 1.000000000000000000, 0.000000000000000000, 0.000000000000000000 ) ) ;
#19 = ORIENTED_EDGE ( 'NONE', *, *, #169, .T. ) ;
#20 = APPLICATION_PROTOCOL_DEFINITION ( 'international standard', 'config_control_design', 1994, #334 ) ;
#21 = ORIENTED_EDGE ( 'NONE', *, *, #29, .F. ) ;
#22 = PERSON_AND_ORGANIZATION ( #201, #316 ) ;
#23 = VERTEX_POINT ( 'NONE', #321 ) ;
#24 = APPROVAL_PERSON_ORGANIZATION ( #341, #131, #289 ) ;
#25 = COORDINATED_UNIVERSAL_TIME_OFFSET ( 1, 0, .AHEAD. ) ;
#26 = DIRECTION ( 'NONE',  ( 1.000000000000000000, 0.000000000000000000, -0.000000000000000000 ) ) ;
#27 = CALENDAR_DATE ( 2022, 8, 7 ) ;
#28 = EDGE_LOOP ( 'NONE', ( #287, #76 ) ) ;
#29 = EDGE_CURVE ( 'NONE', #319, #241, #290, .T. ) ;
#30 = APPROVAL_STATUS ( 'not_yet_approved' ) ;
#31 = VECTOR ( 'NONE', #335, 1000.000000000000000 ) ;
#32 = EDGE_CURVE ( 'NONE', #156, #82, #126, .T. ) ;
#33 = DIRECTION ( 'NONE',  ( 1.000000000000000000, 0.000000000000000000, 0.000000000000000000 ) ) ;
#34 = CARTESIAN_POINT ( 'NONE',  ( -7.000000000000000000, 0.000000000000000000, 5.000000000000000000 ) ) ;
#35 = DIRECTION ( 'NONE',  ( -1.000000000000000000, 0.000000000000000000, 0.000000000000000000 ) ) ;
#36 = EDGE_CURVE ( 'NONE', #84, #349, #133, .T. ) ;
#37 = CIRCLE ( 'NONE', #245, 7.000000000000000000 ) ;
#38 = FACE_OUTER_BOUND ( 'NONE', #280, .T. ) ;
#39 = DIRECTION ( 'NONE',  ( 1.224646799147353207E-16, 1.000000000000000000, -0.000000000000000000 ) ) ;
#40 = CARTESIAN_POINT ( 'NONE',  ( -2.000000000000000000, 0.000000000000000000, 0.000000000000000000 ) ) ;
#41 = VECTOR ( 'NONE', #121, 1000.000000000000000 ) ;
#42 = AXIS2_PLACEMENT_3D ( 'NONE', #107, #219, #190 ) ;
#43 = DIRECTION ( 'NONE',  ( -1.000000000000000000, 0.000000000000000000, 0.000000000000000000 ) ) ;
#44 = CARTESIAN_POINT ( 'NONE',  ( 7.000000000000000000, 8.572527594031473190E-16, 0.000000000000000000 ) ) ;
#45 = CC_DESIGN_DATE_AND_TIME_ASSIGNMENT ( #376, #60, ( #145 ) ) ;
#46 = ORIENTED_EDGE ( 'NONE', *, *, #157, .T. ) ;
#47 = EDGE_CURVE ( 'NONE', #241, #319, #226, .T. ) ;
#48 = CARTESIAN_POINT ( 'NONE',  ( 0.000000000000000000, 0.000000000000000000, 5.500000000000005329 ) ) ;
#49 = EDGE_CURVE ( 'NONE', #319, #220, #322, .T. ) ;
#50 = DIRECTION ( 'NONE',  ( 0.000000000000000000, 0.000000000000000000, 1.000000000000000000 ) ) ;
#51 = CIRCLE ( 'NONE', #256, 4.000000000000000000 ) ;
#52 = AXIS2_PLACEMENT_3D ( 'NONE', #277, #15, #187 ) ;
#53 = DIRECTION ( 'NONE',  ( 0.000000000000000000, 0.000000000000000000, 1.000000000000000000 ) ) ;
#54 = ORIENTED_EDGE ( 'NONE', *, *, #326, .F. ) ;
#55 = PERSON_AND_ORGANIZATION_ROLE ( 'design_supplier' ) ;
#56 = AXIS2_PLACEMENT_3D ( 'NONE', #152, #261, #89 ) ;
#57 = CC_DESIGN_DATE_AND_TIME_ASSIGNMENT ( #114, #224, ( #98 ) ) ;
#58 = DIRECTION ( 'NONE',  ( 0.000000000000000000, 0.000000000000000000, -1.000000000000000000 ) ) ;
#59 =( NAMED_UNIT ( * ) PLANE_ANGLE_UNIT ( ) SI_UNIT ( $, .RADIAN. ) );
#60 = DATE_TIME_ROLE ( 'creation_date' ) ;
#61 = PERSON_AND_ORGANIZATION ( #201, #316 ) ;
#62 = CARTESIAN_POINT ( 'NONE',  ( 0.000000000000000000, 0.000000000000000000, 5.000000000000000000 ) ) ;
#63 = AXIS2_PLACEMENT_3D ( 'NONE', #318, #92, #378 ) ;
#64 = APPROVAL ( #317, 'NEURÈENÝ' ) ;
#65 = DATE_AND_TIME ( #260, #184 ) ;
#66 = PRODUCT ( '0761', '0761', '', ( #88 ) ) ;
#67 = DIRECTION ( 'NONE',  ( 1.000000000000000000, 0.000000000000000000, 0.000000000000000000 ) ) ;
#68 = DIRECTION ( 'NONE',  ( -1.000000000000000000, 0.000000000000000000, 0.000000000000000000 ) ) ;
#69 = CARTESIAN_POINT ( 'NONE',  ( 0.000000000000000000, 0.000000000000000000, 255.0000000000000000 ) ) ;
#70 = CC_DESIGN_APPROVAL ( #232, ( #158 ) ) ;
#71 = CARTESIAN_POINT ( 'NONE',  ( -4.000000000000000000, 0.000000000000000000, 255.0000000000000000 ) ) ;
#72 = CYLINDRICAL_SURFACE ( 'NONE', #116, 4.000000000000000000 ) ;
#73 = CLOSED_SHELL ( 'NONE', ( #4, #138, #113, #358, #159, #74, #13, #314, #180, #302, #264 ) ) ;
#74 = ADVANCED_FACE ( 'NONE', ( #6, #155 ), #124, .T. ) ;
#75 = CARTESIAN_POINT ( 'NONE',  ( 7.000000000000000000, 8.572527594031473190E-16, 5.000000000000000000 ) ) ;
#76 = ORIENTED_EDGE ( 'NONE', *, *, #32, .T. ) ;
#77 = CC_DESIGN_PERSON_AND_ORGANIZATION_ASSIGNMENT ( #149, #257, ( #158 ) ) ;
#78 = EDGE_CURVE ( 'NONE', #23, #248, #198, .T. ) ;
#79 = CARTESIAN_POINT ( 'NONE',  ( -7.000000000000000000, 0.000000000000000000, 0.000000000000000000 ) ) ;
#80 = ORIENTED_EDGE ( 'NONE', *, *, #311, .F. ) ;
#81 = CARTESIAN_POINT ( 'NONE',  ( -2.000000000000000000, 0.000000000000000000, 255.0000000000000000 ) ) ;
#82 = VERTEX_POINT ( 'NONE', #71 ) ;
#83 = CARTESIAN_POINT ( 'NONE',  ( -4.500000000000000888, 5.510910596163088569E-16, 5.000000000000002665 ) ) ;
#84 = VERTEX_POINT ( 'NONE', #183 ) ;
#85 = CARTESIAN_POINT ( 'NONE',  ( 0.000000000000000000, 0.000000000000000000, 0.000000000000000000 ) ) ;
#86 = CIRCLE ( 'NONE', #367, 7.000000000000000000 ) ;
#87 = ORIENTED_EDGE ( 'NONE', *, *, #242, .F. ) ;
#88 = MECHANICAL_CONTEXT ( 'NONE', #334, 'mechanical' ) ;
#89 = DIRECTION ( 'NONE',  ( 1.000000000000000000, 0.000000000000000000, 0.000000000000000000 ) ) ;
#90 = PERSON_AND_ORGANIZATION ( #201, #316 ) ;
#91 = EDGE_LOOP ( 'NONE', ( #225, #54 ) ) ;
#92 = DIRECTION ( 'NONE',  ( 0.000000000000000000, 0.000000000000000000, 1.000000000000000000 ) ) ;
#93 = CARTESIAN_POINT ( 'NONE',  ( -4.000000000000000000, 0.000000000000000000, 5.500000000000005329 ) ) ;
#94 = DATE_AND_TIME ( #174, #221 ) ;
#95 = ORIENTED_EDGE ( 'NONE', *, *, #251, .F. ) ;
#96 = ORIENTED_EDGE ( 'NONE', *, *, #239, .F. ) ;
#97 = DIRECTION ( 'NONE',  ( 1.000000000000000000, 0.000000000000000000, 0.000000000000000000 ) ) ;
#98 = SECURITY_CLASSIFICATION ( '', '', #284 ) ;
#99 = UNCERTAINTY_MEASURE_WITH_UNIT (LENGTH_MEASURE( 1.000000000000000082E-05 ), #254, 'distance_accuracy_value', 'NONE');
#100 = CARTESIAN_POINT ( 'NONE',  ( 0.000000000000000000, 0.000000000000000000, 5.000000000000000000 ) ) ;
#101 = DIRECTION ( 'NONE',  ( -1.000000000000000000, 1.224646799147351482E-16, 0.000000000000000000 ) ) ;
#102 = SHAPE_DEFINITION_REPRESENTATION ( #320, #276 ) ;
#103 = CARTESIAN_POINT ( 'NONE',  ( 0.000000000000000000, 0.000000000000000000, 5.000000000000000000 ) ) ;
#104 = VECTOR ( 'NONE', #214, 1000.000000000000000 ) ;
#105 = DIRECTION ( 'NONE',  ( 1.000000000000000000, 0.000000000000000000, 0.000000000000000000 ) ) ;
#106 = CARTESIAN_POINT ( 'NONE',  ( 0.000000000000000000, 0.000000000000000000, 255.0000000000000000 ) ) ;
#107 = CARTESIAN_POINT ( 'NONE',  ( 0.000000000000000000, 0.000000000000000000, 5.000000000000000000 ) ) ;
#108 = EDGE_LOOP ( 'NONE', ( #17, #244 ) ) ;
#109 = LINE ( 'NONE', #330, #179 ) ;
#110 = DIRECTION ( 'NONE',  ( 1.000000000000000000, 0.000000000000000000, 0.000000000000000000 ) ) ;
#111 = DIRECTION ( 'NONE',  ( -1.000000000000000000, 0.000000000000000000, 0.000000000000000000 ) ) ;
#112 = CC_DESIGN_APPROVAL ( #64, ( #98 ) ) ;
#113 = ADVANCED_FACE ( 'NONE', ( #38 ), #72, .T. ) ;
#114 = DATE_AND_TIME ( #374, #347 ) ;
#115 = ORIENTED_EDGE ( 'NONE', *, *, #326, .T. ) ;
#116 = AXIS2_PLACEMENT_3D ( 'NONE', #235, #354, #35 ) ;
#117 = ORIENTED_EDGE ( 'NONE', *, *, #251, .T. ) ;
#118 = APPLICATION_PROTOCOL_DEFINITION ( 'international standard', 'config_control_design', 1994, #357 ) ;
#119 = PRODUCT_RELATED_PRODUCT_CATEGORY ( 'detail', '', ( #66 ) ) ;
#120 = AXIS2_PLACEMENT_3D ( 'NONE', #144, #58, #291 ) ;
#121 = DIRECTION ( 'NONE',  ( -0.000000000000000000, -0.000000000000000000, -1.000000000000000000 ) ) ;
#122 = APPROVAL_PERSON_ORGANIZATION ( #90, #64, #286 ) ;
#123 = CC_DESIGN_PERSON_AND_ORGANIZATION_ASSIGNMENT ( #22, #142, ( #98 ) ) ;
#124 = PLANE ( 'NONE',  #14 ) ;
#125 = ORIENTED_EDGE ( 'NONE', *, *, #239, .T. ) ;
#126 = CIRCLE ( 'NONE', #56, 4.000000000000000000 ) ;
#127 = DIRECTION ( 'NONE',  ( 0.000000000000000000, 0.000000000000000000, 1.000000000000000000 ) ) ;
#128 = AXIS2_PLACEMENT_3D ( 'NONE', #69, #9, #163 ) ;
#129 = AXIS2_PLACEMENT_3D ( 'NONE', #134, #189, #212 ) ;
#130 = CYLINDRICAL_SURFACE ( 'NONE', #353, 7.000000000000000000 ) ;
#131 = APPROVAL ( #30, 'NEURÈENÝ' ) ;
#132 = CARTESIAN_POINT ( 'NONE',  ( 2.000000000000000000, 2.449293598294706414E-16, 0.000000000000000000 ) ) ;
#133 = CIRCLE ( 'NONE', #262, 0.5000000000000004441 ) ;
#134 = CARTESIAN_POINT ( 'NONE',  ( 0.000000000000000000, 0.000000000000000000, 5.000000000000000000 ) ) ;
#135 = MANIFOLD_SOLID_BREP ( 'Odebrat vysunutím3', #73 ) ;
#136 = LINE ( 'NONE', #167, #31 ) ;
#137 = ORIENTED_EDGE ( 'NONE', *, *, #157, .F. ) ;
#138 = ADVANCED_FACE ( 'NONE', ( #160 ), #273, .F. ) ;
#139 = CARTESIAN_POINT ( 'NONE',  ( 0.000000000000000000, 0.000000000000000000, 0.000000000000000000 ) ) ;
#140 = ORIENTED_EDGE ( 'NONE', *, *, #32, .F. ) ;
#141 = PERSON_AND_ORGANIZATION ( #201, #316 ) ;
#142 = PERSON_AND_ORGANIZATION_ROLE ( 'classification_officer' ) ;
#143 =( GEOMETRIC_REPRESENTATION_CONTEXT ( 3 ) GLOBAL_UNCERTAINTY_ASSIGNED_CONTEXT ( ( #99 ) ) GLOBAL_UNIT_ASSIGNED_CONTEXT ( ( #254, #59, #350 ) ) REPRESENTATION_CONTEXT ( 'NONE', 'WORKASPACE' ) );
#144 = CARTESIAN_POINT ( 'NONE',  ( 0.000000000000000000, 0.000000000000000000, 255.0000000000000000 ) ) ;
#145 = PRODUCT_DEFINITION ( 'NEZNÁMÝ', '', #158, #1 ) ;
#146 = DIRECTION ( 'NONE',  ( -0.000000000000000000, -0.000000000000000000, -1.000000000000000000 ) ) ;
#147 = PERSON_AND_ORGANIZATION_ROLE ( 'creator' ) ;
#148 = VERTEX_POINT ( 'NONE', #40 ) ;
#149 = PERSON_AND_ORGANIZATION ( #201, #316 ) ;
#150 = ORIENTED_EDGE ( 'NONE', *, *, #233, .F. ) ;
#151 = AXIS2_PLACEMENT_3D ( 'NONE', #272, #307, #329 ) ;
#152 = CARTESIAN_POINT ( 'NONE',  ( 0.000000000000000000, 0.000000000000000000, 255.0000000000000000 ) ) ;
#153 = CARTESIAN_POINT ( 'NONE',  ( 4.000000000000000000, 4.898587196589412829E-16, 255.0000000000000000 ) ) ;
#154 = EDGE_CURVE ( 'NONE', #84, #7, #51, .T. ) ;
#155 = FACE_OUTER_BOUND ( 'NONE', #297, .T. ) ;
#156 = VERTEX_POINT ( 'NONE', #153 ) ;
#157 = EDGE_CURVE ( 'NONE', #241, #306, #324, .T. ) ;
#158 = PRODUCT_DEFINITION_FORMATION_WITH_SPECIFIED_SOURCE ( 'LIBOVOLNÝ', '', #66, .NOT_KNOWN. ) ;
#159 = ADVANCED_FACE ( 'NONE', ( #325 ), #356, .T. ) ;
#160 = FACE_OUTER_BOUND ( 'NONE', #308, .T. ) ;
#161 = AXIS2_PLACEMENT_3D ( 'NONE', #208, #299, #67 ) ;
#162 = AXIS2_PLACEMENT_3D ( 'NONE', #205, #231, #362 ) ;
#163 = DIRECTION ( 'NONE',  ( 1.000000000000000000, 0.000000000000000000, -0.000000000000000000 ) ) ;
#164 = FACE_OUTER_BOUND ( 'NONE', #375, .T. ) ;
#165 = ORIENTED_EDGE ( 'NONE', *, *, #47, .T. ) ;
#166 = DIRECTION ( 'NONE',  ( -0.000000000000000000, -0.000000000000000000, -1.000000000000000000 ) ) ;
#167 = CARTESIAN_POINT ( 'NONE',  ( -2.000000000000000000, 0.000000000000000000, 255.0000000000000000 ) ) ;
#168 = DIRECTION ( 'NONE',  ( 1.000000000000000000, 0.000000000000000000, 0.000000000000000000 ) ) ;
#169 = EDGE_CURVE ( 'NONE', #7, #303, #360, .T. ) ;
#170 = FACE_OUTER_BOUND ( 'NONE', #333, .T. ) ;
#171 = EDGE_LOOP ( 'NONE', ( #96, #285 ) ) ;
#172 = APPROVAL_STATUS ( 'not_yet_approved' ) ;
#173 = ORIENTED_EDGE ( 'NONE', *, *, #253, .F. ) ;
#174 = CALENDAR_DATE ( 2022, 8, 7 ) ;
#175 = CARTESIAN_POINT ( 'NONE',  ( 0.000000000000000000, 0.000000000000000000, 0.000000000000000000 ) ) ;
#176 = APPROVAL_DATE_TIME ( #343, #131 ) ;
#177 = ORIENTED_EDGE ( 'NONE', *, *, #217, .T. ) ;
#178 = COORDINATED_UNIVERSAL_TIME_OFFSET ( 1, 0, .AHEAD. ) ;
#179 = VECTOR ( 'NONE', #166, 1000.000000000000000 ) ;
#180 = ADVANCED_FACE ( 'NONE', ( #8, #210 ), #207, .T. ) ;
#181 = CARTESIAN_POINT ( 'NONE',  ( -4.500000000000000888, 5.510910596163089556E-16, 5.500000000000005329 ) ) ;
#182 = ORIENTED_EDGE ( 'NONE', *, *, #49, .F. ) ;
#183 = CARTESIAN_POINT ( 'NONE',  ( 4.000000000000000000, 4.898587196589412829E-16, 5.500000000000005329 ) ) ;
#184 = LOCAL_TIME ( 17, 31, 26.00000000000000000, #25 ) ;
#185 = DIRECTION ( 'NONE',  ( -0.000000000000000000, -0.000000000000000000, -1.000000000000000000 ) ) ;
#186 = DIRECTION ( 'NONE',  ( 1.000000000000000000, 0.000000000000000000, -0.000000000000000000 ) ) ;
#187 = DIRECTION ( 'NONE',  ( 1.000000000000000000, 0.000000000000000000, 0.000000000000000000 ) ) ;
#188 = ORIENTED_EDGE ( 'NONE', *, *, #36, .T. ) ;
#189 = DIRECTION ( 'NONE',  ( -0.000000000000000000, -0.000000000000000000, -1.000000000000000000 ) ) ;
#190 = DIRECTION ( 'NONE',  ( 1.000000000000000000, 0.000000000000000000, 0.000000000000000000 ) ) ;
#191 = EDGE_LOOP ( 'NONE', ( #150, #344 ) ) ;
#192 = EDGE_CURVE ( 'NONE', #156, #84, #268, .T. ) ;
#193 = CYLINDRICAL_SURFACE ( 'NONE', #151, 4.000000000000000000 ) ;
#194 = AXIS2_PLACEMENT_3D ( 'NONE', #103, #185, #68 ) ;
#195 = CIRCLE ( 'NONE', #269, 4.000000000000000000 ) ;
#196 = DIRECTION ( 'NONE',  ( 0.000000000000000000, 0.000000000000000000, 1.000000000000000000 ) ) ;
#197 = ORIENTED_EDGE ( 'NONE', *, *, #78, .T. ) ;
#198 = CIRCLE ( 'NONE', #162, 2.000000000000000000 ) ;
#199 = ORIENTED_EDGE ( 'NONE', *, *, #288, .T. ) ;
#200 = CIRCLE ( 'NONE', #52, 4.000000000000000000 ) ;
#201 = PERSON ( 'NEURÈENÝ', 'NEURÈENÝ', 'NEURÈENÝ', ('NEURÈENÝ'), ('NEURÈENÝ'), ('NEURÈENÝ') ) ;
#202 = APPROVAL_DATE_TIME ( #94, #232 ) ;
#203 = DIRECTION ( 'NONE',  ( 0.000000000000000000, 0.000000000000000000, 1.000000000000000000 ) ) ;
#204 = CC_DESIGN_APPROVAL ( #131, ( #145 ) ) ;
#205 = CARTESIAN_POINT ( 'NONE',  ( 0.000000000000000000, 0.000000000000000000, 255.0000000000000000 ) ) ;
#206 = DIRECTION ( 'NONE',  ( 0.000000000000000000, 0.000000000000000000, 1.000000000000000000 ) ) ;
#207 = PLANE ( 'NONE',  #128 ) ;
#208 = CARTESIAN_POINT ( 'NONE',  ( 0.000000000000000000, 0.000000000000000000, 5.500000000000005329 ) ) ;
#209 = CIRCLE ( 'NONE', #129, 4.500000000000000888 ) ;
#210 = FACE_OUTER_BOUND ( 'NONE', #28, .T. ) ;
#211 = DIRECTION ( 'NONE',  ( 1.000000000000000000, 0.000000000000000000, 0.000000000000000000 ) ) ;
#212 = DIRECTION ( 'NONE',  ( 1.000000000000000000, 0.000000000000000000, 0.000000000000000000 ) ) ;
#213 = ORIENTED_EDGE ( 'NONE', *, *, #345, .F. ) ;
#214 = DIRECTION ( 'NONE',  ( -0.000000000000000000, -0.000000000000000000, -1.000000000000000000 ) ) ;
#215 = EDGE_LOOP ( 'NONE', ( #234, #46, #115, #182 ) ) ;
#216 = FACE_OUTER_BOUND ( 'NONE', #274, .T. ) ;
#217 = EDGE_CURVE ( 'NONE', #23, #336, #332, .T. ) ;
#218 = AXIS2_PLACEMENT_3D ( 'NONE', #295, #10, #97 ) ;
#219 = DIRECTION ( 'NONE',  ( -0.000000000000000000, -0.000000000000000000, -1.000000000000000000 ) ) ;
#220 = VERTEX_POINT ( 'NONE', #79 ) ;
#221 = LOCAL_TIME ( 17, 31, 26.00000000000000000, #227 ) ;
#222 = PERSON_AND_ORGANIZATION ( #201, #316 ) ;
#223 = ORIENTED_EDGE ( 'NONE', *, *, #288, .F. ) ;
#224 = DATE_TIME_ROLE ( 'classification_date' ) ;
#225 = ORIENTED_EDGE ( 'NONE', *, *, #323, .F. ) ;
#226 = CIRCLE ( 'NONE', #218, 7.000000000000000000 ) ;
#227 = COORDINATED_UNIVERSAL_TIME_OFFSET ( 1, 0, .AHEAD. ) ;
#228 = PERSON_AND_ORGANIZATION_ROLE ( 'design_owner' ) ;
#229 = CIRCLE ( 'NONE', #379, 2.000000000000000000 ) ;
#230 = FACE_BOUND ( 'NONE', #171, .T. ) ;
#231 = DIRECTION ( 'NONE',  ( 0.000000000000000000, 0.000000000000000000, 1.000000000000000000 ) ) ;
#232 = APPROVAL ( #172, 'NEURÈENÝ' ) ;
#233 = EDGE_CURVE ( 'NONE', #248, #23, #229, .T. ) ;
#234 = ORIENTED_EDGE ( 'NONE', *, *, #47, .F. ) ;
#235 = CARTESIAN_POINT ( 'NONE',  ( 0.000000000000000000, 0.000000000000000000, 255.0000000000000000 ) ) ;
#236 = DIRECTION ( 'NONE',  ( 1.000000000000000000, 0.000000000000000000, 0.000000000000000000 ) ) ;
#237 = AXIS2_PLACEMENT_3D ( 'NONE', #11, #304, #43 ) ;
#238 = CARTESIAN_POINT ( 'NONE',  ( 0.000000000000000000, 0.000000000000000000, 5.000000000000000000 ) ) ;
#239 = EDGE_CURVE ( 'NONE', #148, #336, #258, .T. ) ;
#240 = DIRECTION ( 'NONE',  ( 0.000000000000000000, 0.000000000000000000, 1.000000000000000000 ) ) ;
#241 = VERTEX_POINT ( 'NONE', #75 ) ;
#242 = EDGE_CURVE ( 'NONE', #349, #303, #331, .T. ) ;
#243 = CARTESIAN_POINT ( 'NONE',  ( -7.000000000000000000, 0.000000000000000000, 5.000000000000000000 ) ) ;
#244 = ORIENTED_EDGE ( 'NONE', *, *, #253, .T. ) ;
#245 = AXIS2_PLACEMENT_3D ( 'NONE', #270, #240, #18 ) ;
#246 = ORIENTED_EDGE ( 'NONE', *, *, #154, .T. ) ;
#247 = CARTESIAN_POINT ( 'NONE',  ( 0.000000000000000000, 0.000000000000000000, 0.000000000000000000 ) ) ;
#248 = VERTEX_POINT ( 'NONE', #81 ) ;
#249 = LOCAL_TIME ( 17, 31, 26.00000000000000000, #178 ) ;
#250 = COORDINATED_UNIVERSAL_TIME_OFFSET ( 1, 0, .AHEAD. ) ;
#251 = EDGE_CURVE ( 'NONE', #7, #84, #200, .T. ) ;
#252 = ORIENTED_EDGE ( 'NONE', *, *, #337, .T. ) ;
#253 = EDGE_CURVE ( 'NONE', #303, #349, #209, .T. ) ;
#254 =( LENGTH_UNIT ( ) NAMED_UNIT ( * ) SI_UNIT ( .MILLI., .METRE. ) );
#255 = ORIENTED_EDGE ( 'NONE', *, *, #169, .F. ) ;
#256 = AXIS2_PLACEMENT_3D ( 'NONE', #2, #206, #236 ) ;
#257 = PERSON_AND_ORGANIZATION_ROLE ( 'creator' ) ;
#258 = CIRCLE ( 'NONE', #278, 2.000000000000000000 ) ;
#259 = EDGE_LOOP ( 'NONE', ( #381, #177, #252, #223 ) ) ;
#260 = CALENDAR_DATE ( 2022, 8, 7 ) ;
#261 = DIRECTION ( 'NONE',  ( 0.000000000000000000, 0.000000000000000000, 1.000000000000000000 ) ) ;
#262 = AXIS2_PLACEMENT_3D ( 'NONE', #359, #265, #263 ) ;
#263 = DIRECTION ( 'NONE',  ( 0.000000000000000000, 0.000000000000000000, -1.000000000000000000 ) ) ;
#264 = ADVANCED_FACE ( 'NONE', ( #170 ), #300, .F. ) ;
#265 = DIRECTION ( 'NONE',  ( 0.000000000000000000, -1.000000000000000000, 0.000000000000000000 ) ) ;
#266 = ORIENTED_EDGE ( 'NONE', *, *, #323, .T. ) ;
#267 = APPROVAL_DATE_TIME ( #65, #64 ) ;
#268 = LINE ( 'NONE', #352, #104 ) ;
#269 = AXIS2_PLACEMENT_3D ( 'NONE', #338, #196, #310 ) ;
#270 = CARTESIAN_POINT ( 'NONE',  ( 0.000000000000000000, 0.000000000000000000, 0.000000000000000000 ) ) ;
#271 = ORIENTED_EDGE ( 'NONE', *, *, #192, .T. ) ;
#272 = CARTESIAN_POINT ( 'NONE',  ( 0.000000000000000000, 0.000000000000000000, 255.0000000000000000 ) ) ;
#273 = TOROIDAL_SURFACE ( 'NONE', #161, 4.500000000000000888, 0.5000000000000000000 ) ;
#274 = EDGE_LOOP ( 'NONE', ( #377, #213, #371, #117 ) ) ;
#275 = CC_DESIGN_PERSON_AND_ORGANIZATION_ASSIGNMENT ( #61, #228, ( #66 ) ) ;
#276 = ADVANCED_BREP_SHAPE_REPRESENTATION ( '0761', ( #135, #63 ), #143 ) ;
#277 = CARTESIAN_POINT ( 'NONE',  ( 0.000000000000000000, 0.000000000000000000, 5.500000000000005329 ) ) ;
#278 = AXIS2_PLACEMENT_3D ( 'NONE', #139, #369, #211 ) ;
#279 = DIRECTION ( 'NONE',  ( 1.000000000000000000, 0.000000000000000000, 0.000000000000000000 ) ) ;
#280 = EDGE_LOOP ( 'NONE', ( #140, #271, #246, #80 ) ) ;
#281 = CARTESIAN_POINT ( 'NONE',  ( 4.500000000000000888, 0.000000000000000000, 5.000000000000002665 ) ) ;
#282 = ORIENTED_EDGE ( 'NONE', *, *, #29, .T. ) ;
#283 = AXIS2_PLACEMENT_3D ( 'NONE', #175, #203, #26 ) ;
#284 = SECURITY_CLASSIFICATION_LEVEL ( 'unclassified' ) ;
#285 = ORIENTED_EDGE ( 'NONE', *, *, #337, .F. ) ;
#286 = APPROVAL_ROLE ( '' ) ;
#287 = ORIENTED_EDGE ( 'NONE', *, *, #345, .T. ) ;
#288 = EDGE_CURVE ( 'NONE', #248, #148, #136, .T. ) ;
#289 = APPROVAL_ROLE ( '' ) ;
#290 = CIRCLE ( 'NONE', #328, 7.000000000000000000 ) ;
#291 = DIRECTION ( 'NONE',  ( -1.000000000000000000, 0.000000000000000000, 0.000000000000000000 ) ) ;
#292 = AXIS2_PLACEMENT_3D ( 'NONE', #181, #39, #101 ) ;
#293 = VECTOR ( 'NONE', #301, 1000.000000000000000 ) ;
#294 = FACE_OUTER_BOUND ( 'NONE', #259, .T. ) ;
#295 = CARTESIAN_POINT ( 'NONE',  ( 0.000000000000000000, 0.000000000000000000, 5.000000000000000000 ) ) ;
#296 = CARTESIAN_POINT ( 'NONE',  ( 7.000000000000000000, 8.572527594031473190E-16, 5.000000000000000000 ) ) ;
#297 = EDGE_LOOP ( 'NONE', ( #282, #165 ) ) ;
#298 = APPROVAL_PERSON_ORGANIZATION ( #222, #232, #348 ) ;
#299 = DIRECTION ( 'NONE',  ( 0.000000000000000000, 0.000000000000000000, 1.000000000000000000 ) ) ;
#300 = CYLINDRICAL_SURFACE ( 'NONE', #237, 2.000000000000000000 ) ;
#301 = DIRECTION ( 'NONE',  ( 0.000000000000000000, 0.000000000000000000, -1.000000000000000000 ) ) ;
#302 = ADVANCED_FACE ( 'NONE', ( #164 ), #340, .F. ) ;
#303 = VERTEX_POINT ( 'NONE', #83 ) ;
#304 = DIRECTION ( 'NONE',  ( 0.000000000000000000, 0.000000000000000000, -1.000000000000000000 ) ) ;
#305 = VECTOR ( 'NONE', #327, 1000.000000000000000 ) ;
#306 = VERTEX_POINT ( 'NONE', #44 ) ;
#307 = DIRECTION ( 'NONE',  ( -0.000000000000000000, -0.000000000000000000, -1.000000000000000000 ) ) ;
#308 = EDGE_LOOP ( 'NONE', ( #95, #19, #87, #365 ) ) ;
#309 = AXIS2_PLACEMENT_3D ( 'NONE', #48, #53, #279 ) ;
#310 = DIRECTION ( 'NONE',  ( 1.000000000000000000, 0.000000000000000000, 0.000000000000000000 ) ) ;
#311 = EDGE_CURVE ( 'NONE', #82, #7, #109, .T. ) ;
#312 = PERSON_AND_ORGANIZATION ( #201, #316 ) ;
#313 = ORIENTED_EDGE ( 'NONE', *, *, #49, .T. ) ;
#314 = ADVANCED_FACE ( 'NONE', ( #216 ), #193, .T. ) ;
#315 = PLANE ( 'NONE',  #283 ) ;
#316 = ORGANIZATION ( 'NEURÈENÝ', 'NEURÈENÝ', '' ) ;
#317 = APPROVAL_STATUS ( 'not_yet_approved' ) ;
#318 = CARTESIAN_POINT ( 'NONE',  ( 0.000000000000000000, 0.000000000000000000, 0.000000000000000000 ) ) ;
#319 = VERTEX_POINT ( 'NONE', #243 ) ;
#320 = PRODUCT_DEFINITION_SHAPE ( 'NONE', 'NONE',  #145 ) ;
#321 = CARTESIAN_POINT ( 'NONE',  ( 2.000000000000000000, 2.449293598294706414E-16, 255.0000000000000000 ) ) ;
#322 = LINE ( 'NONE', #34, #305 ) ;
#323 = EDGE_CURVE ( 'NONE', #220, #306, #86, .T. ) ;
#324 = LINE ( 'NONE', #296, #41 ) ;
#325 = FACE_OUTER_BOUND ( 'NONE', #339, .T. ) ;
#326 = EDGE_CURVE ( 'NONE', #306, #220, #37, .T. ) ;
#327 = DIRECTION ( 'NONE',  ( -0.000000000000000000, -0.000000000000000000, -1.000000000000000000 ) ) ;
#328 = AXIS2_PLACEMENT_3D ( 'NONE', #62, #342, #33 ) ;
#329 = DIRECTION ( 'NONE',  ( -1.000000000000000000, 0.000000000000000000, 0.000000000000000000 ) ) ;
#330 = CARTESIAN_POINT ( 'NONE',  ( -4.000000000000000000, 0.000000000000000000, 255.0000000000000000 ) ) ;
#331 = CIRCLE ( 'NONE', #42, 4.500000000000000888 ) ;
#332 = LINE ( 'NONE', #364, #293 ) ;
#333 = EDGE_LOOP ( 'NONE', ( #12, #197, #199, #125 ) ) ;
#334 = APPLICATION_CONTEXT ( 'configuration controlled 3d designs of mechanical parts and assemblies' ) ;
#335 = DIRECTION ( 'NONE',  ( 0.000000000000000000, 0.000000000000000000, -1.000000000000000000 ) ) ;
#336 = VERTEX_POINT ( 'NONE', #132 ) ;
#337 = EDGE_CURVE ( 'NONE', #336, #148, #373, .T. ) ;
#338 = CARTESIAN_POINT ( 'NONE',  ( 0.000000000000000000, 0.000000000000000000, 255.0000000000000000 ) ) ;
#339 = EDGE_LOOP ( 'NONE', ( #137, #21, #313, #266 ) ) ;
#340 = TOROIDAL_SURFACE ( 'NONE', #309, 4.500000000000000888, 0.5000000000000000000 ) ;
#341 = PERSON_AND_ORGANIZATION ( #201, #316 ) ;
#342 = DIRECTION ( 'NONE',  ( 0.000000000000000000, 0.000000000000000000, 1.000000000000000000 ) ) ;
#343 = DATE_AND_TIME ( #27, #249 ) ;
#344 = ORIENTED_EDGE ( 'NONE', *, *, #78, .F. ) ;
#345 = EDGE_CURVE ( 'NONE', #82, #156, #195, .T. ) ;
#346 = CYLINDRICAL_SURFACE ( 'NONE', #120, 2.000000000000000000 ) ;
#347 = LOCAL_TIME ( 17, 31, 26.00000000000000000, #250 ) ;
#348 = APPROVAL_ROLE ( '' ) ;
#349 = VERTEX_POINT ( 'NONE', #281 ) ;
#350 =( NAMED_UNIT ( * ) SI_UNIT ( $, .STERADIAN. ) SOLID_ANGLE_UNIT ( ) );
#351 = FACE_OUTER_BOUND ( 'NONE', #91, .T. ) ;
#352 = CARTESIAN_POINT ( 'NONE',  ( 4.000000000000000000, 4.898587196589412829E-16, 255.0000000000000000 ) ) ;
#353 = AXIS2_PLACEMENT_3D ( 'NONE', #238, #146, #111 ) ;
#354 = DIRECTION ( 'NONE',  ( -0.000000000000000000, -0.000000000000000000, -1.000000000000000000 ) ) ;
#355 = CC_DESIGN_PERSON_AND_ORGANIZATION_ASSIGNMENT ( #312, #55, ( #158 ) ) ;
#356 = CYLINDRICAL_SURFACE ( 'NONE', #194, 7.000000000000000000 ) ;
#357 = APPLICATION_CONTEXT ( 'configuration controlled 3d designs of mechanical parts and assemblies' ) ;
#358 = ADVANCED_FACE ( 'NONE', ( #363 ), #130, .T. ) ;
#359 = CARTESIAN_POINT ( 'NONE',  ( 4.500000000000000888, 0.000000000000000000, 5.500000000000005329 ) ) ;
#360 = CIRCLE ( 'NONE', #292, 0.5000000000000004441 ) ;
#361 = AXIS2_PLACEMENT_3D ( 'NONE', #247, #370, #110 ) ;
#362 = DIRECTION ( 'NONE',  ( 1.000000000000000000, 0.000000000000000000, 0.000000000000000000 ) ) ;
#363 = FACE_OUTER_BOUND ( 'NONE', #215, .T. ) ;
#364 = CARTESIAN_POINT ( 'NONE',  ( 2.000000000000000000, 2.449293598294706414E-16, 255.0000000000000000 ) ) ;
#365 = ORIENTED_EDGE ( 'NONE', *, *, #36, .F. ) ;
#366 = DIRECTION ( 'NONE',  ( 0.000000000000000000, 0.000000000000000000, 1.000000000000000000 ) ) ;
#367 = AXIS2_PLACEMENT_3D ( 'NONE', #85, #50, #168 ) ;
#368 = ORIENTED_EDGE ( 'NONE', *, *, #154, .F. ) ;
#369 = DIRECTION ( 'NONE',  ( -0.000000000000000000, -0.000000000000000000, -1.000000000000000000 ) ) ;
#370 = DIRECTION ( 'NONE',  ( -0.000000000000000000, -0.000000000000000000, -1.000000000000000000 ) ) ;
#371 = ORIENTED_EDGE ( 'NONE', *, *, #311, .T. ) ;
#372 = CALENDAR_DATE ( 2022, 8, 7 ) ;
#373 = CIRCLE ( 'NONE', #361, 2.000000000000000000 ) ;
#374 = CALENDAR_DATE ( 2022, 8, 7 ) ;
#375 = EDGE_LOOP ( 'NONE', ( #255, #368, #188, #173 ) ) ;
#376 = DATE_AND_TIME ( #372, #5 ) ;
#377 = ORIENTED_EDGE ( 'NONE', *, *, #192, .F. ) ;
#378 = DIRECTION ( 'NONE',  ( 1.000000000000000000, 0.000000000000000000, 0.000000000000000000 ) ) ;
#379 = AXIS2_PLACEMENT_3D ( 'NONE', #106, #366, #105 ) ;
#380 = COORDINATED_UNIVERSAL_TIME_OFFSET ( 1, 0, .AHEAD. ) ;
#381 = ORIENTED_EDGE ( 'NONE', *, *, #233, .T. ) ;
ENDSEC;
END-ISO-10303-21;
