ISO-10303-21;
HEADER;
FILE_DESCRIPTION (( 'STEP AP203' ),
    '1' );
FILE_NAME ('089a.STEP',
    '2022-07-08T15:38:23',
    ( '' ),
    ( '' ),
    'SwSTEP 2.0',
    'SolidWorks 2019',
    '' );
FILE_SCHEMA (( 'CONFIG_CONTROL_DESIGN' ));
ENDSEC;

DATA;
#1 = FACE_OUTER_BOUND ( 'NONE', #313, .T. ) ;
#2 = CARTESIAN_POINT ( 'NONE',  ( 0.000000000000000000, 0.000000000000000000, 305.0000000000000000 ) ) ;
#3 = APPROVAL_PERSON_ORGANIZATION ( #275, #235, #192 ) ;
#4 = DIRECTION ( 'NONE',  ( 1.000000000000000000, 0.000000000000000000, 0.000000000000000000 ) ) ;
#5 = AXIS2_PLACEMENT_3D ( 'NONE', #322, #221, #271 ) ;
#6 = CARTESIAN_POINT ( 'NONE',  ( -1.750000000000000000, 0.000000000000000000, 305.0000000000000000 ) ) ;
#7 = DIRECTION ( 'NONE',  ( -1.000000000000000000, 1.224646799147354440E-16, 0.000000000000000000 ) ) ;
#8 =( LENGTH_UNIT ( ) NAMED_UNIT ( * ) SI_UNIT ( .MILLI., .METRE. ) );
#9 = CARTESIAN_POINT ( 'NONE',  ( 0.000000000000000000, 0.000000000000000000, 5.500000000000005329 ) ) ;
#10 = CARTESIAN_POINT ( 'NONE',  ( 0.000000000000000000, 0.000000000000000000, 305.0000000000000000 ) ) ;
#11 = LOCAL_TIME ( 17, 38, 23.00000000000000000, #19 ) ;
#12 = DIRECTION ( 'NONE',  ( 1.000000000000000000, 0.000000000000000000, 0.000000000000000000 ) ) ;
#13 = AXIS2_PLACEMENT_3D ( 'NONE', #219, #179, #362 ) ;
#14 = PERSON_AND_ORGANIZATION ( #182, #328 ) ;
#15 = EDGE_CURVE ( 'NONE', #121, #166, #284, .T. ) ;
#16 = CARTESIAN_POINT ( 'NONE',  ( 0.000000000000000000, 0.000000000000000000, 0.000000000000000000 ) ) ;
#17 = CARTESIAN_POINT ( 'NONE',  ( 0.000000000000000000, 0.000000000000000000, 305.0000000000000000 ) ) ;
#18 = ORIENTED_EDGE ( 'NONE', *, *, #147, .F. ) ;
#19 = COORDINATED_UNIVERSAL_TIME_OFFSET ( 1, 0, .AHEAD. ) ;
#20 = LOCAL_TIME ( 17, 38, 23.00000000000000000, #54 ) ;
#21 = EDGE_LOOP ( 'NONE', ( #122, #81 ) ) ;
#22 = AXIS2_PLACEMENT_3D ( 'NONE', #294, #264, #35 ) ;
#23 = CYLINDRICAL_SURFACE ( 'NONE', #76, 6.000000000000000888 ) ;
#24 = VERTEX_POINT ( 'NONE', #212 ) ;
#25 = CC_DESIGN_PERSON_AND_ORGANIZATION_ASSIGNMENT ( #137, #167, ( #64 ) ) ;
#26 = CYLINDRICAL_SURFACE ( 'NONE', #317, 3.000000000000000444 ) ;
#27 = EDGE_LOOP ( 'NONE', ( #162, #232, #281, #341 ) ) ;
#28 = AXIS2_PLACEMENT_3D ( 'NONE', #340, #193, #332 ) ;
#29 = ORIENTED_EDGE ( 'NONE', *, *, #288, .T. ) ;
#30 = AXIS2_PLACEMENT_3D ( 'NONE', #2, #209, #176 ) ;
#31 = EDGE_CURVE ( 'NONE', #376, #144, #124, .T. ) ;
#32 = ORIENTED_EDGE ( 'NONE', *, *, #267, .T. ) ;
#33 = EDGE_LOOP ( 'NONE', ( #18, #350, #174, #117 ) ) ;
#34 = CARTESIAN_POINT ( 'NONE',  ( 0.000000000000000000, 0.000000000000000000, 0.000000000000000000 ) ) ;
#35 = DIRECTION ( 'NONE',  ( 1.000000000000000000, 0.000000000000000000, 0.000000000000000000 ) ) ;
#36 = AXIS2_PLACEMENT_3D ( 'NONE', #371, #197, #363 ) ;
#37 = CYLINDRICAL_SURFACE ( 'NONE', #293, 1.750000000000000000 ) ;
#38 = DATE_AND_TIME ( #181, #273 ) ;
#39 = TOROIDAL_SURFACE ( 'NONE', #356, 3.500000000000000444, 0.5000000000000000000 ) ;
#40 = PERSON_AND_ORGANIZATION_ROLE ( 'creator' ) ;
#41 = DIRECTION ( 'NONE',  ( 1.000000000000000000, 0.000000000000000000, 0.000000000000000000 ) ) ;
#42 = AXIS2_PLACEMENT_3D ( 'NONE', #217, #359, #99 ) ;
#43 = DIRECTION ( 'NONE',  ( 1.224646799147353207E-16, 1.000000000000000000, -0.000000000000000000 ) ) ;
#44 = DESIGN_CONTEXT ( 'detailed design', #331, 'design' ) ;
#45 = DIRECTION ( 'NONE',  ( 1.000000000000000000, 0.000000000000000000, -0.000000000000000000 ) ) ;
#46 = AXIS2_PLACEMENT_3D ( 'NONE', #83, #62, #257 ) ;
#47 = DATE_TIME_ROLE ( 'classification_date' ) ;
#48 = CARTESIAN_POINT ( 'NONE',  ( 6.000000000000000888, 7.347880794884120722E-16, 5.000000000000000000 ) ) ;
#49 = ORIENTED_EDGE ( 'NONE', *, *, #288, .F. ) ;
#50 = DIRECTION ( 'NONE',  ( 0.000000000000000000, 0.000000000000000000, 1.000000000000000000 ) ) ;
#51 = PERSON_AND_ORGANIZATION_ROLE ( 'design_supplier' ) ;
#52 = CARTESIAN_POINT ( 'NONE',  ( 0.000000000000000000, 0.000000000000000000, 5.000000000000000000 ) ) ;
#53 = ORIENTED_EDGE ( 'NONE', *, *, #158, .F. ) ;
#54 = COORDINATED_UNIVERSAL_TIME_OFFSET ( 1, 0, .AHEAD. ) ;
#55 = LINE ( 'NONE', #107, #269 ) ;
#56 = ADVANCED_FACE ( 'NONE', ( #266 ), #126, .T. ) ;
#57 = ORIENTED_EDGE ( 'NONE', *, *, #282, .F. ) ;
#58 = CARTESIAN_POINT ( 'NONE',  ( 3.000000000000000444, 3.673940397442060361E-16, 305.0000000000000000 ) ) ;
#59 = ORIENTED_EDGE ( 'NONE', *, *, #381, .F. ) ;
#60 = AXIS2_PLACEMENT_3D ( 'NONE', #16, #364, #12 ) ;
#61 = VERTEX_POINT ( 'NONE', #71 ) ;
#62 = DIRECTION ( 'NONE',  ( 0.000000000000000000, -1.000000000000000000, 0.000000000000000000 ) ) ;
#63 = ORIENTED_EDGE ( 'NONE', *, *, #202, .F. ) ;
#64 = SECURITY_CLASSIFICATION ( '', '', #72 ) ;
#65 = EDGE_CURVE ( 'NONE', #311, #61, #330, .T. ) ;
#66 = COORDINATED_UNIVERSAL_TIME_OFFSET ( 1, 0, .AHEAD. ) ;
#67 = PERSON_AND_ORGANIZATION ( #182, #328 ) ;
#68 = DIRECTION ( 'NONE',  ( 0.000000000000000000, 0.000000000000000000, -1.000000000000000000 ) ) ;
#69 = AXIS2_PLACEMENT_3D ( 'NONE', #211, #314, #286 ) ;
#70 =( NAMED_UNIT ( * ) PLANE_ANGLE_UNIT ( ) SI_UNIT ( $, .RADIAN. ) );
#71 = CARTESIAN_POINT ( 'NONE',  ( 3.000000000000000444, 3.673940397442060361E-16, 305.0000000000000000 ) ) ;
#72 = SECURITY_CLASSIFICATION_LEVEL ( 'unclassified' ) ;
#73 = DIRECTION ( 'NONE',  ( -1.000000000000000000, 0.000000000000000000, 0.000000000000000000 ) ) ;
#74 = VERTEX_POINT ( 'NONE', #249 ) ;
#75 = CC_DESIGN_DATE_AND_TIME_ASSIGNMENT ( #185, #47, ( #64 ) ) ;
#76 = AXIS2_PLACEMENT_3D ( 'NONE', #143, #85, #90 ) ;
#77 = DATE_AND_TIME ( #139, #11 ) ;
#78 = FACE_OUTER_BOUND ( 'NONE', #33, .T. ) ;
#79 = EDGE_LOOP ( 'NONE', ( #57, #63 ) ) ;
#80 = MANIFOLD_SOLID_BREP ( 'Odebrat vysunutím3', #194 ) ;
#81 = ORIENTED_EDGE ( 'NONE', *, *, #184, .T. ) ;
#82 = AXIS2_PLACEMENT_3D ( 'NONE', #135, #367, #188 ) ;
#83 = CARTESIAN_POINT ( 'NONE',  ( 3.500000000000000444, 0.000000000000000000, 5.500000000000005329 ) ) ;
#84 = ORIENTED_EDGE ( 'NONE', *, *, #123, .F. ) ;
#85 = DIRECTION ( 'NONE',  ( -0.000000000000000000, -0.000000000000000000, -1.000000000000000000 ) ) ;
#86 = ORIENTED_EDGE ( 'NONE', *, *, #270, .F. ) ;
#87 = ADVANCED_FACE ( 'NONE', ( #155 ), #323, .F. ) ;
#88 = DIRECTION ( 'NONE',  ( -0.000000000000000000, -0.000000000000000000, -1.000000000000000000 ) ) ;
#89 = ORIENTED_EDGE ( 'NONE', *, *, #31, .F. ) ;
#90 = DIRECTION ( 'NONE',  ( -1.000000000000000000, 0.000000000000000000, 0.000000000000000000 ) ) ;
#91 = AXIS2_PLACEMENT_3D ( 'NONE', #156, #213, #357 ) ;
#92 = ORIENTED_EDGE ( 'NONE', *, *, #301, .F. ) ;
#93 = ADVANCED_FACE ( 'NONE', ( #131 ), #37, .F. ) ;
#94 = ORIENTED_EDGE ( 'NONE', *, *, #241, .F. ) ;
#95 = DIRECTION ( 'NONE',  ( 1.000000000000000000, 0.000000000000000000, -0.000000000000000000 ) ) ;
#96 = CC_DESIGN_APPROVAL ( #235, ( #170 ) ) ;
#97 = PERSON_AND_ORGANIZATION_ROLE ( 'design_owner' ) ;
#98 = ADVANCED_FACE ( 'NONE', ( #101, #127 ), #242, .F. ) ;
#99 = DIRECTION ( 'NONE',  ( 1.000000000000000000, 0.000000000000000000, 0.000000000000000000 ) ) ;
#100 = APPLICATION_CONTEXT ( 'configuration controlled 3d designs of mechanical parts and assemblies' ) ;
#101 = FACE_BOUND ( 'NONE', #79, .T. ) ;
#102 = APPROVAL_PERSON_ORGANIZATION ( #268, #207, #325 ) ;
#103 = PERSON_AND_ORGANIZATION ( #182, #328 ) ;
#104 = PLANE ( 'NONE',  #312 ) ;
#105 = PRODUCT_RELATED_PRODUCT_CATEGORY ( 'detail', '', ( #128 ) ) ;
#106 = DATE_AND_TIME ( #279, #321 ) ;
#107 = CARTESIAN_POINT ( 'NONE',  ( -1.750000000000000000, 0.000000000000000000, 305.0000000000000000 ) ) ;
#108 = VECTOR ( 'NONE', #255, 1000.000000000000000 ) ;
#109 = VECTOR ( 'NONE', #203, 1000.000000000000000 ) ;
#110 = VECTOR ( 'NONE', #289, 1000.000000000000000 ) ;
#111 = APPROVAL_DATE_TIME ( #106, #296 ) ;
#112 = DIRECTION ( 'NONE',  ( 0.000000000000000000, 0.000000000000000000, -1.000000000000000000 ) ) ;
#113 = ORIENTED_EDGE ( 'NONE', *, *, #267, .F. ) ;
#114 = FACE_OUTER_BOUND ( 'NONE', #346, .T. ) ;
#115 = ORIENTED_EDGE ( 'NONE', *, *, #65, .F. ) ;
#116 = DIRECTION ( 'NONE',  ( 1.000000000000000000, 0.000000000000000000, 0.000000000000000000 ) ) ;
#117 = ORIENTED_EDGE ( 'NONE', *, *, #381, .T. ) ;
#118 = APPROVAL_PERSON_ORGANIZATION ( #103, #296, #222 ) ;
#119 = LINE ( 'NONE', #231, #109 ) ;
#120 = EDGE_LOOP ( 'NONE', ( #53, #262, #378, #92 ) ) ;
#121 = VERTEX_POINT ( 'NONE', #215 ) ;
#122 = ORIENTED_EDGE ( 'NONE', *, *, #15, .T. ) ;
#123 = EDGE_CURVE ( 'NONE', #24, #254, #210, .T. ) ;
#124 = CIRCLE ( 'NONE', #30, 1.750000000000000000 ) ;
#125 = CARTESIAN_POINT ( 'NONE',  ( 0.000000000000000000, 0.000000000000000000, 5.500000000000005329 ) ) ;
#126 = CYLINDRICAL_SURFACE ( 'NONE', #13, 6.000000000000000888 ) ;
#127 = FACE_OUTER_BOUND ( 'NONE', #236, .T. ) ;
#128 = PRODUCT ( '089a', '089a', '', ( #177 ) ) ;
#129 = CARTESIAN_POINT ( 'NONE',  ( 1.750000000000000000, 2.143131898507868297E-16, 0.000000000000000000 ) ) ;
#130 = EDGE_CURVE ( 'NONE', #61, #311, #172, .T. ) ;
#131 = FACE_OUTER_BOUND ( 'NONE', #349, .T. ) ;
#132 = DATE_TIME_ROLE ( 'creation_date' ) ;
#133 = CIRCLE ( 'NONE', #237, 1.750000000000000000 ) ;
#134 = CC_DESIGN_PERSON_AND_ORGANIZATION_ASSIGNMENT ( #67, #40, ( #223 ) ) ;
#135 = CARTESIAN_POINT ( 'NONE',  ( 0.000000000000000000, 0.000000000000000000, 5.000000000000000000 ) ) ;
#136 = EDGE_LOOP ( 'NONE', ( #214, #115, #29, #261 ) ) ;
#137 = PERSON_AND_ORGANIZATION ( #182, #328 ) ;
#138 = CARTESIAN_POINT ( 'NONE',  ( 3.500000000000000444, 0.000000000000000000, 5.000000000000002665 ) ) ;
#139 = CALENDAR_DATE ( 2022, 8, 7 ) ;
#140 = EDGE_CURVE ( 'NONE', #254, #195, #299, .T. ) ;
#141 = CIRCLE ( 'NONE', #297, 3.500000000000000444 ) ;
#142 = FACE_BOUND ( 'NONE', #150, .T. ) ;
#143 = CARTESIAN_POINT ( 'NONE',  ( 0.000000000000000000, 0.000000000000000000, 5.000000000000000000 ) ) ;
#144 = VERTEX_POINT ( 'NONE', #327 ) ;
#145 = VERTEX_POINT ( 'NONE', #129 ) ;
#146 = CC_DESIGN_SECURITY_CLASSIFICATION ( #64, ( #170 ) ) ;
#147 = EDGE_CURVE ( 'NONE', #166, #287, #358, .T. ) ;
#148 = DIRECTION ( 'NONE',  ( -0.000000000000000000, -0.000000000000000000, -1.000000000000000000 ) ) ;
#149 = ORIENTED_EDGE ( 'NONE', *, *, #65, .T. ) ;
#150 = EDGE_LOOP ( 'NONE', ( #352, #290 ) ) ;
#151 = CIRCLE ( 'NONE', #36, 3.000000000000000444 ) ;
#152 = DIRECTION ( 'NONE',  ( -1.000000000000000000, 0.000000000000000000, 0.000000000000000000 ) ) ;
#153 = PERSON_AND_ORGANIZATION ( #182, #328 ) ;
#154 = ADVANCED_FACE ( 'NONE', ( #142, #304 ), #104, .T. ) ;
#155 = FACE_OUTER_BOUND ( 'NONE', #201, .T. ) ;
#156 = CARTESIAN_POINT ( 'NONE',  ( 0.000000000000000000, 0.000000000000000000, 0.000000000000000000 ) ) ;
#157 = CARTESIAN_POINT ( 'NONE',  ( 0.000000000000000000, 0.000000000000000000, 305.0000000000000000 ) ) ;
#158 = EDGE_CURVE ( 'NONE', #254, #24, #151, .T. ) ;
#159 = FACE_BOUND ( 'NONE', #175, .T. ) ;
#160 = CARTESIAN_POINT ( 'NONE',  ( -3.000000000000000444, 0.000000000000000000, 5.500000000000005329 ) ) ;
#161 = AXIS2_PLACEMENT_3D ( 'NONE', #183, #43, #7 ) ;
#162 = ORIENTED_EDGE ( 'NONE', *, *, #184, .F. ) ;
#163 = PERSON_AND_ORGANIZATION_ROLE ( 'creator' ) ;
#164 = ADVANCED_FACE ( 'NONE', ( #159, #114 ), #256, .T. ) ;
#165 = DIRECTION ( 'NONE',  ( 1.000000000000000000, 0.000000000000000000, 0.000000000000000000 ) ) ;
#166 = VERTEX_POINT ( 'NONE', #186 ) ;
#167 = PERSON_AND_ORGANIZATION_ROLE ( 'classification_officer' ) ;
#168 = DIRECTION ( 'NONE',  ( 0.000000000000000000, 0.000000000000000000, 1.000000000000000000 ) ) ;
#169 = ORIENTED_EDGE ( 'NONE', *, *, #130, .F. ) ;
#170 = PRODUCT_DEFINITION_FORMATION_WITH_SPECIFIED_SOURCE ( 'LIBOVOLNÝ', '', #128, .NOT_KNOWN. ) ;
#171 = DIRECTION ( 'NONE',  ( 0.000000000000000000, 0.000000000000000000, -1.000000000000000000 ) ) ;
#172 = CIRCLE ( 'NONE', #5, 3.000000000000000444 ) ;
#173 = CC_DESIGN_PERSON_AND_ORGANIZATION_ASSIGNMENT ( #14, #163, ( #170 ) ) ;
#174 = ORIENTED_EDGE ( 'NONE', *, *, #355, .T. ) ;
#175 = EDGE_LOOP ( 'NONE', ( #89, #113 ) ) ;
#176 = DIRECTION ( 'NONE',  ( 1.000000000000000000, 0.000000000000000000, 0.000000000000000000 ) ) ;
#177 = MECHANICAL_CONTEXT ( 'NONE', #100, 'mechanical' ) ;
#178 = LOCAL_TIME ( 17, 38, 23.00000000000000000, #196 ) ;
#179 = DIRECTION ( 'NONE',  ( -0.000000000000000000, -0.000000000000000000, -1.000000000000000000 ) ) ;
#180 = APPLICATION_PROTOCOL_DEFINITION ( 'international standard', 'config_control_design', 1994, #100 ) ;
#181 = CALENDAR_DATE ( 2022, 8, 7 ) ;
#182 = PERSON ( 'NEURÈENÝ', 'NEURÈENÝ', 'NEURÈENÝ', ('NEURÈENÝ'), ('NEURÈENÝ'), ('NEURÈENÝ') ) ;
#183 = CARTESIAN_POINT ( 'NONE',  ( -3.500000000000000444, 4.286263797015737088E-16, 5.500000000000005329 ) ) ;
#184 = EDGE_CURVE ( 'NONE', #166, #121, #360, .T. ) ;
#185 = DATE_AND_TIME ( #187, #20 ) ;
#186 = CARTESIAN_POINT ( 'NONE',  ( 6.000000000000000888, 7.347880794884120722E-16, 5.000000000000000000 ) ) ;
#187 = CALENDAR_DATE ( 2022, 8, 7 ) ;
#188 = DIRECTION ( 'NONE',  ( 1.000000000000000000, 0.000000000000000000, 0.000000000000000000 ) ) ;
#189 = EDGE_LOOP ( 'NONE', ( #252, #310, #239, #86 ) ) ;
#190 = CIRCLE ( 'NONE', #82, 3.500000000000000444 ) ;
#191 = ADVANCED_FACE ( 'NONE', ( #309 ), #274, .F. ) ;
#192 = APPROVAL_ROLE ( '' ) ;
#193 = DIRECTION ( 'NONE',  ( 0.000000000000000000, 0.000000000000000000, 1.000000000000000000 ) ) ;
#194 = CLOSED_SHELL ( 'NONE', ( #191, #373, #333, #56, #276, #154, #98, #305, #164, #87, #93 ) ) ;
#195 = VERTEX_POINT ( 'NONE', #370 ) ;
#196 = COORDINATED_UNIVERSAL_TIME_OFFSET ( 1, 0, .AHEAD. ) ;
#197 = DIRECTION ( 'NONE',  ( 0.000000000000000000, 0.000000000000000000, 1.000000000000000000 ) ) ;
#198 = CARTESIAN_POINT ( 'NONE',  ( 1.750000000000000000, 2.143131898507868297E-16, 305.0000000000000000 ) ) ;
#199 = AXIS2_PLACEMENT_3D ( 'NONE', #226, #338, #283 ) ;
#200 = FACE_OUTER_BOUND ( 'NONE', #136, .T. ) ;
#201 = EDGE_LOOP ( 'NONE', ( #285, #84, #292, #368 ) ) ;
#202 = EDGE_CURVE ( 'NONE', #145, #74, #318, .T. ) ;
#203 = DIRECTION ( 'NONE',  ( -0.000000000000000000, -0.000000000000000000, -1.000000000000000000 ) ) ;
#204 = PRODUCT_DEFINITION_SHAPE ( 'NONE', 'NONE',  #223 ) ;
#205 = CARTESIAN_POINT ( 'NONE',  ( 0.000000000000000000, 0.000000000000000000, 305.0000000000000000 ) ) ;
#206 = VECTOR ( 'NONE', #88, 1000.000000000000000 ) ;
#207 = APPROVAL ( #246, 'NEURÈENÝ' ) ;
#208 = CARTESIAN_POINT ( 'NONE',  ( 6.000000000000000888, 7.347880794884120722E-16, 0.000000000000000000 ) ) ;
#209 = DIRECTION ( 'NONE',  ( 0.000000000000000000, 0.000000000000000000, 1.000000000000000000 ) ) ;
#210 = CIRCLE ( 'NONE', #42, 3.000000000000000444 ) ;
#211 = CARTESIAN_POINT ( 'NONE',  ( 0.000000000000000000, 0.000000000000000000, 305.0000000000000000 ) ) ;
#212 = CARTESIAN_POINT ( 'NONE',  ( 3.000000000000000444, 3.673940397442060361E-16, 5.500000000000005329 ) ) ;
#213 = DIRECTION ( 'NONE',  ( 0.000000000000000000, 0.000000000000000000, 1.000000000000000000 ) ) ;
#214 = ORIENTED_EDGE ( 'NONE', *, *, #361, .F. ) ;
#215 = CARTESIAN_POINT ( 'NONE',  ( -6.000000000000000888, 0.000000000000000000, 5.000000000000000000 ) ) ;
#216 = EDGE_CURVE ( 'NONE', #195, #258, #190, .T. ) ;
#217 = CARTESIAN_POINT ( 'NONE',  ( 0.000000000000000000, 0.000000000000000000, 5.500000000000005329 ) ) ;
#218 =( NAMED_UNIT ( * ) SI_UNIT ( $, .STERADIAN. ) SOLID_ANGLE_UNIT ( ) );
#219 = CARTESIAN_POINT ( 'NONE',  ( 0.000000000000000000, 0.000000000000000000, 5.000000000000000000 ) ) ;
#220 = AXIS2_PLACEMENT_3D ( 'NONE', #229, #307, #165 ) ;
#221 = DIRECTION ( 'NONE',  ( 0.000000000000000000, 0.000000000000000000, 1.000000000000000000 ) ) ;
#222 = APPROVAL_ROLE ( '' ) ;
#223 = PRODUCT_DEFINITION ( 'NEZNÁMÝ', '', #170, #44 ) ;
#224 = COORDINATED_UNIVERSAL_TIME_OFFSET ( 1, 0, .AHEAD. ) ;
#225 = DIRECTION ( 'NONE',  ( 0.000000000000000000, 0.000000000000000000, -1.000000000000000000 ) ) ;
#226 = CARTESIAN_POINT ( 'NONE',  ( 0.000000000000000000, 0.000000000000000000, 305.0000000000000000 ) ) ;
#227 = AXIS2_PLACEMENT_3D ( 'NONE', #9, #247, #320 ) ;
#228 = SHAPE_DEFINITION_REPRESENTATION ( #204, #244 ) ;
#229 = CARTESIAN_POINT ( 'NONE',  ( 0.000000000000000000, 0.000000000000000000, 0.000000000000000000 ) ) ;
#230 = EDGE_CURVE ( 'NONE', #287, #308, #259, .T. ) ;
#231 = CARTESIAN_POINT ( 'NONE',  ( -6.000000000000000888, 0.000000000000000000, 5.000000000000000000 ) ) ;
#232 = ORIENTED_EDGE ( 'NONE', *, *, #147, .T. ) ;
#233 = DIRECTION ( 'NONE',  ( -0.000000000000000000, -0.000000000000000000, -1.000000000000000000 ) ) ;
#234 = ORIENTED_EDGE ( 'NONE', *, *, #361, .T. ) ;
#235 = APPROVAL ( #336, 'NEURÈENÝ' ) ;
#236 = EDGE_LOOP ( 'NONE', ( #59, #372 ) ) ;
#237 = AXIS2_PLACEMENT_3D ( 'NONE', #34, #342, #116 ) ;
#238 = CYLINDRICAL_SURFACE ( 'NONE', #69, 3.000000000000000444 ) ;
#239 = ORIENTED_EDGE ( 'NONE', *, *, #202, .T. ) ;
#240 = DIRECTION ( 'NONE',  ( 1.000000000000000000, 0.000000000000000000, 0.000000000000000000 ) ) ;
#241 = EDGE_CURVE ( 'NONE', #144, #145, #278, .T. ) ;
#242 = PLANE ( 'NONE',  #369 ) ;
#243 = DIRECTION ( 'NONE',  ( 0.000000000000000000, 0.000000000000000000, 1.000000000000000000 ) ) ;
#244 = ADVANCED_BREP_SHAPE_REPRESENTATION ( '089a', ( #80, #375 ), #351 ) ;
#245 = AXIS2_PLACEMENT_3D ( 'NONE', #10, #300, #41 ) ;
#246 = APPROVAL_STATUS ( 'not_yet_approved' ) ;
#247 = DIRECTION ( 'NONE',  ( 0.000000000000000000, 0.000000000000000000, 1.000000000000000000 ) ) ;
#248 = APPLICATION_PROTOCOL_DEFINITION ( 'international standard', 'config_control_design', 1994, #331 ) ;
#249 = CARTESIAN_POINT ( 'NONE',  ( -1.750000000000000000, 0.000000000000000000, 0.000000000000000000 ) ) ;
#250 = APPROVAL_STATUS ( 'not_yet_approved' ) ;
#251 = CIRCLE ( 'NONE', #46, 0.5000000000000004441 ) ;
#252 = ORIENTED_EDGE ( 'NONE', *, *, #31, .T. ) ;
#253 = CIRCLE ( 'NONE', #91, 6.000000000000000888 ) ;
#254 = VERTEX_POINT ( 'NONE', #160 ) ;
#255 = DIRECTION ( 'NONE',  ( -0.000000000000000000, -0.000000000000000000, -1.000000000000000000 ) ) ;
#256 = PLANE ( 'NONE',  #28 ) ;
#257 = DIRECTION ( 'NONE',  ( 0.000000000000000000, 0.000000000000000000, -1.000000000000000000 ) ) ;
#258 = VERTEX_POINT ( 'NONE', #138 ) ;
#259 = CIRCLE ( 'NONE', #220, 6.000000000000000888 ) ;
#260 = CC_DESIGN_PERSON_AND_ORGANIZATION_ASSIGNMENT ( #365, #51, ( #170 ) ) ;
#261 = ORIENTED_EDGE ( 'NONE', *, *, #158, .T. ) ;
#262 = ORIENTED_EDGE ( 'NONE', *, *, #140, .T. ) ;
#263 = CARTESIAN_POINT ( 'NONE',  ( -6.000000000000000888, 0.000000000000000000, 0.000000000000000000 ) ) ;
#264 = DIRECTION ( 'NONE',  ( 0.000000000000000000, 0.000000000000000000, 1.000000000000000000 ) ) ;
#265 = AXIS2_PLACEMENT_3D ( 'NONE', #17, #225, #73 ) ;
#266 = FACE_OUTER_BOUND ( 'NONE', #27, .T. ) ;
#267 = EDGE_CURVE ( 'NONE', #144, #376, #366, .T. ) ;
#268 = PERSON_AND_ORGANIZATION ( #182, #328 ) ;
#269 = VECTOR ( 'NONE', #171, 1000.000000000000000 ) ;
#270 = EDGE_CURVE ( 'NONE', #376, #74, #55, .T. ) ;
#271 = DIRECTION ( 'NONE',  ( 1.000000000000000000, 0.000000000000000000, 0.000000000000000000 ) ) ;
#272 = CALENDAR_DATE ( 2022, 8, 7 ) ;
#273 = LOCAL_TIME ( 17, 38, 23.00000000000000000, #66 ) ;
#274 = CYLINDRICAL_SURFACE ( 'NONE', #265, 1.750000000000000000 ) ;
#275 = PERSON_AND_ORGANIZATION ( #182, #328 ) ;
#276 = ADVANCED_FACE ( 'NONE', ( #78 ), #23, .T. ) ;
#277 = DIRECTION ( 'NONE',  ( 1.000000000000000000, 0.000000000000000000, 0.000000000000000000 ) ) ;
#278 = LINE ( 'NONE', #198, #302 ) ;
#279 = CALENDAR_DATE ( 2022, 8, 7 ) ;
#280 = AXIS2_PLACEMENT_3D ( 'NONE', #335, #168, #277 ) ;
#281 = ORIENTED_EDGE ( 'NONE', *, *, #230, .T. ) ;
#282 = EDGE_CURVE ( 'NONE', #74, #145, #133, .T. ) ;
#283 = DIRECTION ( 'NONE',  ( 1.000000000000000000, 0.000000000000000000, 0.000000000000000000 ) ) ;
#284 = CIRCLE ( 'NONE', #22, 6.000000000000000888 ) ;
#285 = ORIENTED_EDGE ( 'NONE', *, *, #140, .F. ) ;
#286 = DIRECTION ( 'NONE',  ( -1.000000000000000000, 0.000000000000000000, 0.000000000000000000 ) ) ;
#287 = VERTEX_POINT ( 'NONE', #208 ) ;
#288 = EDGE_CURVE ( 'NONE', #311, #254, #291, .T. ) ;
#289 = DIRECTION ( 'NONE',  ( -0.000000000000000000, -0.000000000000000000, -1.000000000000000000 ) ) ;
#290 = ORIENTED_EDGE ( 'NONE', *, *, #216, .T. ) ;
#291 = LINE ( 'NONE', #345, #110 ) ;
#292 = ORIENTED_EDGE ( 'NONE', *, *, #301, .T. ) ;
#293 = AXIS2_PLACEMENT_3D ( 'NONE', #157, #68, #152 ) ;
#294 = CARTESIAN_POINT ( 'NONE',  ( 0.000000000000000000, 0.000000000000000000, 5.000000000000000000 ) ) ;
#295 = ORIENTED_EDGE ( 'NONE', *, *, #130, .T. ) ;
#296 = APPROVAL ( #250, 'NEURÈENÝ' ) ;
#297 = AXIS2_PLACEMENT_3D ( 'NONE', #374, #233, #348 ) ;
#298 = DIRECTION ( 'NONE',  ( 0.000000000000000000, 0.000000000000000000, 1.000000000000000000 ) ) ;
#299 = CIRCLE ( 'NONE', #161, 0.4999999999999995559 ) ;
#300 = DIRECTION ( 'NONE',  ( 0.000000000000000000, 0.000000000000000000, 1.000000000000000000 ) ) ;
#301 = EDGE_CURVE ( 'NONE', #24, #258, #251, .T. ) ;
#302 = VECTOR ( 'NONE', #112, 1000.000000000000000 ) ;
#303 = DIRECTION ( 'NONE',  ( 0.000000000000000000, 0.000000000000000000, 1.000000000000000000 ) ) ;
#304 = FACE_OUTER_BOUND ( 'NONE', #21, .T. ) ;
#305 = ADVANCED_FACE ( 'NONE', ( #200 ), #238, .T. ) ;
#306 = CC_DESIGN_APPROVAL ( #296, ( #64 ) ) ;
#307 = DIRECTION ( 'NONE',  ( 0.000000000000000000, 0.000000000000000000, 1.000000000000000000 ) ) ;
#308 = VERTEX_POINT ( 'NONE', #263 ) ;
#309 = FACE_OUTER_BOUND ( 'NONE', #189, .T. ) ;
#310 = ORIENTED_EDGE ( 'NONE', *, *, #241, .T. ) ;
#311 = VERTEX_POINT ( 'NONE', #319 ) ;
#312 = AXIS2_PLACEMENT_3D ( 'NONE', #52, #50, #45 ) ;
#313 = EDGE_LOOP ( 'NONE', ( #169, #234, #344, #49 ) ) ;
#314 = DIRECTION ( 'NONE',  ( -0.000000000000000000, -0.000000000000000000, -1.000000000000000000 ) ) ;
#315 = LINE ( 'NONE', #58, #206 ) ;
#316 = ORIENTED_EDGE ( 'NONE', *, *, #282, .T. ) ;
#317 = AXIS2_PLACEMENT_3D ( 'NONE', #205, #148, #377 ) ;
#318 = CIRCLE ( 'NONE', #60, 1.750000000000000000 ) ;
#319 = CARTESIAN_POINT ( 'NONE',  ( -3.000000000000000444, 0.000000000000000000, 305.0000000000000000 ) ) ;
#320 = DIRECTION ( 'NONE',  ( 1.000000000000000000, 0.000000000000000000, 0.000000000000000000 ) ) ;
#321 = LOCAL_TIME ( 17, 38, 23.00000000000000000, #224 ) ;
#322 = CARTESIAN_POINT ( 'NONE',  ( 0.000000000000000000, 0.000000000000000000, 305.0000000000000000 ) ) ;
#323 = TOROIDAL_SURFACE ( 'NONE', #227, 3.500000000000000444, 0.5000000000000000000 ) ;
#324 = CC_DESIGN_DATE_AND_TIME_ASSIGNMENT ( #339, #132, ( #223 ) ) ;
#325 = APPROVAL_ROLE ( '' ) ;
#326 = APPROVAL_DATE_TIME ( #38, #207 ) ;
#327 = CARTESIAN_POINT ( 'NONE',  ( 1.750000000000000000, 2.143131898507868297E-16, 305.0000000000000000 ) ) ;
#328 = ORGANIZATION ( 'NEURÈENÝ', 'NEURÈENÝ', '' ) ;
#329 = UNCERTAINTY_MEASURE_WITH_UNIT (LENGTH_MEASURE( 1.000000000000000082E-05 ), #8, 'distance_accuracy_value', 'NONE');
#330 = CIRCLE ( 'NONE', #245, 3.000000000000000444 ) ;
#331 = APPLICATION_CONTEXT ( 'configuration controlled 3d designs of mechanical parts and assemblies' ) ;
#332 = DIRECTION ( 'NONE',  ( 1.000000000000000000, 0.000000000000000000, -0.000000000000000000 ) ) ;
#333 = ADVANCED_FACE ( 'NONE', ( #1 ), #26, .T. ) ;
#334 = APPROVAL_DATE_TIME ( #77, #235 ) ;
#335 = CARTESIAN_POINT ( 'NONE',  ( 0.000000000000000000, 0.000000000000000000, 5.000000000000000000 ) ) ;
#336 = APPROVAL_STATUS ( 'not_yet_approved' ) ;
#337 = CC_DESIGN_PERSON_AND_ORGANIZATION_ASSIGNMENT ( #153, #97, ( #128 ) ) ;
#338 = DIRECTION ( 'NONE',  ( 0.000000000000000000, 0.000000000000000000, 1.000000000000000000 ) ) ;
#339 = DATE_AND_TIME ( #272, #178 ) ;
#340 = CARTESIAN_POINT ( 'NONE',  ( 0.000000000000000000, 0.000000000000000000, 305.0000000000000000 ) ) ;
#341 = ORIENTED_EDGE ( 'NONE', *, *, #355, .F. ) ;
#342 = DIRECTION ( 'NONE',  ( -0.000000000000000000, -0.000000000000000000, -1.000000000000000000 ) ) ;
#343 = CC_DESIGN_APPROVAL ( #207, ( #223 ) ) ;
#344 = ORIENTED_EDGE ( 'NONE', *, *, #123, .T. ) ;
#345 = CARTESIAN_POINT ( 'NONE',  ( -3.000000000000000444, 0.000000000000000000, 305.0000000000000000 ) ) ;
#346 = EDGE_LOOP ( 'NONE', ( #149, #295 ) ) ;
#347 = EDGE_CURVE ( 'NONE', #258, #195, #141, .T. ) ;
#348 = DIRECTION ( 'NONE',  ( 1.000000000000000000, 0.000000000000000000, 0.000000000000000000 ) ) ;
#349 = EDGE_LOOP ( 'NONE', ( #94, #32, #380, #316 ) ) ;
#350 = ORIENTED_EDGE ( 'NONE', *, *, #15, .F. ) ;
#351 =( GEOMETRIC_REPRESENTATION_CONTEXT ( 3 ) GLOBAL_UNCERTAINTY_ASSIGNED_CONTEXT ( ( #329 ) ) GLOBAL_UNIT_ASSIGNED_CONTEXT ( ( #8, #70, #218 ) ) REPRESENTATION_CONTEXT ( 'NONE', 'WORKASPACE' ) );
#352 = ORIENTED_EDGE ( 'NONE', *, *, #347, .T. ) ;
#353 = CARTESIAN_POINT ( 'NONE',  ( 0.000000000000000000, 0.000000000000000000, 0.000000000000000000 ) ) ;
#354 = CARTESIAN_POINT ( 'NONE',  ( 0.000000000000000000, 0.000000000000000000, 0.000000000000000000 ) ) ;
#355 = EDGE_CURVE ( 'NONE', #121, #308, #119, .T. ) ;
#356 = AXIS2_PLACEMENT_3D ( 'NONE', #125, #298, #4 ) ;
#357 = DIRECTION ( 'NONE',  ( 1.000000000000000000, 0.000000000000000000, 0.000000000000000000 ) ) ;
#358 = LINE ( 'NONE', #48, #108 ) ;
#359 = DIRECTION ( 'NONE',  ( 0.000000000000000000, 0.000000000000000000, 1.000000000000000000 ) ) ;
#360 = CIRCLE ( 'NONE', #280, 6.000000000000000888 ) ;
#361 = EDGE_CURVE ( 'NONE', #61, #24, #315, .T. ) ;
#362 = DIRECTION ( 'NONE',  ( -1.000000000000000000, 0.000000000000000000, 0.000000000000000000 ) ) ;
#363 = DIRECTION ( 'NONE',  ( 1.000000000000000000, 0.000000000000000000, 0.000000000000000000 ) ) ;
#364 = DIRECTION ( 'NONE',  ( -0.000000000000000000, -0.000000000000000000, -1.000000000000000000 ) ) ;
#365 = PERSON_AND_ORGANIZATION ( #182, #328 ) ;
#366 = CIRCLE ( 'NONE', #199, 1.750000000000000000 ) ;
#367 = DIRECTION ( 'NONE',  ( -0.000000000000000000, -0.000000000000000000, -1.000000000000000000 ) ) ;
#368 = ORIENTED_EDGE ( 'NONE', *, *, #216, .F. ) ;
#369 = AXIS2_PLACEMENT_3D ( 'NONE', #354, #243, #95 ) ;
#370 = CARTESIAN_POINT ( 'NONE',  ( -3.500000000000000444, 4.286263797015737088E-16, 5.000000000000002665 ) ) ;
#371 = CARTESIAN_POINT ( 'NONE',  ( 0.000000000000000000, 0.000000000000000000, 5.500000000000005329 ) ) ;
#372 = ORIENTED_EDGE ( 'NONE', *, *, #230, .F. ) ;
#373 = ADVANCED_FACE ( 'NONE', ( #379 ), #39, .F. ) ;
#374 = CARTESIAN_POINT ( 'NONE',  ( 0.000000000000000000, 0.000000000000000000, 5.000000000000000000 ) ) ;
#375 = AXIS2_PLACEMENT_3D ( 'NONE', #353, #303, #240 ) ;
#376 = VERTEX_POINT ( 'NONE', #6 ) ;
#377 = DIRECTION ( 'NONE',  ( -1.000000000000000000, 0.000000000000000000, 0.000000000000000000 ) ) ;
#378 = ORIENTED_EDGE ( 'NONE', *, *, #347, .F. ) ;
#379 = FACE_OUTER_BOUND ( 'NONE', #120, .T. ) ;
#380 = ORIENTED_EDGE ( 'NONE', *, *, #270, .T. ) ;
#381 = EDGE_CURVE ( 'NONE', #308, #287, #253, .T. ) ;
ENDSEC;
END-ISO-10303-21;
