ISO-10303-21;
HEADER;
FILE_DESCRIPTION (( 'STEP AP203' ),
    '1' );
FILE_NAME ('5fca.STEP',
    '2022-07-08T15:18:07',
    ( '' ),
    ( '' ),
    'SwSTEP 2.0',
    'SolidWorks 2019',
    '' );
FILE_SCHEMA (( 'CONFIG_CONTROL_DESIGN' ));
ENDSEC;

DATA;
#1 = DIRECTION ( 'NONE',  ( 1.000000000000000000, 0.000000000000000000, 0.000000000000000000 ) ) ;
#2 = ORIENTED_EDGE ( 'NONE', *, *, #45, .F. ) ;
#3 = MANIFOLD_SOLID_BREP ( 'Odebrat vysunutím3', #192 ) ;
#4 = PERSON_AND_ORGANIZATION_ROLE ( 'design_owner' ) ;
#5 = CARTESIAN_POINT ( 'NONE',  ( 7.000000000000000000, 8.572527594031473190E-16, 0.000000000000000000 ) ) ;
#6 = PERSON_AND_ORGANIZATION_ROLE ( 'creator' ) ;
#7 = AXIS2_PLACEMENT_3D ( 'NONE', #264, #377, #174 ) ;
#8 = DIRECTION ( 'NONE',  ( -0.000000000000000000, -0.000000000000000000, -1.000000000000000000 ) ) ;
#9 = CC_DESIGN_PERSON_AND_ORGANIZATION_ASSIGNMENT ( #318, #6, ( #188 ) ) ;
#10 = CARTESIAN_POINT ( 'NONE',  ( 2.500000000000000000, 3.061616997868383141E-16, 0.000000000000000000 ) ) ;
#11 = DIRECTION ( 'NONE',  ( 1.000000000000000000, 0.000000000000000000, -0.000000000000000000 ) ) ;
#12 = CYLINDRICAL_SURFACE ( 'NONE', #347, 4.000000000000000000 ) ;
#13 = AXIS2_PLACEMENT_3D ( 'NONE', #244, #280, #357 ) ;
#14 = APPROVAL_ROLE ( '' ) ;
#15 = DIRECTION ( 'NONE',  ( -0.000000000000000000, -0.000000000000000000, -1.000000000000000000 ) ) ;
#16 = APPROVAL ( #243, 'NEURÈENÝ' ) ;
#17 = AXIS2_PLACEMENT_3D ( 'NONE', #25, #342, #286 ) ;
#18 = AXIS2_PLACEMENT_3D ( 'NONE', #246, #155, #126 ) ;
#19 = ADVANCED_FACE ( 'NONE', ( #33 ), #150, .T. ) ;
#20 = ORIENTED_EDGE ( 'NONE', *, *, #325, .F. ) ;
#21 = CARTESIAN_POINT ( 'NONE',  ( 0.000000000000000000, 0.000000000000000000, 0.000000000000000000 ) ) ;
#22 = CARTESIAN_POINT ( 'NONE',  ( -4.500000000000000888, 5.510910596163089556E-16, 5.499999999999949374 ) ) ;
#23 = VECTOR ( 'NONE', #274, 1000.000000000000000 ) ;
#24 = TOROIDAL_SURFACE ( 'NONE', #7, 4.500000000000000888, 0.5000000000000000000 ) ;
#25 = CARTESIAN_POINT ( 'NONE',  ( 0.000000000000000000, 0.000000000000000000, 5.000000000000000000 ) ) ;
#26 = CC_DESIGN_PERSON_AND_ORGANIZATION_ASSIGNMENT ( #122, #184, ( #341 ) ) ;
#27 = DIRECTION ( 'NONE',  ( -1.000000000000000000, 0.000000000000000000, 0.000000000000000000 ) ) ;
#28 = DIRECTION ( 'NONE',  ( 0.000000000000000000, 0.000000000000000000, 1.000000000000000000 ) ) ;
#29 = ORIENTED_EDGE ( 'NONE', *, *, #331, .F. ) ;
#30 = ORIENTED_EDGE ( 'NONE', *, *, #99, .T. ) ;
#31 = ADVANCED_FACE ( 'NONE', ( #298 ), #34, .T. ) ;
#32 = COORDINATED_UNIVERSAL_TIME_OFFSET ( 1, 0, .AHEAD. ) ;
#33 = FACE_OUTER_BOUND ( 'NONE', #229, .T. ) ;
#34 = CYLINDRICAL_SURFACE ( 'NONE', #187, 4.000000000000000000 ) ;
#35 = APPROVAL_ROLE ( '' ) ;
#36 = CARTESIAN_POINT ( 'NONE',  ( 0.000000000000000000, 0.000000000000000000, 5.499999999999949374 ) ) ;
#37 = EDGE_CURVE ( 'NONE', #240, #297, #46, .T. ) ;
#38 = CALENDAR_DATE ( 2022, 8, 7 ) ;
#39 = CIRCLE ( 'NONE', #323, 2.500000000000000000 ) ;
#40 = DIRECTION ( 'NONE',  ( 1.000000000000000000, 0.000000000000000000, 0.000000000000000000 ) ) ;
#41 = CARTESIAN_POINT ( 'NONE',  ( 4.500000000000000888, 0.000000000000000000, 5.499999999999949374 ) ) ;
#42 = DIRECTION ( 'NONE',  ( 0.000000000000000000, 0.000000000000000000, 1.000000000000000000 ) ) ;
#43 = ADVANCED_FACE ( 'NONE', ( #307, #333 ), #185, .F. ) ;
#44 = DIRECTION ( 'NONE',  ( 1.000000000000000000, 0.000000000000000000, 0.000000000000000000 ) ) ;
#45 = EDGE_CURVE ( 'NONE', #297, #240, #339, .T. ) ;
#46 = CIRCLE ( 'NONE', #73, 7.000000000000000000 ) ;
#47 = DIRECTION ( 'NONE',  ( 0.000000000000000000, 0.000000000000000000, 1.000000000000000000 ) ) ;
#48 = ORIENTED_EDGE ( 'NONE', *, *, #81, .F. ) ;
#49 = DIRECTION ( 'NONE',  ( 0.000000000000000000, 0.000000000000000000, -1.000000000000000000 ) ) ;
#50 = ORIENTED_EDGE ( 'NONE', *, *, #232, .T. ) ;
#51 = DIRECTION ( 'NONE',  ( 0.000000000000000000, 0.000000000000000000, -1.000000000000000000 ) ) ;
#52 = CC_DESIGN_DATE_AND_TIME_ASSIGNMENT ( #206, #293, ( #365 ) ) ;
#53 = ORIENTED_EDGE ( 'NONE', *, *, #109, .F. ) ;
#54 = AXIS2_PLACEMENT_3D ( 'NONE', #335, #189, #191 ) ;
#55 = CARTESIAN_POINT ( 'NONE',  ( 0.000000000000000000, 0.000000000000000000, 5.000000000000000000 ) ) ;
#56 = ORIENTED_EDGE ( 'NONE', *, *, #214, .T. ) ;
#57 = EDGE_LOOP ( 'NONE', ( #138, #346, #265, #180 ) ) ;
#58 = VERTEX_POINT ( 'NONE', #10 ) ;
#59 = CALENDAR_DATE ( 2022, 8, 7 ) ;
#60 = AXIS2_PLACEMENT_3D ( 'NONE', #198, #315, #288 ) ;
#61 = APPROVAL_PERSON_ORGANIZATION ( #163, #316, #14 ) ;
#62 = VERTEX_POINT ( 'NONE', #190 ) ;
#63 = COORDINATED_UNIVERSAL_TIME_OFFSET ( 1, 0, .AHEAD. ) ;
#64 = FACE_OUTER_BOUND ( 'NONE', #110, .T. ) ;
#65 = SECURITY_CLASSIFICATION_LEVEL ( 'unclassified' ) ;
#66 = EDGE_CURVE ( 'NONE', #324, #260, #103, .T. ) ;
#67 = CARTESIAN_POINT ( 'NONE',  ( -2.500000000000000000, 0.000000000000000000, 0.000000000000000000 ) ) ;
#68 = AXIS2_PLACEMENT_3D ( 'NONE', #301, #269, #1 ) ;
#69 = DIRECTION ( 'NONE',  ( 0.000000000000000000, 0.000000000000000000, 1.000000000000000000 ) ) ;
#70 = DIRECTION ( 'NONE',  ( 0.000000000000000000, -1.000000000000000000, 0.000000000000000000 ) ) ;
#71 = EDGE_CURVE ( 'NONE', #83, #260, #308, .T. ) ;
#72 = DIRECTION ( 'NONE',  ( 0.000000000000000000, 0.000000000000000000, 1.000000000000000000 ) ) ;
#73 = AXIS2_PLACEMENT_3D ( 'NONE', #106, #69, #219 ) ;
#74 = DIRECTION ( 'NONE',  ( 1.000000000000000000, 0.000000000000000000, 0.000000000000000000 ) ) ;
#75 = AXIS2_PLACEMENT_3D ( 'NONE', #203, #79, #74 ) ;
#76 = CC_DESIGN_PERSON_AND_ORGANIZATION_ASSIGNMENT ( #379, #355, ( #365 ) ) ;
#77 = ORIENTED_EDGE ( 'NONE', *, *, #66, .T. ) ;
#78 = AXIS2_PLACEMENT_3D ( 'NONE', #22, #120, #165 ) ;
#79 = DIRECTION ( 'NONE',  ( 0.000000000000000000, 0.000000000000000000, 1.000000000000000000 ) ) ;
#80 = ORIENTED_EDGE ( 'NONE', *, *, #186, .F. ) ;
#81 = EDGE_CURVE ( 'NONE', #224, #83, #328, .T. ) ;
#82 = DIRECTION ( 'NONE',  ( -0.000000000000000000, -0.000000000000000000, -1.000000000000000000 ) ) ;
#83 = VERTEX_POINT ( 'NONE', #132 ) ;
#84 = CARTESIAN_POINT ( 'NONE',  ( -7.000000000000000000, 0.000000000000000000, 5.000000000000000000 ) ) ;
#85 = CIRCLE ( 'NONE', #156, 2.500000000000000000 ) ;
#86 = ORIENTED_EDGE ( 'NONE', *, *, #105, .T. ) ;
#87 = VECTOR ( 'NONE', #278, 1000.000000000000000 ) ;
#88 =( GEOMETRIC_REPRESENTATION_CONTEXT ( 3 ) GLOBAL_UNCERTAINTY_ASSIGNED_CONTEXT ( ( #182 ) ) GLOBAL_UNIT_ASSIGNED_CONTEXT ( ( #320, #147, #360 ) ) REPRESENTATION_CONTEXT ( 'NONE', 'WORKASPACE' ) );
#89 = CARTESIAN_POINT ( 'NONE',  ( 2.500000000000000000, 3.061616997868383141E-16, 805.0000000000000000 ) ) ;
#90 = ADVANCED_FACE ( 'NONE', ( #153 ), #12, .T. ) ;
#91 = EDGE_LOOP ( 'NONE', ( #350, #94 ) ) ;
#92 = DATE_AND_TIME ( #130, #327 ) ;
#93 = EDGE_LOOP ( 'NONE', ( #319, #77 ) ) ;
#94 = ORIENTED_EDGE ( 'NONE', *, *, #139, .T. ) ;
#95 = AXIS2_PLACEMENT_3D ( 'NONE', #270, #289, #124 ) ;
#96 = APPROVAL_DATE_TIME ( #322, #16 ) ;
#97 = AXIS2_PLACEMENT_3D ( 'NONE', #230, #336, #375 ) ;
#98 = CYLINDRICAL_SURFACE ( 'NONE', #13, 2.500000000000000000 ) ;
#99 = EDGE_CURVE ( 'NONE', #297, #111, #212, .T. ) ;
#100 = PERSON_AND_ORGANIZATION ( #161, #157 ) ;
#101 = LINE ( 'NONE', #215, #217 ) ;
#102 = CARTESIAN_POINT ( 'NONE',  ( 7.000000000000000000, 8.572527594031473190E-16, 5.000000000000000000 ) ) ;
#103 = CIRCLE ( 'NONE', #54, 4.500000000000000888 ) ;
#104 = DIRECTION ( 'NONE',  ( -1.000000000000000000, 0.000000000000000000, 0.000000000000000000 ) ) ;
#105 = EDGE_CURVE ( 'NONE', #83, #62, #273, .T. ) ;
#106 = CARTESIAN_POINT ( 'NONE',  ( 0.000000000000000000, 0.000000000000000000, 5.000000000000000000 ) ) ;
#107 = APPROVAL_DATE_TIME ( #334, #316 ) ;
#108 = DIRECTION ( 'NONE',  ( 0.000000000000000000, 0.000000000000000000, 1.000000000000000000 ) ) ;
#109 = EDGE_CURVE ( 'NONE', #376, #177, #85, .T. ) ;
#110 = EDGE_LOOP ( 'NONE', ( #2, #30, #209, #80 ) ) ;
#111 = VERTEX_POINT ( 'NONE', #5 ) ;
#112 = DIRECTION ( 'NONE',  ( 0.000000000000000000, 0.000000000000000000, 1.000000000000000000 ) ) ;
#113 = ADVANCED_FACE ( 'NONE', ( #271 ), #133, .F. ) ;
#114 = VECTOR ( 'NONE', #49, 1000.000000000000000 ) ;
#115 = CC_DESIGN_APPROVAL ( #316, ( #341 ) ) ;
#116 = DIRECTION ( 'NONE',  ( 1.000000000000000000, 0.000000000000000000, 0.000000000000000000 ) ) ;
#117 = ORIENTED_EDGE ( 'NONE', *, *, #279, .T. ) ;
#118 = LINE ( 'NONE', #340, #114 ) ;
#119 = ORIENTED_EDGE ( 'NONE', *, *, #66, .F. ) ;
#120 = DIRECTION ( 'NONE',  ( 1.224646799147353207E-16, 1.000000000000000000, -0.000000000000000000 ) ) ;
#121 = ORIENTED_EDGE ( 'NONE', *, *, #37, .F. ) ;
#122 = PERSON_AND_ORGANIZATION ( #161, #157 ) ;
#123 = ORIENTED_EDGE ( 'NONE', *, *, #220, .T. ) ;
#124 = DIRECTION ( 'NONE',  ( -1.000000000000000000, 0.000000000000000000, 0.000000000000000000 ) ) ;
#125 = APPROVAL_ROLE ( '' ) ;
#126 = DIRECTION ( 'NONE',  ( 1.000000000000000000, 0.000000000000000000, 0.000000000000000000 ) ) ;
#127 = CC_DESIGN_PERSON_AND_ORGANIZATION_ASSIGNMENT ( #179, #4, ( #369 ) ) ;
#128 = AXIS2_PLACEMENT_3D ( 'NONE', #143, #112, #226 ) ;
#129 = DIRECTION ( 'NONE',  ( 1.000000000000000000, 0.000000000000000000, 0.000000000000000000 ) ) ;
#130 = CALENDAR_DATE ( 2022, 8, 7 ) ;
#131 = APPLICATION_CONTEXT ( 'configuration controlled 3d designs of mechanical parts and assemblies' ) ;
#132 = CARTESIAN_POINT ( 'NONE',  ( 4.000000000000000000, 4.898587196589412829E-16, 5.499999999999949374 ) ) ;
#133 = CYLINDRICAL_SURFACE ( 'NONE', #178, 2.500000000000000000 ) ;
#134 = AXIS2_PLACEMENT_3D ( 'NONE', #305, #42, #11 ) ;
#135 = AXIS2_PLACEMENT_3D ( 'NONE', #290, #142, #116 ) ;
#136 = CARTESIAN_POINT ( 'NONE',  ( 0.000000000000000000, 0.000000000000000000, 5.000000000000000000 ) ) ;
#137 = DIRECTION ( 'NONE',  ( 1.000000000000000000, 0.000000000000000000, 0.000000000000000000 ) ) ;
#138 = ORIENTED_EDGE ( 'NONE', *, *, #214, .F. ) ;
#139 = EDGE_CURVE ( 'NONE', #224, #309, #256, .T. ) ;
#140 = CARTESIAN_POINT ( 'NONE',  ( 0.000000000000000000, 0.000000000000000000, 805.0000000000000000 ) ) ;
#141 = ADVANCED_FACE ( 'NONE', ( #218 ), #98, .F. ) ;
#142 = DIRECTION ( 'NONE',  ( -0.000000000000000000, -0.000000000000000000, -1.000000000000000000 ) ) ;
#143 = CARTESIAN_POINT ( 'NONE',  ( 0.000000000000000000, 0.000000000000000000, 0.000000000000000000 ) ) ;
#144 = DIRECTION ( 'NONE',  ( -0.000000000000000000, -0.000000000000000000, -1.000000000000000000 ) ) ;
#145 = PLANE ( 'NONE',  #164 ) ;
#146 = ORIENTED_EDGE ( 'NONE', *, *, #37, .T. ) ;
#147 =( NAMED_UNIT ( * ) PLANE_ANGLE_UNIT ( ) SI_UNIT ( $, .RADIAN. ) );
#148 = EDGE_LOOP ( 'NONE', ( #242, #199, #86, #263 ) ) ;
#149 = CIRCLE ( 'NONE', #236, 7.000000000000000000 ) ;
#150 = CYLINDRICAL_SURFACE ( 'NONE', #95, 7.000000000000000000 ) ;
#151 = DIRECTION ( 'NONE',  ( 1.000000000000000000, 0.000000000000000000, -0.000000000000000000 ) ) ;
#152 = ADVANCED_FACE ( 'NONE', ( #64 ), #302, .T. ) ;
#153 = FACE_OUTER_BOUND ( 'NONE', #148, .T. ) ;
#154 = COORDINATED_UNIVERSAL_TIME_OFFSET ( 1, 0, .AHEAD. ) ;
#155 = DIRECTION ( 'NONE',  ( 0.000000000000000000, 0.000000000000000000, 1.000000000000000000 ) ) ;
#156 = AXIS2_PLACEMENT_3D ( 'NONE', #216, #359, #158 ) ;
#157 = ORGANIZATION ( 'NEURÈENÝ', 'NEURÈENÝ', '' ) ;
#158 = DIRECTION ( 'NONE',  ( 1.000000000000000000, 0.000000000000000000, 0.000000000000000000 ) ) ;
#159 = EDGE_CURVE ( 'NONE', #309, #62, #101, .T. ) ;
#160 = DIRECTION ( 'NONE',  ( 0.000000000000000000, 0.000000000000000000, -1.000000000000000000 ) ) ;
#161 = PERSON ( 'NEURÈENÝ', 'NEURÈENÝ', 'NEURÈENÝ', ('NEURÈENÝ'), ('NEURÈENÝ'), ('NEURÈENÝ') ) ;
#162 = DIRECTION ( 'NONE',  ( -1.000000000000000000, 0.000000000000000000, 0.000000000000000000 ) ) ;
#163 = PERSON_AND_ORGANIZATION ( #161, #157 ) ;
#164 = AXIS2_PLACEMENT_3D ( 'NONE', #140, #108, #221 ) ;
#165 = DIRECTION ( 'NONE',  ( -1.000000000000000000, 1.224646799147351482E-16, 0.000000000000000000 ) ) ;
#166 = VERTEX_POINT ( 'NONE', #67 ) ;
#167 = SHAPE_DEFINITION_REPRESENTATION ( #204, #277 ) ;
#168 = CIRCLE ( 'NONE', #78, 0.5000000000000004441 ) ;
#169 = ADVANCED_FACE ( 'NONE', ( #276 ), #24, .F. ) ;
#170 = FACE_BOUND ( 'NONE', #93, .T. ) ;
#171 = ORIENTED_EDGE ( 'NONE', *, *, #223, .F. ) ;
#172 = CARTESIAN_POINT ( 'NONE',  ( 0.000000000000000000, 0.000000000000000000, 0.000000000000000000 ) ) ;
#173 = EDGE_LOOP ( 'NONE', ( #48, #171, #201, #343 ) ) ;
#174 = DIRECTION ( 'NONE',  ( 1.000000000000000000, 0.000000000000000000, 0.000000000000000000 ) ) ;
#175 = EDGE_LOOP ( 'NONE', ( #123, #56, #117, #29 ) ) ;
#176 = ORIENTED_EDGE ( 'NONE', *, *, #251, .F. ) ;
#177 = VERTEX_POINT ( 'NONE', #313 ) ;
#178 = AXIS2_PLACEMENT_3D ( 'NONE', #248, #363, #104 ) ;
#179 = PERSON_AND_ORGANIZATION ( #161, #157 ) ;
#180 = ORIENTED_EDGE ( 'NONE', *, *, #251, .T. ) ;
#181 = CARTESIAN_POINT ( 'NONE',  ( 2.500000000000000000, 3.061616997868383141E-16, 805.0000000000000000 ) ) ;
#182 = UNCERTAINTY_MEASURE_WITH_UNIT (LENGTH_MEASURE( 1.000000000000000082E-05 ), #320, 'distance_accuracy_value', 'NONE');
#183 = CARTESIAN_POINT ( 'NONE',  ( 0.000000000000000000, 0.000000000000000000, 5.000000000000000000 ) ) ;
#184 = PERSON_AND_ORGANIZATION_ROLE ( 'classification_officer' ) ;
#185 = PLANE ( 'NONE',  #134 ) ;
#186 = EDGE_CURVE ( 'NONE', #240, #231, #283, .T. ) ;
#187 = AXIS2_PLACEMENT_3D ( 'NONE', #374, #144, #27 ) ;
#188 = PRODUCT_DEFINITION_FORMATION_WITH_SPECIFIED_SOURCE ( 'LIBOVOLNÝ', '', #369, .NOT_KNOWN. ) ;
#189 = DIRECTION ( 'NONE',  ( -0.000000000000000000, -0.000000000000000000, -1.000000000000000000 ) ) ;
#190 = CARTESIAN_POINT ( 'NONE',  ( -4.000000000000000000, 0.000000000000000000, 5.499999999999949374 ) ) ;
#191 = DIRECTION ( 'NONE',  ( 1.000000000000000000, 0.000000000000000000, 0.000000000000000000 ) ) ;
#192 = CLOSED_SHELL ( 'NONE', ( #113, #193, #90, #152, #19, #370, #43, #31, #311, #169, #141 ) ) ;
#193 = ADVANCED_FACE ( 'NONE', ( #258 ), #210, .F. ) ;
#194 = ORIENTED_EDGE ( 'NONE', *, *, #292, .F. ) ;
#195 = CARTESIAN_POINT ( 'NONE',  ( 7.000000000000000000, 8.572527594031473190E-16, 5.000000000000000000 ) ) ;
#196 = CARTESIAN_POINT ( 'NONE',  ( -7.000000000000000000, 0.000000000000000000, 0.000000000000000000 ) ) ;
#197 = ORIENTED_EDGE ( 'NONE', *, *, #71, .T. ) ;
#198 = CARTESIAN_POINT ( 'NONE',  ( 0.000000000000000000, 0.000000000000000000, 5.499999999999949374 ) ) ;
#199 = ORIENTED_EDGE ( 'NONE', *, *, #81, .T. ) ;
#200 = DIRECTION ( 'NONE',  ( 0.000000000000000000, 0.000000000000000000, 1.000000000000000000 ) ) ;
#201 = ORIENTED_EDGE ( 'NONE', *, *, #159, .T. ) ;
#202 = CC_DESIGN_APPROVAL ( #16, ( #365 ) ) ;
#203 = CARTESIAN_POINT ( 'NONE',  ( 0.000000000000000000, 0.000000000000000000, 805.0000000000000000 ) ) ;
#204 = PRODUCT_DEFINITION_SHAPE ( 'NONE', 'NONE',  #365 ) ;
#205 = EDGE_LOOP ( 'NONE', ( #317, #20 ) ) ;
#206 = DATE_AND_TIME ( #59, #349 ) ;
#207 = EDGE_LOOP ( 'NONE', ( #254, #53 ) ) ;
#208 = EDGE_CURVE ( 'NONE', #62, #83, #227, .T. ) ;
#209 = ORIENTED_EDGE ( 'NONE', *, *, #325, .T. ) ;
#210 = TOROIDAL_SURFACE ( 'NONE', #257, 4.500000000000000888, 0.5000000000000000000 ) ;
#211 = PERSON_AND_ORGANIZATION ( #161, #157 ) ;
#212 = LINE ( 'NONE', #102, #23 ) ;
#213 = PERSON_AND_ORGANIZATION ( #161, #157 ) ;
#214 = EDGE_CURVE ( 'NONE', #376, #58, #262, .T. ) ;
#215 = CARTESIAN_POINT ( 'NONE',  ( -4.000000000000000000, 0.000000000000000000, 805.0000000000000000 ) ) ;
#216 = CARTESIAN_POINT ( 'NONE',  ( 0.000000000000000000, 0.000000000000000000, 805.0000000000000000 ) ) ;
#217 = VECTOR ( 'NONE', #330, 1000.000000000000000 ) ;
#218 = FACE_OUTER_BOUND ( 'NONE', #57, .T. ) ;
#219 = DIRECTION ( 'NONE',  ( 1.000000000000000000, 0.000000000000000000, 0.000000000000000000 ) ) ;
#220 = EDGE_CURVE ( 'NONE', #177, #376, #372, .T. ) ;
#221 = DIRECTION ( 'NONE',  ( 1.000000000000000000, 0.000000000000000000, -0.000000000000000000 ) ) ;
#222 = AXIS2_PLACEMENT_3D ( 'NONE', #55, #200, #151 ) ;
#223 = EDGE_CURVE ( 'NONE', #309, #224, #267, .T. ) ;
#224 = VERTEX_POINT ( 'NONE', #373 ) ;
#225 = AXIS2_PLACEMENT_3D ( 'NONE', #41, #70, #160 ) ;
#226 = DIRECTION ( 'NONE',  ( 1.000000000000000000, 0.000000000000000000, 0.000000000000000000 ) ) ;
#227 = CIRCLE ( 'NONE', #60, 4.000000000000000000 ) ;
#228 = CC_DESIGN_APPROVAL ( #344, ( #188 ) ) ;
#229 = EDGE_LOOP ( 'NONE', ( #237, #121, #314, #50 ) ) ;
#230 = CARTESIAN_POINT ( 'NONE',  ( 0.000000000000000000, 0.000000000000000000, 805.0000000000000000 ) ) ;
#231 = VERTEX_POINT ( 'NONE', #196 ) ;
#232 = EDGE_CURVE ( 'NONE', #231, #111, #149, .T. ) ;
#233 = FACE_OUTER_BOUND ( 'NONE', #338, .T. ) ;
#234 = ORIENTED_EDGE ( 'NONE', *, *, #71, .F. ) ;
#235 = CARTESIAN_POINT ( 'NONE',  ( 4.500000000000000888, 0.000000000000000000, 4.999999999999975131 ) ) ;
#236 = AXIS2_PLACEMENT_3D ( 'NONE', #172, #28, #44 ) ;
#237 = ORIENTED_EDGE ( 'NONE', *, *, #99, .F. ) ;
#238 = APPROVAL_PERSON_ORGANIZATION ( #211, #344, #35 ) ;
#239 = EDGE_CURVE ( 'NONE', #62, #324, #168, .T. ) ;
#240 = VERTEX_POINT ( 'NONE', #84 ) ;
#241 = MECHANICAL_CONTEXT ( 'NONE', #304, 'mechanical' ) ;
#242 = ORIENTED_EDGE ( 'NONE', *, *, #139, .F. ) ;
#243 = APPROVAL_STATUS ( 'not_yet_approved' ) ;
#244 = CARTESIAN_POINT ( 'NONE',  ( 0.000000000000000000, 0.000000000000000000, 805.0000000000000000 ) ) ;
#245 = VECTOR ( 'NONE', #82, 1000.000000000000000 ) ;
#246 = CARTESIAN_POINT ( 'NONE',  ( 0.000000000000000000, 0.000000000000000000, 805.0000000000000000 ) ) ;
#247 = APPROVAL_DATE_TIME ( #272, #344 ) ;
#248 = CARTESIAN_POINT ( 'NONE',  ( 0.000000000000000000, 0.000000000000000000, 805.0000000000000000 ) ) ;
#249 = LOCAL_TIME ( 17, 18, 7.000000000000000000, #154 ) ;
#250 = CARTESIAN_POINT ( 'NONE',  ( 4.000000000000000000, 4.898587196589412829E-16, 805.0000000000000000 ) ) ;
#251 = EDGE_CURVE ( 'NONE', #166, #58, #380, .T. ) ;
#252 = LOCAL_TIME ( 17, 18, 7.000000000000000000, #366 ) ;
#253 = CARTESIAN_POINT ( 'NONE',  ( -4.000000000000000000, 0.000000000000000000, 805.0000000000000000 ) ) ;
#254 = ORIENTED_EDGE ( 'NONE', *, *, #220, .F. ) ;
#255 = AXIS2_PLACEMENT_3D ( 'NONE', #36, #364, #129 ) ;
#256 = CIRCLE ( 'NONE', #18, 4.000000000000000000 ) ;
#257 = AXIS2_PLACEMENT_3D ( 'NONE', #287, #47, #259 ) ;
#258 = FACE_OUTER_BOUND ( 'NONE', #291, .T. ) ;
#259 = DIRECTION ( 'NONE',  ( 1.000000000000000000, 0.000000000000000000, 0.000000000000000000 ) ) ;
#260 = VERTEX_POINT ( 'NONE', #235 ) ;
#261 = CC_DESIGN_SECURITY_CLASSIFICATION ( #341, ( #188 ) ) ;
#262 = LINE ( 'NONE', #89, #332 ) ;
#263 = ORIENTED_EDGE ( 'NONE', *, *, #159, .F. ) ;
#264 = CARTESIAN_POINT ( 'NONE',  ( 0.000000000000000000, 0.000000000000000000, 5.499999999999949374 ) ) ;
#265 = ORIENTED_EDGE ( 'NONE', *, *, #331, .T. ) ;
#266 = APPLICATION_PROTOCOL_DEFINITION ( 'international standard', 'config_control_design', 1994, #304 ) ;
#267 = CIRCLE ( 'NONE', #97, 4.000000000000000000 ) ;
#268 = EDGE_LOOP ( 'NONE', ( #354, #285, #197, #119 ) ) ;
#269 = DIRECTION ( 'NONE',  ( 0.000000000000000000, 0.000000000000000000, 1.000000000000000000 ) ) ;
#270 = CARTESIAN_POINT ( 'NONE',  ( 0.000000000000000000, 0.000000000000000000, 5.000000000000000000 ) ) ;
#271 = FACE_OUTER_BOUND ( 'NONE', #175, .T. ) ;
#272 = DATE_AND_TIME ( #38, #249 ) ;
#273 = CIRCLE ( 'NONE', #255, 4.000000000000000000 ) ;
#274 = DIRECTION ( 'NONE',  ( -0.000000000000000000, -0.000000000000000000, -1.000000000000000000 ) ) ;
#275 = PRODUCT_RELATED_PRODUCT_CATEGORY ( 'detail', '', ( #369 ) ) ;
#276 = FACE_OUTER_BOUND ( 'NONE', #268, .T. ) ;
#277 = ADVANCED_BREP_SHAPE_REPRESENTATION ( '5fca', ( #3, #68 ), #88 ) ;
#278 = DIRECTION ( 'NONE',  ( -0.000000000000000000, -0.000000000000000000, -1.000000000000000000 ) ) ;
#279 = EDGE_CURVE ( 'NONE', #58, #166, #39, .T. ) ;
#280 = DIRECTION ( 'NONE',  ( 0.000000000000000000, 0.000000000000000000, -1.000000000000000000 ) ) ;
#281 = CIRCLE ( 'NONE', #17, 4.500000000000000888 ) ;
#282 = APPROVAL_STATUS ( 'not_yet_approved' ) ;
#283 = LINE ( 'NONE', #348, #245 ) ;
#284 = AXIS2_PLACEMENT_3D ( 'NONE', #136, #72, #40 ) ;
#285 = ORIENTED_EDGE ( 'NONE', *, *, #105, .F. ) ;
#286 = DIRECTION ( 'NONE',  ( 1.000000000000000000, 0.000000000000000000, 0.000000000000000000 ) ) ;
#287 = CARTESIAN_POINT ( 'NONE',  ( 0.000000000000000000, 0.000000000000000000, 5.499999999999949374 ) ) ;
#288 = DIRECTION ( 'NONE',  ( 1.000000000000000000, 0.000000000000000000, 0.000000000000000000 ) ) ;
#289 = DIRECTION ( 'NONE',  ( -0.000000000000000000, -0.000000000000000000, -1.000000000000000000 ) ) ;
#290 = CARTESIAN_POINT ( 'NONE',  ( 0.000000000000000000, 0.000000000000000000, 0.000000000000000000 ) ) ;
#291 = EDGE_LOOP ( 'NONE', ( #294, #378, #194, #234 ) ) ;
#292 = EDGE_CURVE ( 'NONE', #260, #324, #281, .T. ) ;
#293 = DATE_TIME_ROLE ( 'creation_date' ) ;
#294 = ORIENTED_EDGE ( 'NONE', *, *, #208, .F. ) ;
#295 = APPLICATION_PROTOCOL_DEFINITION ( 'international standard', 'config_control_design', 1994, #131 ) ;
#296 = CIRCLE ( 'NONE', #128, 7.000000000000000000 ) ;
#297 = VERTEX_POINT ( 'NONE', #195 ) ;
#298 = FACE_OUTER_BOUND ( 'NONE', #173, .T. ) ;
#299 = CC_DESIGN_PERSON_AND_ORGANIZATION_ASSIGNMENT ( #213, #329, ( #188 ) ) ;
#300 = DIRECTION ( 'NONE',  ( -1.000000000000000000, 0.000000000000000000, 0.000000000000000000 ) ) ;
#301 = CARTESIAN_POINT ( 'NONE',  ( 0.000000000000000000, 0.000000000000000000, 0.000000000000000000 ) ) ;
#302 = CYLINDRICAL_SURFACE ( 'NONE', #356, 7.000000000000000000 ) ;
#303 = LOCAL_TIME ( 17, 18, 7.000000000000000000, #63 ) ;
#304 = APPLICATION_CONTEXT ( 'configuration controlled 3d designs of mechanical parts and assemblies' ) ;
#305 = CARTESIAN_POINT ( 'NONE',  ( 0.000000000000000000, 0.000000000000000000, 0.000000000000000000 ) ) ;
#306 = CARTESIAN_POINT ( 'NONE',  ( 0.000000000000000000, 0.000000000000000000, 805.0000000000000000 ) ) ;
#307 = FACE_BOUND ( 'NONE', #381, .T. ) ;
#308 = CIRCLE ( 'NONE', #225, 0.5000000000000004441 ) ;
#309 = VERTEX_POINT ( 'NONE', #253 ) ;
#310 = FACE_OUTER_BOUND ( 'NONE', #91, .T. ) ;
#311 = ADVANCED_FACE ( 'NONE', ( #312, #310 ), #145, .T. ) ;
#312 = FACE_BOUND ( 'NONE', #207, .T. ) ;
#313 = CARTESIAN_POINT ( 'NONE',  ( -2.500000000000000000, 0.000000000000000000, 805.0000000000000000 ) ) ;
#314 = ORIENTED_EDGE ( 'NONE', *, *, #186, .T. ) ;
#315 = DIRECTION ( 'NONE',  ( 0.000000000000000000, 0.000000000000000000, 1.000000000000000000 ) ) ;
#316 = APPROVAL ( #282, 'NEURÈENÝ' ) ;
#317 = ORIENTED_EDGE ( 'NONE', *, *, #232, .F. ) ;
#318 = PERSON_AND_ORGANIZATION ( #161, #157 ) ;
#319 = ORIENTED_EDGE ( 'NONE', *, *, #292, .T. ) ;
#320 =( LENGTH_UNIT ( ) NAMED_UNIT ( * ) SI_UNIT ( .MILLI., .METRE. ) );
#321 = ORIENTED_EDGE ( 'NONE', *, *, #279, .F. ) ;
#322 = DATE_AND_TIME ( #353, #303 ) ;
#323 = AXIS2_PLACEMENT_3D ( 'NONE', #21, #15, #137 ) ;
#324 = VERTEX_POINT ( 'NONE', #371 ) ;
#325 = EDGE_CURVE ( 'NONE', #111, #231, #296, .T. ) ;
#326 = APPROVAL_STATUS ( 'not_yet_approved' ) ;
#327 = LOCAL_TIME ( 17, 18, 7.000000000000000000, #351 ) ;
#328 = LINE ( 'NONE', #250, #87 ) ;
#329 = PERSON_AND_ORGANIZATION_ROLE ( 'design_supplier' ) ;
#330 = DIRECTION ( 'NONE',  ( -0.000000000000000000, -0.000000000000000000, -1.000000000000000000 ) ) ;
#331 = EDGE_CURVE ( 'NONE', #177, #166, #118, .T. ) ;
#332 = VECTOR ( 'NONE', #51, 1000.000000000000000 ) ;
#333 = FACE_OUTER_BOUND ( 'NONE', #205, .T. ) ;
#334 = DATE_AND_TIME ( #362, #252 ) ;
#335 = CARTESIAN_POINT ( 'NONE',  ( 0.000000000000000000, 0.000000000000000000, 5.000000000000000000 ) ) ;
#336 = DIRECTION ( 'NONE',  ( 0.000000000000000000, 0.000000000000000000, 1.000000000000000000 ) ) ;
#337 = CC_DESIGN_DATE_AND_TIME_ASSIGNMENT ( #92, #368, ( #341 ) ) ;
#338 = EDGE_LOOP ( 'NONE', ( #146, #352 ) ) ;
#339 = CIRCLE ( 'NONE', #284, 7.000000000000000000 ) ;
#340 = CARTESIAN_POINT ( 'NONE',  ( -2.500000000000000000, 0.000000000000000000, 805.0000000000000000 ) ) ;
#341 = SECURITY_CLASSIFICATION ( '', '', #65 ) ;
#342 = DIRECTION ( 'NONE',  ( -0.000000000000000000, -0.000000000000000000, -1.000000000000000000 ) ) ;
#343 = ORIENTED_EDGE ( 'NONE', *, *, #208, .T. ) ;
#344 = APPROVAL ( #326, 'NEURÈENÝ' ) ;
#345 = PLANE ( 'NONE',  #222 ) ;
#346 = ORIENTED_EDGE ( 'NONE', *, *, #109, .T. ) ;
#347 = AXIS2_PLACEMENT_3D ( 'NONE', #306, #361, #162 ) ;
#348 = CARTESIAN_POINT ( 'NONE',  ( -7.000000000000000000, 0.000000000000000000, 5.000000000000000000 ) ) ;
#349 = LOCAL_TIME ( 17, 18, 7.000000000000000000, #32 ) ;
#350 = ORIENTED_EDGE ( 'NONE', *, *, #223, .T. ) ;
#351 = COORDINATED_UNIVERSAL_TIME_OFFSET ( 1, 0, .AHEAD. ) ;
#352 = ORIENTED_EDGE ( 'NONE', *, *, #45, .T. ) ;
#353 = CALENDAR_DATE ( 2022, 8, 7 ) ;
#354 = ORIENTED_EDGE ( 'NONE', *, *, #239, .F. ) ;
#355 = PERSON_AND_ORGANIZATION_ROLE ( 'creator' ) ;
#356 = AXIS2_PLACEMENT_3D ( 'NONE', #183, #8, #300 ) ;
#357 = DIRECTION ( 'NONE',  ( -1.000000000000000000, 0.000000000000000000, 0.000000000000000000 ) ) ;
#358 = DESIGN_CONTEXT ( 'detailed design', #131, 'design' ) ;
#359 = DIRECTION ( 'NONE',  ( 0.000000000000000000, 0.000000000000000000, 1.000000000000000000 ) ) ;
#360 =( NAMED_UNIT ( * ) SI_UNIT ( $, .STERADIAN. ) SOLID_ANGLE_UNIT ( ) );
#361 = DIRECTION ( 'NONE',  ( -0.000000000000000000, -0.000000000000000000, -1.000000000000000000 ) ) ;
#362 = CALENDAR_DATE ( 2022, 8, 7 ) ;
#363 = DIRECTION ( 'NONE',  ( 0.000000000000000000, 0.000000000000000000, -1.000000000000000000 ) ) ;
#364 = DIRECTION ( 'NONE',  ( 0.000000000000000000, 0.000000000000000000, 1.000000000000000000 ) ) ;
#365 = PRODUCT_DEFINITION ( 'NEZNÁMÝ', '', #188, #358 ) ;
#366 = COORDINATED_UNIVERSAL_TIME_OFFSET ( 1, 0, .AHEAD. ) ;
#367 = APPROVAL_PERSON_ORGANIZATION ( #100, #16, #125 ) ;
#368 = DATE_TIME_ROLE ( 'classification_date' ) ;
#369 = PRODUCT ( '5fca', '5fca', '', ( #241 ) ) ;
#370 = ADVANCED_FACE ( 'NONE', ( #170, #233 ), #345, .T. ) ;
#371 = CARTESIAN_POINT ( 'NONE',  ( -4.500000000000000888, 5.510910596163088569E-16, 4.999999999999975131 ) ) ;
#372 = CIRCLE ( 'NONE', #75, 2.500000000000000000 ) ;
#373 = CARTESIAN_POINT ( 'NONE',  ( 4.000000000000000000, 4.898587196589412829E-16, 805.0000000000000000 ) ) ;
#374 = CARTESIAN_POINT ( 'NONE',  ( 0.000000000000000000, 0.000000000000000000, 805.0000000000000000 ) ) ;
#375 = DIRECTION ( 'NONE',  ( 1.000000000000000000, 0.000000000000000000, 0.000000000000000000 ) ) ;
#376 = VERTEX_POINT ( 'NONE', #181 ) ;
#377 = DIRECTION ( 'NONE',  ( 0.000000000000000000, 0.000000000000000000, 1.000000000000000000 ) ) ;
#378 = ORIENTED_EDGE ( 'NONE', *, *, #239, .T. ) ;
#379 = PERSON_AND_ORGANIZATION ( #161, #157 ) ;
#380 = CIRCLE ( 'NONE', #135, 2.500000000000000000 ) ;
#381 = EDGE_LOOP ( 'NONE', ( #176, #321 ) ) ;
ENDSEC;
END-ISO-10303-21;
