ISO-10303-21;
HEADER;
FILE_DESCRIPTION (( 'STEP AP203' ),
    '1' );
FILE_NAME ('3a4e.STEP',
    '2022-07-08T14:45:53',
    ( '' ),
    ( '' ),
    'SwSTEP 2.0',
    'SolidWorks 2019',
    '' );
FILE_SCHEMA (( 'CONFIG_CONTROL_DESIGN' ));
ENDSEC;

DATA;
#1 = EDGE_CURVE ( 'NONE', #278, #105, #114, .T. ) ;
#2 = ORIENTED_EDGE ( 'NONE', *, *, #342, .T. ) ;
#3 = AXIS2_PLACEMENT_3D ( 'NONE', #131, #301, #214 ) ;
#4 = DIRECTION ( 'NONE',  ( -0.000000000000000000, -0.000000000000000000, -1.000000000000000000 ) ) ;
#5 = APPROVAL_STATUS ( 'not_yet_approved' ) ;
#6 = CARTESIAN_POINT ( 'NONE',  ( 0.000000000000000000, 0.000000000000000000, 305.0000000000000000 ) ) ;
#7 = EDGE_CURVE ( 'NONE', #110, #372, #231, .T. ) ;
#8 = ORIENTED_EDGE ( 'NONE', *, *, #95, .F. ) ;
#9 = ORIENTED_EDGE ( 'NONE', *, *, #147, .T. ) ;
#10 = CARTESIAN_POINT ( 'NONE',  ( 0.000000000000000000, 0.000000000000000000, 5.500000000000005329 ) ) ;
#11 = FACE_OUTER_BOUND ( 'NONE', #26, .T. ) ;
#12 = CALENDAR_DATE ( 2022, 8, 7 ) ;
#13 = ORIENTED_EDGE ( 'NONE', *, *, #193, .F. ) ;
#14 = FACE_OUTER_BOUND ( 'NONE', #101, .T. ) ;
#15 = CC_DESIGN_PERSON_AND_ORGANIZATION_ASSIGNMENT ( #171, #93, ( #204 ) ) ;
#16 = AXIS2_PLACEMENT_3D ( 'NONE', #125, #96, #186 ) ;
#17 = FACE_OUTER_BOUND ( 'NONE', #29, .T. ) ;
#18 = APPROVAL ( #366, 'NEURÈENÝ' ) ;
#19 = CARTESIAN_POINT ( 'NONE',  ( 0.000000000000000000, 0.000000000000000000, 5.000000000000000000 ) ) ;
#20 = CIRCLE ( 'NONE', #225, 3.250000000000000444 ) ;
#21 = CARTESIAN_POINT ( 'NONE',  ( 3.250000000000000444, 3.980102097228898231E-16, 305.0000000000000000 ) ) ;
#22 = ORGANIZATION ( 'NEURÈENÝ', 'NEURÈENÝ', '' ) ;
#23 = DIRECTION ( 'NONE',  ( 1.000000000000000000, 0.000000000000000000, 0.000000000000000000 ) ) ;
#24 = EDGE_LOOP ( 'NONE', ( #80, #48 ) ) ;
#25 = CARTESIAN_POINT ( 'NONE',  ( 0.000000000000000000, 0.000000000000000000, 5.500000000000005329 ) ) ;
#26 = EDGE_LOOP ( 'NONE', ( #346, #355 ) ) ;
#27 = APPROVAL_PERSON_ORGANIZATION ( #350, #136, #199 ) ;
#28 = DIRECTION ( 'NONE',  ( 0.000000000000000000, 0.000000000000000000, -1.000000000000000000 ) ) ;
#29 = EDGE_LOOP ( 'NONE', ( #55, #348, #380, #167 ) ) ;
#30 = EDGE_CURVE ( 'NONE', #372, #110, #331, .T. ) ;
#31 = CARTESIAN_POINT ( 'NONE',  ( 0.000000000000000000, 0.000000000000000000, 305.0000000000000000 ) ) ;
#32 = EDGE_LOOP ( 'NONE', ( #323, #141, #218, #192 ) ) ;
#33 = CLOSED_SHELL ( 'NONE', ( #251, #175, #117, #327, #202, #262, #163, #157, #69, #352, #274 ) ) ;
#34 = CARTESIAN_POINT ( 'NONE',  ( -5.000000000000000000, 0.000000000000000000, 305.0000000000000000 ) ) ;
#35 = AXIS2_PLACEMENT_3D ( 'NONE', #123, #209, #183 ) ;
#36 = LINE ( 'NONE', #113, #207 ) ;
#37 = VERTEX_POINT ( 'NONE', #261 ) ;
#38 = DATE_AND_TIME ( #291, #232 ) ;
#39 = CARTESIAN_POINT ( 'NONE',  ( 0.000000000000000000, 0.000000000000000000, 305.0000000000000000 ) ) ;
#40 = CC_DESIGN_APPROVAL ( #182, ( #150 ) ) ;
#41 = CARTESIAN_POINT ( 'NONE',  ( -8.000000000000000000, 0.000000000000000000, 0.000000000000000000 ) ) ;
#42 = CARTESIAN_POINT ( 'NONE',  ( -5.000000000000000000, 0.000000000000000000, 5.500000000000005329 ) ) ;
#43 = APPROVAL_DATE_TIME ( #46, #18 ) ;
#44 = TOROIDAL_SURFACE ( 'NONE', #91, 5.500000000000000000, 0.5000000000000000000 ) ;
#45 = DIRECTION ( 'NONE',  ( -1.000000000000000000, 1.224646799147351482E-16, 0.000000000000000000 ) ) ;
#46 = DATE_AND_TIME ( #241, #333 ) ;
#47 = DIRECTION ( 'NONE',  ( -1.000000000000000000, 0.000000000000000000, 0.000000000000000000 ) ) ;
#48 = ORIENTED_EDGE ( 'NONE', *, *, #81, .F. ) ;
#49 = PLANE ( 'NONE',  #122 ) ;
#50 =( GEOMETRIC_REPRESENTATION_CONTEXT ( 3 ) GLOBAL_UNCERTAINTY_ASSIGNED_CONTEXT ( ( #345 ) ) GLOBAL_UNIT_ASSIGNED_CONTEXT ( ( #258, #318, #115 ) ) REPRESENTATION_CONTEXT ( 'NONE', 'WORKASPACE' ) );
#51 = EDGE_CURVE ( 'NONE', #336, #275, #83, .T. ) ;
#52 = DIRECTION ( 'NONE',  ( -0.000000000000000000, -0.000000000000000000, -1.000000000000000000 ) ) ;
#53 = ORIENTED_EDGE ( 'NONE', *, *, #169, .F. ) ;
#54 = DIRECTION ( 'NONE',  ( 0.000000000000000000, 0.000000000000000000, -1.000000000000000000 ) ) ;
#55 = ORIENTED_EDGE ( 'NONE', *, *, #306, .F. ) ;
#56 = CARTESIAN_POINT ( 'NONE',  ( -3.250000000000000444, 0.000000000000000000, 0.000000000000000000 ) ) ;
#57 = ORIENTED_EDGE ( 'NONE', *, *, #143, .T. ) ;
#58 = CIRCLE ( 'NONE', #138, 5.000000000000000000 ) ;
#59 = CC_DESIGN_PERSON_AND_ORGANIZATION_ASSIGNMENT ( #368, #234, ( #210 ) ) ;
#60 = ORIENTED_EDGE ( 'NONE', *, *, #335, .F. ) ;
#61 = FACE_OUTER_BOUND ( 'NONE', #358, .T. ) ;
#62 = DIRECTION ( 'NONE',  ( 1.000000000000000000, 0.000000000000000000, 0.000000000000000000 ) ) ;
#63 = CARTESIAN_POINT ( 'NONE',  ( 0.000000000000000000, 0.000000000000000000, 305.0000000000000000 ) ) ;
#64 = AXIS2_PLACEMENT_3D ( 'NONE', #339, #78, #308 ) ;
#65 = DIRECTION ( 'NONE',  ( 0.000000000000000000, 0.000000000000000000, 1.000000000000000000 ) ) ;
#66 = APPLICATION_PROTOCOL_DEFINITION ( 'international standard', 'config_control_design', 1994, #313 ) ;
#67 = CARTESIAN_POINT ( 'NONE',  ( 0.000000000000000000, 0.000000000000000000, 5.000000000000000000 ) ) ;
#68 = DIRECTION ( 'NONE',  ( 1.000000000000000000, 0.000000000000000000, 0.000000000000000000 ) ) ;
#69 = ADVANCED_FACE ( 'NONE', ( #319, #11 ), #314, .T. ) ;
#70 = LOCAL_TIME ( 16, 45, 53.00000000000000000, #208 ) ;
#71 = PERSON_AND_ORGANIZATION ( #370, #22 ) ;
#72 = CYLINDRICAL_SURFACE ( 'NONE', #190, 5.000000000000000000 ) ;
#73 = PERSON_AND_ORGANIZATION ( #370, #22 ) ;
#74 = LOCAL_TIME ( 16, 45, 53.00000000000000000, #185 ) ;
#75 = DIRECTION ( 'NONE',  ( -0.000000000000000000, -0.000000000000000000, -1.000000000000000000 ) ) ;
#76 = DIRECTION ( 'NONE',  ( 1.000000000000000000, 0.000000000000000000, 0.000000000000000000 ) ) ;
#77 = EDGE_CURVE ( 'NONE', #275, #336, #128, .T. ) ;
#78 = DIRECTION ( 'NONE',  ( 0.000000000000000000, 0.000000000000000000, 1.000000000000000000 ) ) ;
#79 = ORIENTED_EDGE ( 'NONE', *, *, #51, .F. ) ;
#80 = ORIENTED_EDGE ( 'NONE', *, *, #238, .F. ) ;
#81 = EDGE_CURVE ( 'NONE', #37, #340, #20, .T. ) ;
#82 = ORIENTED_EDGE ( 'NONE', *, *, #297, .F. ) ;
#83 = CIRCLE ( 'NONE', #159, 3.250000000000000444 ) ;
#84 = CARTESIAN_POINT ( 'NONE',  ( 8.000000000000000000, 9.797174393178825657E-16, 5.000000000000000000 ) ) ;
#85 = EDGE_LOOP ( 'NONE', ( #109, #9 ) ) ;
#86 = CC_DESIGN_SECURITY_CLASSIFICATION ( #150, ( #210 ) ) ;
#87 = PRODUCT_DEFINITION_SHAPE ( 'NONE', 'NONE',  #112 ) ;
#88 = ORIENTED_EDGE ( 'NONE', *, *, #77, .F. ) ;
#89 = CARTESIAN_POINT ( 'NONE',  ( 5.000000000000000000, 6.123233995736766282E-16, 305.0000000000000000 ) ) ;
#90 = DIRECTION ( 'NONE',  ( 1.000000000000000000, 0.000000000000000000, 0.000000000000000000 ) ) ;
#91 = AXIS2_PLACEMENT_3D ( 'NONE', #10, #286, #226 ) ;
#92 = DIRECTION ( 'NONE',  ( 0.000000000000000000, 0.000000000000000000, -1.000000000000000000 ) ) ;
#93 = PERSON_AND_ORGANIZATION_ROLE ( 'design_owner' ) ;
#94 = DIRECTION ( 'NONE',  ( 1.000000000000000000, 0.000000000000000000, 0.000000000000000000 ) ) ;
#95 = EDGE_CURVE ( 'NONE', #110, #194, #233, .T. ) ;
#96 = DIRECTION ( 'NONE',  ( 0.000000000000000000, 0.000000000000000000, 1.000000000000000000 ) ) ;
#97 = DIRECTION ( 'NONE',  ( -0.000000000000000000, -0.000000000000000000, -1.000000000000000000 ) ) ;
#98 = CC_DESIGN_APPROVAL ( #136, ( #112 ) ) ;
#99 = ORIENTED_EDGE ( 'NONE', *, *, #143, .F. ) ;
#100 = DIRECTION ( 'NONE',  ( 0.000000000000000000, 0.000000000000000000, 1.000000000000000000 ) ) ;
#101 = EDGE_LOOP ( 'NONE', ( #82, #344, #304, #243 ) ) ;
#102 = AXIS2_PLACEMENT_3D ( 'NONE', #206, #235, #292 ) ;
#103 = DIRECTION ( 'NONE',  ( 0.000000000000000000, 0.000000000000000000, 1.000000000000000000 ) ) ;
#104 = CIRCLE ( 'NONE', #129, 8.000000000000000000 ) ;
#105 = VERTEX_POINT ( 'NONE', #284 ) ;
#106 = CC_DESIGN_PERSON_AND_ORGANIZATION_ASSIGNMENT ( #71, #263, ( #210 ) ) ;
#107 = CARTESIAN_POINT ( 'NONE',  ( 0.000000000000000000, 0.000000000000000000, 0.000000000000000000 ) ) ;
#108 = EDGE_LOOP ( 'NONE', ( #338, #57, #249, #320 ) ) ;
#109 = ORIENTED_EDGE ( 'NONE', *, *, #1, .T. ) ;
#110 = VERTEX_POINT ( 'NONE', #34 ) ;
#111 = DIRECTION ( 'NONE',  ( 1.000000000000000000, 0.000000000000000000, -0.000000000000000000 ) ) ;
#112 = PRODUCT_DEFINITION ( 'NEZNÁMÝ', '', #210, #365 ) ;
#113 = CARTESIAN_POINT ( 'NONE',  ( -8.000000000000000000, 0.000000000000000000, 5.000000000000000000 ) ) ;
#114 = CIRCLE ( 'NONE', #148, 5.500000000000000000 ) ;
#115 =( NAMED_UNIT ( * ) SI_UNIT ( $, .STERADIAN. ) SOLID_ANGLE_UNIT ( ) );
#116 = APPROVAL_PERSON_ORGANIZATION ( #300, #18, #216 ) ;
#117 = ADVANCED_FACE ( 'NONE', ( #322 ), #144, .T. ) ;
#118 = PERSON_AND_ORGANIZATION_ROLE ( 'creator' ) ;
#119 = CARTESIAN_POINT ( 'NONE',  ( 0.000000000000000000, 0.000000000000000000, 0.000000000000000000 ) ) ;
#120 = LINE ( 'NONE', #21, #356 ) ;
#121 = CIRCLE ( 'NONE', #285, 5.500000000000000000 ) ;
#122 = AXIS2_PLACEMENT_3D ( 'NONE', #276, #252, #165 ) ;
#123 = CARTESIAN_POINT ( 'NONE',  ( 5.500000000000000000, 0.000000000000000000, 5.500000000000005329 ) ) ;
#124 = SHAPE_DEFINITION_REPRESENTATION ( #87, #264 ) ;
#125 = CARTESIAN_POINT ( 'NONE',  ( 0.000000000000000000, 0.000000000000000000, 5.500000000000005329 ) ) ;
#126 = COORDINATED_UNIVERSAL_TIME_OFFSET ( 1, 0, .AHEAD. ) ;
#127 = DIRECTION ( 'NONE',  ( 0.000000000000000000, 0.000000000000000000, 1.000000000000000000 ) ) ;
#128 = CIRCLE ( 'NONE', #178, 3.250000000000000444 ) ;
#129 = AXIS2_PLACEMENT_3D ( 'NONE', #107, #103, #311 ) ;
#130 = EDGE_CURVE ( 'NONE', #224, #135, #36, .T. ) ;
#131 = CARTESIAN_POINT ( 'NONE',  ( 0.000000000000000000, 0.000000000000000000, 0.000000000000000000 ) ) ;
#132 = DIRECTION ( 'NONE',  ( -1.000000000000000000, 0.000000000000000000, 0.000000000000000000 ) ) ;
#133 = ORIENTED_EDGE ( 'NONE', *, *, #130, .T. ) ;
#134 = FACE_OUTER_BOUND ( 'NONE', #108, .T. ) ;
#135 = VERTEX_POINT ( 'NONE', #41 ) ;
#136 = APPROVAL ( #5, 'NEURÈENÝ' ) ;
#137 = CARTESIAN_POINT ( 'NONE',  ( 3.250000000000000444, 3.980102097228898231E-16, 305.0000000000000000 ) ) ;
#138 = AXIS2_PLACEMENT_3D ( 'NONE', #25, #100, #76 ) ;
#139 = ORIENTED_EDGE ( 'NONE', *, *, #147, .F. ) ;
#140 = DIRECTION ( 'NONE',  ( -0.000000000000000000, -0.000000000000000000, -1.000000000000000000 ) ) ;
#141 = ORIENTED_EDGE ( 'NONE', *, *, #193, .T. ) ;
#142 = ORIENTED_EDGE ( 'NONE', *, *, #268, .T. ) ;
#143 = EDGE_CURVE ( 'NONE', #312, #307, #151, .T. ) ;
#144 = CYLINDRICAL_SURFACE ( 'NONE', #254, 5.000000000000000000 ) ;
#145 = AXIS2_PLACEMENT_3D ( 'NONE', #303, #52, #374 ) ;
#146 = DIRECTION ( 'NONE',  ( 1.000000000000000000, 0.000000000000000000, 0.000000000000000000 ) ) ;
#147 = EDGE_CURVE ( 'NONE', #105, #278, #121, .T. ) ;
#148 = AXIS2_PLACEMENT_3D ( 'NONE', #67, #176, #90 ) ;
#149 = APPROVAL_DATE_TIME ( #38, #136 ) ;
#150 = SECURITY_CLASSIFICATION ( '', '', #334 ) ;
#151 = LINE ( 'NONE', #266, #361 ) ;
#152 = DATE_AND_TIME ( #359, #70 ) ;
#153 = CARTESIAN_POINT ( 'NONE',  ( 0.000000000000000000, 0.000000000000000000, 0.000000000000000000 ) ) ;
#154 = AXIS2_PLACEMENT_3D ( 'NONE', #379, #168, #282 ) ;
#155 = FACE_OUTER_BOUND ( 'NONE', #170, .T. ) ;
#156 = DIRECTION ( 'NONE',  ( -1.000000000000000000, 0.000000000000000000, 0.000000000000000000 ) ) ;
#157 = ADVANCED_FACE ( 'NONE', ( #17 ), #72, .T. ) ;
#158 = DIRECTION ( 'NONE',  ( -0.000000000000000000, -0.000000000000000000, -1.000000000000000000 ) ) ;
#159 = AXIS2_PLACEMENT_3D ( 'NONE', #39, #316, #146 ) ;
#160 = FACE_OUTER_BOUND ( 'NONE', #351, .T. ) ;
#161 = ORIENTED_EDGE ( 'NONE', *, *, #342, .F. ) ;
#162 = FACE_OUTER_BOUND ( 'NONE', #32, .T. ) ;
#163 = ADVANCED_FACE ( 'NONE', ( #371, #326 ), #188, .F. ) ;
#164 = ORIENTED_EDGE ( 'NONE', *, *, #335, .T. ) ;
#165 = DIRECTION ( 'NONE',  ( 1.000000000000000000, 0.000000000000000000, -0.000000000000000000 ) ) ;
#166 = LOCAL_TIME ( 16, 45, 53.00000000000000000, #237 ) ;
#167 = ORIENTED_EDGE ( 'NONE', *, *, #297, .T. ) ;
#168 = DIRECTION ( 'NONE',  ( 0.000000000000000000, 0.000000000000000000, 1.000000000000000000 ) ) ;
#169 = EDGE_CURVE ( 'NONE', #307, #135, #227, .T. ) ;
#170 = EDGE_LOOP ( 'NONE', ( #99, #161, #133, #164 ) ) ;
#171 = PERSON_AND_ORGANIZATION ( #370, #22 ) ;
#172 = DIRECTION ( 'NONE',  ( -0.000000000000000000, -0.000000000000000000, -1.000000000000000000 ) ) ;
#173 = AXIS2_PLACEMENT_3D ( 'NONE', #246, #343, #23 ) ;
#174 = CARTESIAN_POINT ( 'NONE',  ( -3.250000000000000444, 0.000000000000000000, 305.0000000000000000 ) ) ;
#175 = ADVANCED_FACE ( 'NONE', ( #14 ), #215, .F. ) ;
#176 = DIRECTION ( 'NONE',  ( -0.000000000000000000, -0.000000000000000000, -1.000000000000000000 ) ) ;
#177 = ORIENTED_EDGE ( 'NONE', *, *, #229, .T. ) ;
#178 = AXIS2_PLACEMENT_3D ( 'NONE', #6, #65, #62 ) ;
#179 = DIRECTION ( 'NONE',  ( 1.000000000000000000, 0.000000000000000000, 0.000000000000000000 ) ) ;
#180 = AXIS2_PLACEMENT_3D ( 'NONE', #19, #127, #242 ) ;
#181 = DIRECTION ( 'NONE',  ( 1.000000000000000000, 0.000000000000000000, 0.000000000000000000 ) ) ;
#182 = APPROVAL ( #265, 'NEURÈENÝ' ) ;
#183 = DIRECTION ( 'NONE',  ( 0.000000000000000000, 0.000000000000000000, -1.000000000000000000 ) ) ;
#184 = CARTESIAN_POINT ( 'NONE',  ( -5.500000000000000000, 6.735557395310442023E-16, 5.500000000000005329 ) ) ;
#185 = COORDINATED_UNIVERSAL_TIME_OFFSET ( 1, 0, .AHEAD. ) ;
#186 = DIRECTION ( 'NONE',  ( 1.000000000000000000, 0.000000000000000000, 0.000000000000000000 ) ) ;
#187 = EDGE_CURVE ( 'NONE', #197, #278, #317, .T. ) ;
#188 = PLANE ( 'NONE',  #3 ) ;
#189 = DIRECTION ( 'NONE',  ( -1.000000000000000000, 0.000000000000000000, 0.000000000000000000 ) ) ;
#190 = AXIS2_PLACEMENT_3D ( 'NONE', #217, #158, #47 ) ;
#191 = CYLINDRICAL_SURFACE ( 'NONE', #145, 8.000000000000000000 ) ;
#192 = ORIENTED_EDGE ( 'NONE', *, *, #363, .F. ) ;
#193 = EDGE_CURVE ( 'NONE', #275, #37, #120, .T. ) ;
#194 = VERTEX_POINT ( 'NONE', #42 ) ;
#195 = CARTESIAN_POINT ( 'NONE',  ( 8.000000000000000000, 9.797174393178825657E-16, 0.000000000000000000 ) ) ;
#196 = APPROVAL_PERSON_ORGANIZATION ( #73, #182, #239 ) ;
#197 = VERTEX_POINT ( 'NONE', #329 ) ;
#198 = EDGE_CURVE ( 'NONE', #194, #105, #279, .T. ) ;
#199 = APPROVAL_ROLE ( '' ) ;
#200 = EDGE_LOOP ( 'NONE', ( #60, #53 ) ) ;
#201 = CARTESIAN_POINT ( 'NONE',  ( 0.000000000000000000, 0.000000000000000000, 0.000000000000000000 ) ) ;
#202 = ADVANCED_FACE ( 'NONE', ( #155 ), #240, .T. ) ;
#203 = AXIS2_PLACEMENT_3D ( 'NONE', #184, #369, #45 ) ;
#204 = PRODUCT ( '3a4e', '3a4e', '', ( #321 ) ) ;
#205 = APPLICATION_PROTOCOL_DEFINITION ( 'international standard', 'config_control_design', 1994, #330 ) ;
#206 = CARTESIAN_POINT ( 'NONE',  ( 0.000000000000000000, 0.000000000000000000, 305.0000000000000000 ) ) ;
#207 = VECTOR ( 'NONE', #257, 1000.000000000000000 ) ;
#208 = COORDINATED_UNIVERSAL_TIME_OFFSET ( 1, 0, .AHEAD. ) ;
#209 = DIRECTION ( 'NONE',  ( 0.000000000000000000, -1.000000000000000000, 0.000000000000000000 ) ) ;
#210 = PRODUCT_DEFINITION_FORMATION_WITH_SPECIFIED_SOURCE ( 'LIBOVOLNÝ', '', #204, .NOT_KNOWN. ) ;
#211 = PERSON_AND_ORGANIZATION ( #370, #22 ) ;
#212 = DIRECTION ( 'NONE',  ( 0.000000000000000000, 0.000000000000000000, -1.000000000000000000 ) ) ;
#213 = PERSON_AND_ORGANIZATION_ROLE ( 'classification_officer' ) ;
#214 = DIRECTION ( 'NONE',  ( 1.000000000000000000, 0.000000000000000000, -0.000000000000000000 ) ) ;
#215 = TOROIDAL_SURFACE ( 'NONE', #16, 5.500000000000000000, 0.5000000000000000000 ) ;
#216 = APPROVAL_ROLE ( '' ) ;
#217 = CARTESIAN_POINT ( 'NONE',  ( 0.000000000000000000, 0.000000000000000000, 305.0000000000000000 ) ) ;
#218 = ORIENTED_EDGE ( 'NONE', *, *, #81, .T. ) ;
#219 = ORIENTED_EDGE ( 'NONE', *, *, #198, .F. ) ;
#220 = AXIS2_PLACEMENT_3D ( 'NONE', #31, #28, #132 ) ;
#221 = CARTESIAN_POINT ( 'NONE',  ( -3.250000000000000444, 0.000000000000000000, 305.0000000000000000 ) ) ;
#222 = EDGE_LOOP ( 'NONE', ( #2, #177 ) ) ;
#223 = CYLINDRICAL_SURFACE ( 'NONE', #220, 3.250000000000000444 ) ;
#224 = VERTEX_POINT ( 'NONE', #271 ) ;
#225 = AXIS2_PLACEMENT_3D ( 'NONE', #119, #172, #179 ) ;
#226 = DIRECTION ( 'NONE',  ( 1.000000000000000000, 0.000000000000000000, 0.000000000000000000 ) ) ;
#227 = CIRCLE ( 'NONE', #376, 8.000000000000000000 ) ;
#228 = CARTESIAN_POINT ( 'NONE',  ( -5.000000000000000000, 0.000000000000000000, 305.0000000000000000 ) ) ;
#229 = EDGE_CURVE ( 'NONE', #312, #224, #294, .T. ) ;
#230 = COORDINATED_UNIVERSAL_TIME_OFFSET ( 1, 0, .AHEAD. ) ;
#231 = CIRCLE ( 'NONE', #102, 5.000000000000000000 ) ;
#232 = LOCAL_TIME ( 16, 45, 53.00000000000000000, #230 ) ;
#233 = LINE ( 'NONE', #228, #272 ) ;
#234 = PERSON_AND_ORGANIZATION_ROLE ( 'creator' ) ;
#235 = DIRECTION ( 'NONE',  ( 0.000000000000000000, 0.000000000000000000, 1.000000000000000000 ) ) ;
#236 = CC_DESIGN_PERSON_AND_ORGANIZATION_ASSIGNMENT ( #211, #213, ( #150 ) ) ;
#237 = COORDINATED_UNIVERSAL_TIME_OFFSET ( 1, 0, .AHEAD. ) ;
#238 = EDGE_CURVE ( 'NONE', #340, #37, #341, .T. ) ;
#239 = APPROVAL_ROLE ( '' ) ;
#240 = CYLINDRICAL_SURFACE ( 'NONE', #362, 8.000000000000000000 ) ;
#241 = CALENDAR_DATE ( 2022, 8, 7 ) ;
#242 = DIRECTION ( 'NONE',  ( 1.000000000000000000, 0.000000000000000000, 0.000000000000000000 ) ) ;
#243 = ORIENTED_EDGE ( 'NONE', *, *, #187, .F. ) ;
#244 = VECTOR ( 'NONE', #92, 1000.000000000000000 ) ;
#245 = EDGE_LOOP ( 'NONE', ( #277, #248, #142, #8 ) ) ;
#246 = CARTESIAN_POINT ( 'NONE',  ( 0.000000000000000000, 0.000000000000000000, 0.000000000000000000 ) ) ;
#247 = CC_DESIGN_DATE_AND_TIME_ASSIGNMENT ( #269, #325, ( #150 ) ) ;
#248 = ORIENTED_EDGE ( 'NONE', *, *, #306, .T. ) ;
#249 = ORIENTED_EDGE ( 'NONE', *, *, #169, .T. ) ;
#250 = CARTESIAN_POINT ( 'NONE',  ( 5.500000000000000000, 0.000000000000000000, 5.000000000000002665 ) ) ;
#251 = ADVANCED_FACE ( 'NONE', ( #162 ), #337, .F. ) ;
#252 = DIRECTION ( 'NONE',  ( 0.000000000000000000, 0.000000000000000000, 1.000000000000000000 ) ) ;
#253 = EDGE_LOOP ( 'NONE', ( #79, #88 ) ) ;
#254 = AXIS2_PLACEMENT_3D ( 'NONE', #295, #4, #353 ) ;
#255 = CIRCLE ( 'NONE', #154, 8.000000000000000000 ) ;
#256 = DIRECTION ( 'NONE',  ( 0.000000000000000000, 0.000000000000000000, 1.000000000000000000 ) ) ;
#257 = DIRECTION ( 'NONE',  ( -0.000000000000000000, -0.000000000000000000, -1.000000000000000000 ) ) ;
#258 =( LENGTH_UNIT ( ) NAMED_UNIT ( * ) SI_UNIT ( .MILLI., .METRE. ) );
#259 = PERSON_AND_ORGANIZATION ( #370, #22 ) ;
#260 = AXIS2_PLACEMENT_3D ( 'NONE', #201, #354, #68 ) ;
#261 = CARTESIAN_POINT ( 'NONE',  ( 3.250000000000000444, 3.980102097228898231E-16, 0.000000000000000000 ) ) ;
#262 = ADVANCED_FACE ( 'NONE', ( #373, #280 ), #49, .T. ) ;
#263 = PERSON_AND_ORGANIZATION_ROLE ( 'design_supplier' ) ;
#264 = ADVANCED_BREP_SHAPE_REPRESENTATION ( '3a4e', ( #315, #260 ), #50 ) ;
#265 = APPROVAL_STATUS ( 'not_yet_approved' ) ;
#266 = CARTESIAN_POINT ( 'NONE',  ( 8.000000000000000000, 9.797174393178825657E-16, 5.000000000000000000 ) ) ;
#267 = VECTOR ( 'NONE', #140, 1000.000000000000000 ) ;
#268 = EDGE_CURVE ( 'NONE', #197, #194, #58, .T. ) ;
#269 = DATE_AND_TIME ( #332, #166 ) ;
#270 = DATE_TIME_ROLE ( 'creation_date' ) ;
#271 = CARTESIAN_POINT ( 'NONE',  ( -8.000000000000000000, 0.000000000000000000, 5.000000000000000000 ) ) ;
#272 = VECTOR ( 'NONE', #289, 1000.000000000000000 ) ;
#273 = DIRECTION ( 'NONE',  ( 0.000000000000000000, 0.000000000000000000, 1.000000000000000000 ) ) ;
#274 = ADVANCED_FACE ( 'NONE', ( #160 ), #223, .F. ) ;
#275 = VERTEX_POINT ( 'NONE', #137 ) ;
#276 = CARTESIAN_POINT ( 'NONE',  ( 0.000000000000000000, 0.000000000000000000, 5.000000000000000000 ) ) ;
#277 = ORIENTED_EDGE ( 'NONE', *, *, #30, .F. ) ;
#278 = VERTEX_POINT ( 'NONE', #250 ) ;
#279 = CIRCLE ( 'NONE', #203, 0.5000000000000004441 ) ;
#280 = FACE_OUTER_BOUND ( 'NONE', #222, .T. ) ;
#281 = ORIENTED_EDGE ( 'NONE', *, *, #238, .T. ) ;
#282 = DIRECTION ( 'NONE',  ( 1.000000000000000000, 0.000000000000000000, 0.000000000000000000 ) ) ;
#283 = ORIENTED_EDGE ( 'NONE', *, *, #363, .T. ) ;
#284 = CARTESIAN_POINT ( 'NONE',  ( -5.500000000000000000, 6.735557395310442023E-16, 5.000000000000002665 ) ) ;
#285 = AXIS2_PLACEMENT_3D ( 'NONE', #364, #97, #296 ) ;
#286 = DIRECTION ( 'NONE',  ( 0.000000000000000000, 0.000000000000000000, 1.000000000000000000 ) ) ;
#287 = AXIS2_PLACEMENT_3D ( 'NONE', #305, #54, #189 ) ;
#288 = CC_DESIGN_PERSON_AND_ORGANIZATION_ASSIGNMENT ( #259, #118, ( #112 ) ) ;
#289 = DIRECTION ( 'NONE',  ( -0.000000000000000000, -0.000000000000000000, -1.000000000000000000 ) ) ;
#290 = DIRECTION ( 'NONE',  ( 0.000000000000000000, 0.000000000000000000, 1.000000000000000000 ) ) ;
#291 = CALENDAR_DATE ( 2022, 8, 7 ) ;
#292 = DIRECTION ( 'NONE',  ( 1.000000000000000000, 0.000000000000000000, 0.000000000000000000 ) ) ;
#293 = AXIS2_PLACEMENT_3D ( 'NONE', #63, #290, #111 ) ;
#294 = CIRCLE ( 'NONE', #180, 8.000000000000000000 ) ;
#295 = CARTESIAN_POINT ( 'NONE',  ( 0.000000000000000000, 0.000000000000000000, 305.0000000000000000 ) ) ;
#296 = DIRECTION ( 'NONE',  ( 1.000000000000000000, 0.000000000000000000, 0.000000000000000000 ) ) ;
#297 = EDGE_CURVE ( 'NONE', #194, #197, #349, .T. ) ;
#298 = AXIS2_PLACEMENT_3D ( 'NONE', #360, #256, #94 ) ;
#299 = DIRECTION ( 'NONE',  ( -0.000000000000000000, -0.000000000000000000, -1.000000000000000000 ) ) ;
#300 = PERSON_AND_ORGANIZATION ( #370, #22 ) ;
#301 = DIRECTION ( 'NONE',  ( 0.000000000000000000, 0.000000000000000000, 1.000000000000000000 ) ) ;
#302 = CC_DESIGN_DATE_AND_TIME_ASSIGNMENT ( #324, #270, ( #112 ) ) ;
#303 = CARTESIAN_POINT ( 'NONE',  ( 0.000000000000000000, 0.000000000000000000, 5.000000000000000000 ) ) ;
#304 = ORIENTED_EDGE ( 'NONE', *, *, #1, .F. ) ;
#305 = CARTESIAN_POINT ( 'NONE',  ( 0.000000000000000000, 0.000000000000000000, 305.0000000000000000 ) ) ;
#306 = EDGE_CURVE ( 'NONE', #372, #197, #347, .T. ) ;
#307 = VERTEX_POINT ( 'NONE', #195 ) ;
#308 = DIRECTION ( 'NONE',  ( 1.000000000000000000, 0.000000000000000000, 0.000000000000000000 ) ) ;
#309 = ORIENTED_EDGE ( 'NONE', *, *, #187, .T. ) ;
#310 = CC_DESIGN_APPROVAL ( #18, ( #210 ) ) ;
#311 = DIRECTION ( 'NONE',  ( 1.000000000000000000, 0.000000000000000000, 0.000000000000000000 ) ) ;
#312 = VERTEX_POINT ( 'NONE', #84 ) ;
#313 = APPLICATION_CONTEXT ( 'configuration controlled 3d designs of mechanical parts and assemblies' ) ;
#314 = PLANE ( 'NONE',  #293 ) ;
#315 = MANIFOLD_SOLID_BREP ( 'Odebrat vysunutím3', #33 ) ;
#316 = DIRECTION ( 'NONE',  ( 0.000000000000000000, 0.000000000000000000, 1.000000000000000000 ) ) ;
#317 = CIRCLE ( 'NONE', #35, 0.5000000000000004441 ) ;
#318 =( NAMED_UNIT ( * ) PLANE_ANGLE_UNIT ( ) SI_UNIT ( $, .RADIAN. ) );
#319 = FACE_BOUND ( 'NONE', #253, .T. ) ;
#320 = ORIENTED_EDGE ( 'NONE', *, *, #130, .F. ) ;
#321 = MECHANICAL_CONTEXT ( 'NONE', #313, 'mechanical' ) ;
#322 = FACE_OUTER_BOUND ( 'NONE', #245, .T. ) ;
#323 = ORIENTED_EDGE ( 'NONE', *, *, #51, .T. ) ;
#324 = DATE_AND_TIME ( #12, #74 ) ;
#325 = DATE_TIME_ROLE ( 'classification_date' ) ;
#326 = FACE_OUTER_BOUND ( 'NONE', #200, .T. ) ;
#327 = ADVANCED_FACE ( 'NONE', ( #134 ), #191, .T. ) ;
#328 = APPROVAL_DATE_TIME ( #152, #182 ) ;
#329 = CARTESIAN_POINT ( 'NONE',  ( 5.000000000000000000, 6.123233995736766282E-16, 5.500000000000005329 ) ) ;
#330 = APPLICATION_CONTEXT ( 'configuration controlled 3d designs of mechanical parts and assemblies' ) ;
#331 = CIRCLE ( 'NONE', #298, 5.000000000000000000 ) ;
#332 = CALENDAR_DATE ( 2022, 8, 7 ) ;
#333 = LOCAL_TIME ( 16, 45, 53.00000000000000000, #126 ) ;
#334 = SECURITY_CLASSIFICATION_LEVEL ( 'unclassified' ) ;
#335 = EDGE_CURVE ( 'NONE', #135, #307, #104, .T. ) ;
#336 = VERTEX_POINT ( 'NONE', #221 ) ;
#337 = CYLINDRICAL_SURFACE ( 'NONE', #287, 3.250000000000000444 ) ;
#338 = ORIENTED_EDGE ( 'NONE', *, *, #229, .F. ) ;
#339 = CARTESIAN_POINT ( 'NONE',  ( 0.000000000000000000, 0.000000000000000000, 5.500000000000005329 ) ) ;
#340 = VERTEX_POINT ( 'NONE', #56 ) ;
#341 = CIRCLE ( 'NONE', #173, 3.250000000000000444 ) ;
#342 = EDGE_CURVE ( 'NONE', #224, #312, #255, .T. ) ;
#343 = DIRECTION ( 'NONE',  ( -0.000000000000000000, -0.000000000000000000, -1.000000000000000000 ) ) ;
#344 = ORIENTED_EDGE ( 'NONE', *, *, #198, .T. ) ;
#345 = UNCERTAINTY_MEASURE_WITH_UNIT (LENGTH_MEASURE( 1.000000000000000082E-05 ), #258, 'distance_accuracy_value', 'NONE');
#346 = ORIENTED_EDGE ( 'NONE', *, *, #7, .T. ) ;
#347 = LINE ( 'NONE', #377, #267 ) ;
#348 = ORIENTED_EDGE ( 'NONE', *, *, #7, .F. ) ;
#349 = CIRCLE ( 'NONE', #64, 5.000000000000000000 ) ;
#350 = PERSON_AND_ORGANIZATION ( #370, #22 ) ;
#351 = EDGE_LOOP ( 'NONE', ( #13, #375, #283, #281 ) ) ;
#352 = ADVANCED_FACE ( 'NONE', ( #61 ), #44, .F. ) ;
#353 = DIRECTION ( 'NONE',  ( -1.000000000000000000, 0.000000000000000000, 0.000000000000000000 ) ) ;
#354 = DIRECTION ( 'NONE',  ( 0.000000000000000000, 0.000000000000000000, 1.000000000000000000 ) ) ;
#355 = ORIENTED_EDGE ( 'NONE', *, *, #30, .T. ) ;
#356 = VECTOR ( 'NONE', #212, 1000.000000000000000 ) ;
#357 = PRODUCT_RELATED_PRODUCT_CATEGORY ( 'detail', '', ( #204 ) ) ;
#358 = EDGE_LOOP ( 'NONE', ( #219, #378, #309, #139 ) ) ;
#359 = CALENDAR_DATE ( 2022, 8, 7 ) ;
#360 = CARTESIAN_POINT ( 'NONE',  ( 0.000000000000000000, 0.000000000000000000, 305.0000000000000000 ) ) ;
#361 = VECTOR ( 'NONE', #75, 1000.000000000000000 ) ;
#362 = AXIS2_PLACEMENT_3D ( 'NONE', #367, #299, #156 ) ;
#363 = EDGE_CURVE ( 'NONE', #336, #340, #381, .T. ) ;
#364 = CARTESIAN_POINT ( 'NONE',  ( 0.000000000000000000, 0.000000000000000000, 5.000000000000000000 ) ) ;
#365 = DESIGN_CONTEXT ( 'detailed design', #330, 'design' ) ;
#366 = APPROVAL_STATUS ( 'not_yet_approved' ) ;
#367 = CARTESIAN_POINT ( 'NONE',  ( 0.000000000000000000, 0.000000000000000000, 5.000000000000000000 ) ) ;
#368 = PERSON_AND_ORGANIZATION ( #370, #22 ) ;
#369 = DIRECTION ( 'NONE',  ( 1.224646799147353207E-16, 1.000000000000000000, -0.000000000000000000 ) ) ;
#370 = PERSON ( 'NEURÈENÝ', 'NEURÈENÝ', 'NEURÈENÝ', ('NEURÈENÝ'), ('NEURÈENÝ'), ('NEURÈENÝ') ) ;
#371 = FACE_BOUND ( 'NONE', #24, .T. ) ;
#372 = VERTEX_POINT ( 'NONE', #89 ) ;
#373 = FACE_BOUND ( 'NONE', #85, .T. ) ;
#374 = DIRECTION ( 'NONE',  ( -1.000000000000000000, 0.000000000000000000, 0.000000000000000000 ) ) ;
#375 = ORIENTED_EDGE ( 'NONE', *, *, #77, .T. ) ;
#376 = AXIS2_PLACEMENT_3D ( 'NONE', #153, #273, #181 ) ;
#377 = CARTESIAN_POINT ( 'NONE',  ( 5.000000000000000000, 6.123233995736766282E-16, 305.0000000000000000 ) ) ;
#378 = ORIENTED_EDGE ( 'NONE', *, *, #268, .F. ) ;
#379 = CARTESIAN_POINT ( 'NONE',  ( 0.000000000000000000, 0.000000000000000000, 5.000000000000000000 ) ) ;
#380 = ORIENTED_EDGE ( 'NONE', *, *, #95, .T. ) ;
#381 = LINE ( 'NONE', #174, #244 ) ;
ENDSEC;
END-ISO-10303-21;
