ISO-10303-21;
HEADER;
FILE_DESCRIPTION (( 'STEP AP203' ),
    '1' );
FILE_NAME ('7ef0.STEP',
    '2022-07-08T15:16:07',
    ( '' ),
    ( '' ),
    'SwSTEP 2.0',
    'SolidWorks 2019',
    '' );
FILE_SCHEMA (( 'CONFIG_CONTROL_DESIGN' ));
ENDSEC;

DATA;
#1 = AXIS2_PLACEMENT_3D ( 'NONE', #347, #83, #85 ) ;
#2 = ORIENTED_EDGE ( 'NONE', *, *, #33, .F. ) ;
#3 = EDGE_CURVE ( 'NONE', #94, #154, #366, .T. ) ;
#4 = PERSON_AND_ORGANIZATION ( #343, #84 ) ;
#5 = AXIS2_PLACEMENT_3D ( 'NONE', #102, #52, #164 ) ;
#6 = CARTESIAN_POINT ( 'NONE',  ( 5.500000000000000000, 0.000000000000000000, 5.000000000000002665 ) ) ;
#7 = EDGE_LOOP ( 'NONE', ( #280, #172, #246, #207 ) ) ;
#8 = APPROVAL_STATUS ( 'not_yet_approved' ) ;
#9 = AXIS2_PLACEMENT_3D ( 'NONE', #96, #236, #13 ) ;
#10 = DIRECTION ( 'NONE',  ( -0.000000000000000000, -0.000000000000000000, -1.000000000000000000 ) ) ;
#11 = APPROVAL_DATE_TIME ( #268, #81 ) ;
#12 = CARTESIAN_POINT ( 'NONE',  ( 0.000000000000000000, 0.000000000000000000, 5.000000000000000000 ) ) ;
#13 = DIRECTION ( 'NONE',  ( 1.000000000000000000, 0.000000000000000000, 0.000000000000000000 ) ) ;
#14 = AXIS2_PLACEMENT_3D ( 'NONE', #339, #363, #123 ) ;
#15 = LINE ( 'NONE', #129, #279 ) ;
#16 = ORIENTED_EDGE ( 'NONE', *, *, #372, .F. ) ;
#17 = CC_DESIGN_APPROVAL ( #152, ( #283 ) ) ;
#18 = APPROVAL_ROLE ( '' ) ;
#19 = AXIS2_PLACEMENT_3D ( 'NONE', #93, #293, #37 ) ;
#20 = EDGE_LOOP ( 'NONE', ( #16, #361 ) ) ;
#21 = COORDINATED_UNIVERSAL_TIME_OFFSET ( 1, 0, .AHEAD. ) ;
#22 = LINE ( 'NONE', #136, #226 ) ;
#23 = AXIS2_PLACEMENT_3D ( 'NONE', #135, #241, #216 ) ;
#24 = PLANE ( 'NONE',  #146 ) ;
#25 = AXIS2_PLACEMENT_3D ( 'NONE', #231, #166, #171 ) ;
#26 = DIRECTION ( 'NONE',  ( 1.000000000000000000, 0.000000000000000000, -0.000000000000000000 ) ) ;
#27 = EDGE_LOOP ( 'NONE', ( #113, #186, #60, #157 ) ) ;
#28 = CYLINDRICAL_SURFACE ( 'NONE', #170, 8.000000000000000000 ) ;
#29 = ORIENTED_EDGE ( 'NONE', *, *, #47, .F. ) ;
#30 = CYLINDRICAL_SURFACE ( 'NONE', #209, 5.000000000000000000 ) ;
#31 = ORIENTED_EDGE ( 'NONE', *, *, #222, .T. ) ;
#32 = AXIS2_PLACEMENT_3D ( 'NONE', #177, #158, #68 ) ;
#33 = EDGE_CURVE ( 'NONE', #203, #346, #180, .T. ) ;
#34 = EDGE_CURVE ( 'NONE', #336, #261, #195, .T. ) ;
#35 = CALENDAR_DATE ( 2022, 8, 7 ) ;
#36 = EDGE_LOOP ( 'NONE', ( #329, #111, #349, #232 ) ) ;
#37 = DIRECTION ( 'NONE',  ( -1.000000000000000000, 0.000000000000000000, 0.000000000000000000 ) ) ;
#38 = ORIENTED_EDGE ( 'NONE', *, *, #34, .T. ) ;
#39 = ADVANCED_FACE ( 'NONE', ( #77 ), #46, .T. ) ;
#40 = CARTESIAN_POINT ( 'NONE',  ( 0.000000000000000000, 0.000000000000000000, 0.000000000000000000 ) ) ;
#41 = DESIGN_CONTEXT ( 'detailed design', #360, 'design' ) ;
#42 = AXIS2_PLACEMENT_3D ( 'NONE', #40, #153, #359 ) ;
#43 = DIRECTION ( 'NONE',  ( 1.000000000000000000, 0.000000000000000000, 0.000000000000000000 ) ) ;
#44 = COORDINATED_UNIVERSAL_TIME_OFFSET ( 1, 0, .AHEAD. ) ;
#45 = ORIENTED_EDGE ( 'NONE', *, *, #3, .T. ) ;
#46 = CYLINDRICAL_SURFACE ( 'NONE', #272, 8.000000000000000000 ) ;
#47 = EDGE_CURVE ( 'NONE', #154, #94, #62, .T. ) ;
#48 = AXIS2_PLACEMENT_3D ( 'NONE', #55, #255, #284 ) ;
#49 = APPROVAL_STATUS ( 'not_yet_approved' ) ;
#50 = DIRECTION ( 'NONE',  ( 1.000000000000000000, 0.000000000000000000, 0.000000000000000000 ) ) ;
#51 = EDGE_CURVE ( 'NONE', #145, #296, #161, .T. ) ;
#52 = DIRECTION ( 'NONE',  ( 0.000000000000000000, -1.000000000000000000, 0.000000000000000000 ) ) ;
#53 = AXIS2_PLACEMENT_3D ( 'NONE', #169, #373, #26 ) ;
#54 = CYLINDRICAL_SURFACE ( 'NONE', #139, 2.500000000000000000 ) ;
#55 = CARTESIAN_POINT ( 'NONE',  ( 0.000000000000000000, 0.000000000000000000, 280.0000000000000000 ) ) ;
#56 = DIRECTION ( 'NONE',  ( 1.000000000000000000, 0.000000000000000000, -0.000000000000000000 ) ) ;
#57 = CC_DESIGN_PERSON_AND_ORGANIZATION_ASSIGNMENT ( #150, #355, ( #310 ) ) ;
#58 = CIRCLE ( 'NONE', #79, 8.000000000000000000 ) ;
#59 = DIRECTION ( 'NONE',  ( 0.000000000000000000, 0.000000000000000000, 1.000000000000000000 ) ) ;
#60 = ORIENTED_EDGE ( 'NONE', *, *, #33, .T. ) ;
#61 = DIRECTION ( 'NONE',  ( 0.000000000000000000, 0.000000000000000000, -1.000000000000000000 ) ) ;
#62 = CIRCLE ( 'NONE', #105, 2.500000000000000000 ) ;
#63 = EDGE_LOOP ( 'NONE', ( #115, #332, #91, #134 ) ) ;
#64 = EDGE_CURVE ( 'NONE', #346, #261, #249, .T. ) ;
#65 = COORDINATED_UNIVERSAL_TIME_OFFSET ( 1, 0, .AHEAD. ) ;
#66 = APPROVAL_PERSON_ORGANIZATION ( #334, #152, #67 ) ;
#67 = APPROVAL_ROLE ( '' ) ;
#68 = DIRECTION ( 'NONE',  ( 1.000000000000000000, 0.000000000000000000, 0.000000000000000000 ) ) ;
#69 = EDGE_CURVE ( 'NONE', #269, #336, #350, .T. ) ;
#70 = DIRECTION ( 'NONE',  ( 1.000000000000000000, 0.000000000000000000, 0.000000000000000000 ) ) ;
#71 = CARTESIAN_POINT ( 'NONE',  ( -5.500000000000000000, 6.735557395310442023E-16, 5.000000000000002665 ) ) ;
#72 = EDGE_LOOP ( 'NONE', ( #256, #308 ) ) ;
#73 =( NAMED_UNIT ( * ) SI_UNIT ( $, .STERADIAN. ) SOLID_ANGLE_UNIT ( ) );
#74 = CARTESIAN_POINT ( 'NONE',  ( -2.500000000000000000, 0.000000000000000000, 280.0000000000000000 ) ) ;
#75 = CARTESIAN_POINT ( 'NONE',  ( 0.000000000000000000, 0.000000000000000000, 5.000000000000000000 ) ) ;
#76 = CALENDAR_DATE ( 2022, 8, 7 ) ;
#77 = FACE_OUTER_BOUND ( 'NONE', #36, .T. ) ;
#78 = EDGE_CURVE ( 'NONE', #203, #211, #187, .T. ) ;
#79 = AXIS2_PLACEMENT_3D ( 'NONE', #194, #224, #225 ) ;
#80 = VECTOR ( 'NONE', #151, 1000.000000000000000 ) ;
#81 = APPROVAL ( #8, 'NEURÈENÝ' ) ;
#82 = DIRECTION ( 'NONE',  ( -1.000000000000000000, 0.000000000000000000, 0.000000000000000000 ) ) ;
#83 = DIRECTION ( 'NONE',  ( 0.000000000000000000, 0.000000000000000000, -1.000000000000000000 ) ) ;
#84 = ORGANIZATION ( 'NEURÈENÝ', 'NEURÈENÝ', '' ) ;
#85 = DIRECTION ( 'NONE',  ( -1.000000000000000000, 0.000000000000000000, 0.000000000000000000 ) ) ;
#86 = FACE_OUTER_BOUND ( 'NONE', #327, .T. ) ;
#87 = EDGE_CURVE ( 'NONE', #261, #336, #167, .T. ) ;
#88 = FACE_OUTER_BOUND ( 'NONE', #233, .T. ) ;
#89 = ORIENTED_EDGE ( 'NONE', *, *, #222, .F. ) ;
#90 = CARTESIAN_POINT ( 'NONE',  ( 0.000000000000000000, 0.000000000000000000, 280.0000000000000000 ) ) ;
#91 = ORIENTED_EDGE ( 'NONE', *, *, #34, .F. ) ;
#92 = EDGE_CURVE ( 'NONE', #296, #276, #15, .T. ) ;
#93 = CARTESIAN_POINT ( 'NONE',  ( 0.000000000000000000, 0.000000000000000000, 280.0000000000000000 ) ) ;
#94 = VERTEX_POINT ( 'NONE', #217 ) ;
#95 = UNCERTAINTY_MEASURE_WITH_UNIT (LENGTH_MEASURE( 1.000000000000000082E-05 ), #297, 'distance_accuracy_value', 'NONE');
#96 = CARTESIAN_POINT ( 'NONE',  ( 0.000000000000000000, 0.000000000000000000, 0.000000000000000000 ) ) ;
#97 = ORIENTED_EDGE ( 'NONE', *, *, #128, .T. ) ;
#98 = CARTESIAN_POINT ( 'NONE',  ( 0.000000000000000000, 0.000000000000000000, 280.0000000000000000 ) ) ;
#99 = DATE_AND_TIME ( #358, #247 ) ;
#100 = DIRECTION ( 'NONE',  ( 0.000000000000000000, 0.000000000000000000, 1.000000000000000000 ) ) ;
#101 = CARTESIAN_POINT ( 'NONE',  ( 0.000000000000000000, 0.000000000000000000, 280.0000000000000000 ) ) ;
#102 = CARTESIAN_POINT ( 'NONE',  ( 5.500000000000000000, 0.000000000000000000, 5.500000000000005329 ) ) ;
#103 = PERSON_AND_ORGANIZATION ( #343, #84 ) ;
#104 = VERTEX_POINT ( 'NONE', #173 ) ;
#105 = AXIS2_PLACEMENT_3D ( 'NONE', #101, #299, #43 ) ;
#106 = ORIENTED_EDGE ( 'NONE', *, *, #244, .T. ) ;
#107 = FACE_OUTER_BOUND ( 'NONE', #201, .T. ) ;
#108 = VECTOR ( 'NONE', #179, 1000.000000000000000 ) ;
#109 = FACE_OUTER_BOUND ( 'NONE', #63, .T. ) ;
#110 = CARTESIAN_POINT ( 'NONE',  ( 2.500000000000000000, 3.061616997868383141E-16, 0.000000000000000000 ) ) ;
#111 = ORIENTED_EDGE ( 'NONE', *, *, #259, .T. ) ;
#112 = FACE_OUTER_BOUND ( 'NONE', #357, .T. ) ;
#113 = ORIENTED_EDGE ( 'NONE', *, *, #244, .F. ) ;
#114 = CARTESIAN_POINT ( 'NONE',  ( -5.000000000000000000, 0.000000000000000000, 5.500000000000005329 ) ) ;
#115 = ORIENTED_EDGE ( 'NONE', *, *, #206, .F. ) ;
#116 = CARTESIAN_POINT ( 'NONE',  ( 5.000000000000000000, 6.123233995736766282E-16, 5.500000000000005329 ) ) ;
#117 = VERTEX_POINT ( 'NONE', #344 ) ;
#118 = CYLINDRICAL_SURFACE ( 'NONE', #19, 5.000000000000000000 ) ;
#119 = VERTEX_POINT ( 'NONE', #110 ) ;
#120 = SECURITY_CLASSIFICATION_LEVEL ( 'unclassified' ) ;
#121 = CC_DESIGN_PERSON_AND_ORGANIZATION_ASSIGNMENT ( #270, #130, ( #306 ) ) ;
#122 = DIRECTION ( 'NONE',  ( 1.000000000000000000, 0.000000000000000000, 0.000000000000000000 ) ) ;
#123 = DIRECTION ( 'NONE',  ( 1.000000000000000000, 0.000000000000000000, 0.000000000000000000 ) ) ;
#124 = PERSON_AND_ORGANIZATION ( #343, #84 ) ;
#125 = CARTESIAN_POINT ( 'NONE',  ( 0.000000000000000000, 0.000000000000000000, 5.500000000000005329 ) ) ;
#126 = DIRECTION ( 'NONE',  ( 0.000000000000000000, 0.000000000000000000, 1.000000000000000000 ) ) ;
#127 = ADVANCED_FACE ( 'NONE', ( #313, #107 ), #24, .T. ) ;
#128 = EDGE_CURVE ( 'NONE', #296, #145, #333, .T. ) ;
#129 = CARTESIAN_POINT ( 'NONE',  ( -8.000000000000000000, 0.000000000000000000, 5.000000000000000000 ) ) ;
#130 = PERSON_AND_ORGANIZATION_ROLE ( 'design_owner' ) ;
#131 = CIRCLE ( 'NONE', #42, 2.500000000000000000 ) ;
#132 = DATE_AND_TIME ( #218, #156 ) ;
#133 = APPROVAL ( #49, 'NEURÈENÝ' ) ;
#134 = ORIENTED_EDGE ( 'NONE', *, *, #69, .F. ) ;
#135 = CARTESIAN_POINT ( 'NONE',  ( 0.000000000000000000, 0.000000000000000000, 280.0000000000000000 ) ) ;
#136 = CARTESIAN_POINT ( 'NONE',  ( 5.000000000000000000, 6.123233995736766282E-16, 280.0000000000000000 ) ) ;
#137 = ADVANCED_FACE ( 'NONE', ( #377, #142 ), #257, .F. ) ;
#138 = CARTESIAN_POINT ( 'NONE',  ( 0.000000000000000000, 0.000000000000000000, 0.000000000000000000 ) ) ;
#139 = AXIS2_PLACEMENT_3D ( 'NONE', #253, #61, #281 ) ;
#140 = DIRECTION ( 'NONE',  ( -0.000000000000000000, -0.000000000000000000, -1.000000000000000000 ) ) ;
#141 = ORIENTED_EDGE ( 'NONE', *, *, #300, .F. ) ;
#142 = FACE_OUTER_BOUND ( 'NONE', #20, .T. ) ;
#143 = ORIENTED_EDGE ( 'NONE', *, *, #3, .F. ) ;
#144 = CARTESIAN_POINT ( 'NONE',  ( 8.000000000000000000, 9.797174393178825657E-16, 5.000000000000000000 ) ) ;
#145 = VERTEX_POINT ( 'NONE', #144 ) ;
#146 = AXIS2_PLACEMENT_3D ( 'NONE', #90, #59, #56 ) ;
#147 = CIRCLE ( 'NONE', #48, 5.000000000000000000 ) ;
#148 = LOCAL_TIME ( 17, 16, 7.000000000000000000, #185 ) ;
#149 = CARTESIAN_POINT ( 'NONE',  ( 0.000000000000000000, 0.000000000000000000, 5.500000000000005329 ) ) ;
#150 = PERSON_AND_ORGANIZATION ( #343, #84 ) ;
#151 = DIRECTION ( 'NONE',  ( -0.000000000000000000, -0.000000000000000000, -1.000000000000000000 ) ) ;
#152 = APPROVAL ( #181, 'NEURÈENÝ' ) ;
#153 = DIRECTION ( 'NONE',  ( -0.000000000000000000, -0.000000000000000000, -1.000000000000000000 ) ) ;
#154 = VERTEX_POINT ( 'NONE', #380 ) ;
#155 = LINE ( 'NONE', #262, #108 ) ;
#156 = LOCAL_TIME ( 17, 16, 7.000000000000000000, #21 ) ;
#157 = ORIENTED_EDGE ( 'NONE', *, *, #206, .T. ) ;
#158 = DIRECTION ( 'NONE',  ( 0.000000000000000000, 0.000000000000000000, 1.000000000000000000 ) ) ;
#159 = ADVANCED_FACE ( 'NONE', ( #375, #88 ), #227, .T. ) ;
#160 = DIRECTION ( 'NONE',  ( -0.000000000000000000, -0.000000000000000000, -1.000000000000000000 ) ) ;
#161 = CIRCLE ( 'NONE', #370, 8.000000000000000000 ) ;
#162 = DIRECTION ( 'NONE',  ( -0.000000000000000000, -0.000000000000000000, -1.000000000000000000 ) ) ;
#163 = LOCAL_TIME ( 17, 16, 7.000000000000000000, #44 ) ;
#164 = DIRECTION ( 'NONE',  ( 0.000000000000000000, 0.000000000000000000, -1.000000000000000000 ) ) ;
#165 = CIRCLE ( 'NONE', #25, 5.000000000000000000 ) ;
#166 = DIRECTION ( 'NONE',  ( 0.000000000000000000, 0.000000000000000000, 1.000000000000000000 ) ) ;
#167 = CIRCLE ( 'NONE', #312, 5.500000000000000000 ) ;
#168 = FACE_OUTER_BOUND ( 'NONE', #318, .T. ) ;
#169 = CARTESIAN_POINT ( 'NONE',  ( 0.000000000000000000, 0.000000000000000000, 0.000000000000000000 ) ) ;
#170 = AXIS2_PLACEMENT_3D ( 'NONE', #282, #140, #378 ) ;
#171 = DIRECTION ( 'NONE',  ( 1.000000000000000000, 0.000000000000000000, 0.000000000000000000 ) ) ;
#172 = ORIENTED_EDGE ( 'NONE', *, *, #302, .T. ) ;
#173 = CARTESIAN_POINT ( 'NONE',  ( -2.500000000000000000, 0.000000000000000000, 0.000000000000000000 ) ) ;
#174 = CLOSED_SHELL ( 'NONE', ( #219, #258, #205, #39, #223, #159, #137, #341, #127, #371, #243 ) ) ;
#175 = ORIENTED_EDGE ( 'NONE', *, *, #128, .F. ) ;
#176 = ORIENTED_EDGE ( 'NONE', *, *, #87, .T. ) ;
#177 = CARTESIAN_POINT ( 'NONE',  ( 0.000000000000000000, 0.000000000000000000, 5.500000000000005329 ) ) ;
#178 = CARTESIAN_POINT ( 'NONE',  ( -5.500000000000000000, 6.735557395310442023E-16, 5.500000000000005329 ) ) ;
#179 = DIRECTION ( 'NONE',  ( 0.000000000000000000, 0.000000000000000000, -1.000000000000000000 ) ) ;
#180 = LINE ( 'NONE', #369, #235 ) ;
#181 = APPROVAL_STATUS ( 'not_yet_approved' ) ;
#182 = EDGE_CURVE ( 'NONE', #117, #276, #58, .T. ) ;
#183 = VECTOR ( 'NONE', #298, 1000.000000000000000 ) ;
#184 = CARTESIAN_POINT ( 'NONE',  ( 0.000000000000000000, 0.000000000000000000, 5.000000000000000000 ) ) ;
#185 = COORDINATED_UNIVERSAL_TIME_OFFSET ( 1, 0, .AHEAD. ) ;
#186 = ORIENTED_EDGE ( 'NONE', *, *, #78, .F. ) ;
#187 = CIRCLE ( 'NONE', #23, 5.000000000000000000 ) ;
#188 = CC_DESIGN_APPROVAL ( #133, ( #335 ) ) ;
#189 = PRODUCT_DEFINITION_SHAPE ( 'NONE', 'NONE',  #283 ) ;
#190 = DIRECTION ( 'NONE',  ( -1.000000000000000000, 1.224646799147351482E-16, 0.000000000000000000 ) ) ;
#191 = SHAPE_DEFINITION_REPRESENTATION ( #189, #278 ) ;
#192 = FACE_OUTER_BOUND ( 'NONE', #7, .T. ) ;
#193 = CIRCLE ( 'NONE', #285, 2.500000000000000000 ) ;
#194 = CARTESIAN_POINT ( 'NONE',  ( 0.000000000000000000, 0.000000000000000000, 0.000000000000000000 ) ) ;
#195 = CIRCLE ( 'NONE', #14, 5.500000000000000000 ) ;
#196 = DIRECTION ( 'NONE',  ( -0.000000000000000000, -0.000000000000000000, -1.000000000000000000 ) ) ;
#197 = EDGE_CURVE ( 'NONE', #104, #119, #193, .T. ) ;
#198 = DIRECTION ( 'NONE',  ( 1.000000000000000000, 0.000000000000000000, 0.000000000000000000 ) ) ;
#199 = AXIS2_PLACEMENT_3D ( 'NONE', #125, #100, #331 ) ;
#200 = CARTESIAN_POINT ( 'NONE',  ( 0.000000000000000000, 0.000000000000000000, 5.000000000000000000 ) ) ;
#201 = EDGE_LOOP ( 'NONE', ( #288, #31 ) ) ;
#202 = LINE ( 'NONE', #74, #183 ) ;
#203 = VERTEX_POINT ( 'NONE', #314 ) ;
#204 = PERSON_AND_ORGANIZATION_ROLE ( 'creator' ) ;
#205 = ADVANCED_FACE ( 'NONE', ( #86 ), #30, .T. ) ;
#206 = EDGE_CURVE ( 'NONE', #346, #269, #165, .T. ) ;
#207 = ORIENTED_EDGE ( 'NONE', *, *, #275, .F. ) ;
#208 = DATE_AND_TIME ( #76, #163 ) ;
#209 = AXIS2_PLACEMENT_3D ( 'NONE', #311, #340, #342 ) ;
#210 = LINE ( 'NONE', #356, #80 ) ;
#211 = VERTEX_POINT ( 'NONE', #228 ) ;
#212 = PERSON_AND_ORGANIZATION_ROLE ( 'classification_officer' ) ;
#213 = ORIENTED_EDGE ( 'NONE', *, *, #92, .T. ) ;
#214 = APPLICATION_PROTOCOL_DEFINITION ( 'international standard', 'config_control_design', 1994, #360 ) ;
#215 = CARTESIAN_POINT ( 'NONE',  ( 0.000000000000000000, 0.000000000000000000, 0.000000000000000000 ) ) ;
#216 = DIRECTION ( 'NONE',  ( 1.000000000000000000, 0.000000000000000000, 0.000000000000000000 ) ) ;
#217 = CARTESIAN_POINT ( 'NONE',  ( 2.500000000000000000, 3.061616997868383141E-16, 280.0000000000000000 ) ) ;
#218 = CALENDAR_DATE ( 2022, 8, 7 ) ;
#219 = ADVANCED_FACE ( 'NONE', ( #192 ), #287, .F. ) ;
#220 =( GEOMETRIC_REPRESENTATION_CONTEXT ( 3 ) GLOBAL_UNCERTAINTY_ASSIGNED_CONTEXT ( ( #95 ) ) GLOBAL_UNIT_ASSIGNED_CONTEXT ( ( #297, #274, #73 ) ) REPRESENTATION_CONTEXT ( 'NONE', 'WORKASPACE' ) );
#221 = DIRECTION ( 'NONE',  ( 1.000000000000000000, 0.000000000000000000, 0.000000000000000000 ) ) ;
#222 = EDGE_CURVE ( 'NONE', #211, #203, #147, .T. ) ;
#223 = ADVANCED_FACE ( 'NONE', ( #168 ), #28, .T. ) ;
#224 = DIRECTION ( 'NONE',  ( 0.000000000000000000, 0.000000000000000000, 1.000000000000000000 ) ) ;
#225 = DIRECTION ( 'NONE',  ( 1.000000000000000000, 0.000000000000000000, 0.000000000000000000 ) ) ;
#226 = VECTOR ( 'NONE', #250, 1000.000000000000000 ) ;
#227 = PLANE ( 'NONE',  #364 ) ;
#228 = CARTESIAN_POINT ( 'NONE',  ( 5.000000000000000000, 6.123233995736766282E-16, 280.0000000000000000 ) ) ;
#229 = MANIFOLD_SOLID_BREP ( 'Odebrat vysunutím3', #174 ) ;
#230 = EDGE_LOOP ( 'NONE', ( #38, #176 ) ) ;
#231 = CARTESIAN_POINT ( 'NONE',  ( 0.000000000000000000, 0.000000000000000000, 5.500000000000005329 ) ) ;
#232 = ORIENTED_EDGE ( 'NONE', *, *, #92, .F. ) ;
#233 = EDGE_LOOP ( 'NONE', ( #97, #239 ) ) ;
#234 = DIRECTION ( 'NONE',  ( 0.000000000000000000, 0.000000000000000000, 1.000000000000000000 ) ) ;
#235 = VECTOR ( 'NONE', #10, 1000.000000000000000 ) ;
#236 = DIRECTION ( 'NONE',  ( 0.000000000000000000, 0.000000000000000000, 1.000000000000000000 ) ) ;
#237 = PERSON_AND_ORGANIZATION ( #343, #84 ) ;
#238 = AXIS2_PLACEMENT_3D ( 'NONE', #149, #234, #122 ) ;
#239 = ORIENTED_EDGE ( 'NONE', *, *, #51, .T. ) ;
#240 = PERSON_AND_ORGANIZATION_ROLE ( 'design_supplier' ) ;
#241 = DIRECTION ( 'NONE',  ( 0.000000000000000000, 0.000000000000000000, 1.000000000000000000 ) ) ;
#242 = DIRECTION ( 'NONE',  ( -0.000000000000000000, -0.000000000000000000, -1.000000000000000000 ) ) ;
#243 = ADVANCED_FACE ( 'NONE', ( #112 ), #54, .F. ) ;
#244 = EDGE_CURVE ( 'NONE', #211, #269, #22, .T. ) ;
#245 = DIRECTION ( 'NONE',  ( 0.000000000000000000, 0.000000000000000000, 1.000000000000000000 ) ) ;
#246 = ORIENTED_EDGE ( 'NONE', *, *, #352, .T. ) ;
#247 = LOCAL_TIME ( 17, 16, 7.000000000000000000, #328 ) ;
#248 = DIRECTION ( 'NONE',  ( 0.000000000000000000, 0.000000000000000000, 1.000000000000000000 ) ) ;
#249 = CIRCLE ( 'NONE', #301, 0.5000000000000004441 ) ;
#250 = DIRECTION ( 'NONE',  ( -0.000000000000000000, -0.000000000000000000, -1.000000000000000000 ) ) ;
#251 = DIRECTION ( 'NONE',  ( 1.000000000000000000, 0.000000000000000000, 0.000000000000000000 ) ) ;
#252 = CIRCLE ( 'NONE', #374, 8.000000000000000000 ) ;
#253 = CARTESIAN_POINT ( 'NONE',  ( 0.000000000000000000, 0.000000000000000000, 280.0000000000000000 ) ) ;
#254 = ORIENTED_EDGE ( 'NONE', *, *, #275, .T. ) ;
#255 = DIRECTION ( 'NONE',  ( 0.000000000000000000, 0.000000000000000000, 1.000000000000000000 ) ) ;
#256 = ORIENTED_EDGE ( 'NONE', *, *, #197, .F. ) ;
#257 = PLANE ( 'NONE',  #53 ) ;
#258 = ADVANCED_FACE ( 'NONE', ( #109 ), #365, .F. ) ;
#259 = EDGE_CURVE ( 'NONE', #145, #117, #210, .T. ) ;
#260 = TOROIDAL_SURFACE ( 'NONE', #199, 5.500000000000000000, 0.5000000000000000000 ) ;
#261 = VERTEX_POINT ( 'NONE', #71 ) ;
#262 = CARTESIAN_POINT ( 'NONE',  ( 2.500000000000000000, 3.061616997868383141E-16, 280.0000000000000000 ) ) ;
#263 = EDGE_LOOP ( 'NONE', ( #29, #143 ) ) ;
#264 = DATE_AND_TIME ( #351, #277 ) ;
#265 = CC_DESIGN_DATE_AND_TIME_ASSIGNMENT ( #99, #367, ( #335 ) ) ;
#266 = FACE_OUTER_BOUND ( 'NONE', #348, .T. ) ;
#267 = ORIENTED_EDGE ( 'NONE', *, *, #300, .T. ) ;
#268 = DATE_AND_TIME ( #35, #148 ) ;
#269 = VERTEX_POINT ( 'NONE', #116 ) ;
#270 = PERSON_AND_ORGANIZATION ( #343, #84 ) ;
#271 = FACE_OUTER_BOUND ( 'NONE', #27, .T. ) ;
#272 = AXIS2_PLACEMENT_3D ( 'NONE', #75, #162, #82 ) ;
#273 = DIRECTION ( 'NONE',  ( 1.000000000000000000, 0.000000000000000000, 0.000000000000000000 ) ) ;
#274 =( NAMED_UNIT ( * ) PLANE_ANGLE_UNIT ( ) SI_UNIT ( $, .RADIAN. ) );
#275 = EDGE_CURVE ( 'NONE', #154, #104, #202, .T. ) ;
#276 = VERTEX_POINT ( 'NONE', #325 ) ;
#277 = LOCAL_TIME ( 17, 16, 7.000000000000000000, #65 ) ;
#278 = ADVANCED_BREP_SHAPE_REPRESENTATION ( '7ef0', ( #229, #9 ), #220 ) ;
#279 = VECTOR ( 'NONE', #242, 1000.000000000000000 ) ;
#280 = ORIENTED_EDGE ( 'NONE', *, *, #47, .T. ) ;
#281 = DIRECTION ( 'NONE',  ( -1.000000000000000000, 0.000000000000000000, 0.000000000000000000 ) ) ;
#282 = CARTESIAN_POINT ( 'NONE',  ( 0.000000000000000000, 0.000000000000000000, 5.000000000000000000 ) ) ;
#283 = PRODUCT_DEFINITION ( 'NEZNÁMÝ', '', #310, #41 ) ;
#284 = DIRECTION ( 'NONE',  ( 1.000000000000000000, 0.000000000000000000, 0.000000000000000000 ) ) ;
#285 = AXIS2_PLACEMENT_3D ( 'NONE', #138, #196, #198 ) ;
#286 = APPROVAL_PERSON_ORGANIZATION ( #103, #133, #18 ) ;
#287 = CYLINDRICAL_SURFACE ( 'NONE', #1, 2.500000000000000000 ) ;
#288 = ORIENTED_EDGE ( 'NONE', *, *, #78, .T. ) ;
#289 = DIRECTION ( 'NONE',  ( 0.000000000000000000, 0.000000000000000000, 1.000000000000000000 ) ) ;
#290 = CC_DESIGN_SECURITY_CLASSIFICATION ( #335, ( #310 ) ) ;
#291 = APPROVAL_ROLE ( '' ) ;
#292 = APPLICATION_PROTOCOL_DEFINITION ( 'international standard', 'config_control_design', 1994, #316 ) ;
#293 = DIRECTION ( 'NONE',  ( -0.000000000000000000, -0.000000000000000000, -1.000000000000000000 ) ) ;
#294 = DIRECTION ( 'NONE',  ( 1.224646799147353207E-16, 1.000000000000000000, -0.000000000000000000 ) ) ;
#295 = CC_DESIGN_PERSON_AND_ORGANIZATION_ASSIGNMENT ( #4, #240, ( #310 ) ) ;
#296 = VERTEX_POINT ( 'NONE', #321 ) ;
#297 =( LENGTH_UNIT ( ) NAMED_UNIT ( * ) SI_UNIT ( .MILLI., .METRE. ) );
#298 = DIRECTION ( 'NONE',  ( 0.000000000000000000, 0.000000000000000000, -1.000000000000000000 ) ) ;
#299 = DIRECTION ( 'NONE',  ( 0.000000000000000000, 0.000000000000000000, 1.000000000000000000 ) ) ;
#300 = EDGE_CURVE ( 'NONE', #269, #346, #322, .T. ) ;
#301 = AXIS2_PLACEMENT_3D ( 'NONE', #178, #294, #190 ) ;
#302 = EDGE_CURVE ( 'NONE', #94, #119, #155, .T. ) ;
#303 = ORIENTED_EDGE ( 'NONE', *, *, #69, .T. ) ;
#304 = APPROVAL_PERSON_ORGANIZATION ( #320, #81, #291 ) ;
#305 = CC_DESIGN_DATE_AND_TIME_ASSIGNMENT ( #264, #330, ( #283 ) ) ;
#306 = PRODUCT ( '7ef0', '7ef0', '', ( #362 ) ) ;
#307 = APPROVAL_DATE_TIME ( #132, #133 ) ;
#308 = ORIENTED_EDGE ( 'NONE', *, *, #352, .F. ) ;
#309 = DIRECTION ( 'NONE',  ( 1.000000000000000000, 0.000000000000000000, -0.000000000000000000 ) ) ;
#310 = PRODUCT_DEFINITION_FORMATION_WITH_SPECIFIED_SOURCE ( 'LIBOVOLNÝ', '', #306, .NOT_KNOWN. ) ;
#311 = CARTESIAN_POINT ( 'NONE',  ( 0.000000000000000000, 0.000000000000000000, 280.0000000000000000 ) ) ;
#312 = AXIS2_PLACEMENT_3D ( 'NONE', #184, #160, #273 ) ;
#313 = FACE_BOUND ( 'NONE', #263, .T. ) ;
#314 = CARTESIAN_POINT ( 'NONE',  ( -5.000000000000000000, 0.000000000000000000, 280.0000000000000000 ) ) ;
#315 = ORIENTED_EDGE ( 'NONE', *, *, #302, .F. ) ;
#316 = APPLICATION_CONTEXT ( 'configuration controlled 3d designs of mechanical parts and assemblies' ) ;
#317 = DIRECTION ( 'NONE',  ( 0.000000000000000000, 0.000000000000000000, 1.000000000000000000 ) ) ;
#318 = EDGE_LOOP ( 'NONE', ( #354, #175, #213, #368 ) ) ;
#319 = ORIENTED_EDGE ( 'NONE', *, *, #197, .T. ) ;
#320 = PERSON_AND_ORGANIZATION ( #343, #84 ) ;
#321 = CARTESIAN_POINT ( 'NONE',  ( -8.000000000000000000, 0.000000000000000000, 5.000000000000000000 ) ) ;
#322 = CIRCLE ( 'NONE', #32, 5.000000000000000000 ) ;
#323 = ORIENTED_EDGE ( 'NONE', *, *, #87, .F. ) ;
#324 = APPROVAL_DATE_TIME ( #208, #152 ) ;
#325 = CARTESIAN_POINT ( 'NONE',  ( -8.000000000000000000, 0.000000000000000000, 0.000000000000000000 ) ) ;
#326 = CC_DESIGN_PERSON_AND_ORGANIZATION_ASSIGNMENT ( #124, #204, ( #283 ) ) ;
#327 = EDGE_LOOP ( 'NONE', ( #89, #106, #267, #2 ) ) ;
#328 = COORDINATED_UNIVERSAL_TIME_OFFSET ( 1, 0, .AHEAD. ) ;
#329 = ORIENTED_EDGE ( 'NONE', *, *, #51, .F. ) ;
#330 = DATE_TIME_ROLE ( 'creation_date' ) ;
#331 = DIRECTION ( 'NONE',  ( 1.000000000000000000, 0.000000000000000000, 0.000000000000000000 ) ) ;
#332 = ORIENTED_EDGE ( 'NONE', *, *, #64, .T. ) ;
#333 = CIRCLE ( 'NONE', #381, 8.000000000000000000 ) ;
#334 = PERSON_AND_ORGANIZATION ( #343, #84 ) ;
#335 = SECURITY_CLASSIFICATION ( '', '', #120 ) ;
#336 = VERTEX_POINT ( 'NONE', #6 ) ;
#337 = AXIS2_PLACEMENT_3D ( 'NONE', #98, #248, #221 ) ;
#338 = CC_DESIGN_PERSON_AND_ORGANIZATION_ASSIGNMENT ( #237, #212, ( #335 ) ) ;
#339 = CARTESIAN_POINT ( 'NONE',  ( 0.000000000000000000, 0.000000000000000000, 5.000000000000000000 ) ) ;
#340 = DIRECTION ( 'NONE',  ( -0.000000000000000000, -0.000000000000000000, -1.000000000000000000 ) ) ;
#341 = ADVANCED_FACE ( 'NONE', ( #271 ), #118, .T. ) ;
#342 = DIRECTION ( 'NONE',  ( -1.000000000000000000, 0.000000000000000000, 0.000000000000000000 ) ) ;
#343 = PERSON ( 'NEURÈENÝ', 'NEURÈENÝ', 'NEURÈENÝ', ('NEURÈENÝ'), ('NEURÈENÝ'), ('NEURÈENÝ') ) ;
#344 = CARTESIAN_POINT ( 'NONE',  ( 8.000000000000000000, 9.797174393178825657E-16, 0.000000000000000000 ) ) ;
#345 = CARTESIAN_POINT ( 'NONE',  ( 0.000000000000000000, 0.000000000000000000, 5.000000000000000000 ) ) ;
#346 = VERTEX_POINT ( 'NONE', #114 ) ;
#347 = CARTESIAN_POINT ( 'NONE',  ( 0.000000000000000000, 0.000000000000000000, 280.0000000000000000 ) ) ;
#348 = EDGE_LOOP ( 'NONE', ( #379, #141, #303, #323 ) ) ;
#349 = ORIENTED_EDGE ( 'NONE', *, *, #182, .T. ) ;
#350 = CIRCLE ( 'NONE', #5, 0.5000000000000004441 ) ;
#351 = CALENDAR_DATE ( 2022, 8, 7 ) ;
#352 = EDGE_CURVE ( 'NONE', #119, #104, #131, .T. ) ;
#353 = CC_DESIGN_APPROVAL ( #81, ( #310 ) ) ;
#354 = ORIENTED_EDGE ( 'NONE', *, *, #259, .F. ) ;
#355 = PERSON_AND_ORGANIZATION_ROLE ( 'creator' ) ;
#356 = CARTESIAN_POINT ( 'NONE',  ( 8.000000000000000000, 9.797174393178825657E-16, 5.000000000000000000 ) ) ;
#357 = EDGE_LOOP ( 'NONE', ( #315, #45, #254, #319 ) ) ;
#358 = CALENDAR_DATE ( 2022, 8, 7 ) ;
#359 = DIRECTION ( 'NONE',  ( 1.000000000000000000, 0.000000000000000000, 0.000000000000000000 ) ) ;
#360 = APPLICATION_CONTEXT ( 'configuration controlled 3d designs of mechanical parts and assemblies' ) ;
#361 = ORIENTED_EDGE ( 'NONE', *, *, #182, .F. ) ;
#362 = MECHANICAL_CONTEXT ( 'NONE', #316, 'mechanical' ) ;
#363 = DIRECTION ( 'NONE',  ( -0.000000000000000000, -0.000000000000000000, -1.000000000000000000 ) ) ;
#364 = AXIS2_PLACEMENT_3D ( 'NONE', #200, #317, #309 ) ;
#365 = TOROIDAL_SURFACE ( 'NONE', #238, 5.500000000000000000, 0.5000000000000000000 ) ;
#366 = CIRCLE ( 'NONE', #337, 2.500000000000000000 ) ;
#367 = DATE_TIME_ROLE ( 'classification_date' ) ;
#368 = ORIENTED_EDGE ( 'NONE', *, *, #372, .T. ) ;
#369 = CARTESIAN_POINT ( 'NONE',  ( -5.000000000000000000, 0.000000000000000000, 280.0000000000000000 ) ) ;
#370 = AXIS2_PLACEMENT_3D ( 'NONE', #12, #126, #70 ) ;
#371 = ADVANCED_FACE ( 'NONE', ( #266 ), #260, .F. ) ;
#372 = EDGE_CURVE ( 'NONE', #276, #117, #252, .T. ) ;
#373 = DIRECTION ( 'NONE',  ( 0.000000000000000000, 0.000000000000000000, 1.000000000000000000 ) ) ;
#374 = AXIS2_PLACEMENT_3D ( 'NONE', #215, #245, #50 ) ;
#375 = FACE_BOUND ( 'NONE', #230, .T. ) ;
#376 = PRODUCT_RELATED_PRODUCT_CATEGORY ( 'detail', '', ( #306 ) ) ;
#377 = FACE_BOUND ( 'NONE', #72, .T. ) ;
#378 = DIRECTION ( 'NONE',  ( -1.000000000000000000, 0.000000000000000000, 0.000000000000000000 ) ) ;
#379 = ORIENTED_EDGE ( 'NONE', *, *, #64, .F. ) ;
#380 = CARTESIAN_POINT ( 'NONE',  ( -2.500000000000000000, 0.000000000000000000, 280.0000000000000000 ) ) ;
#381 = AXIS2_PLACEMENT_3D ( 'NONE', #345, #289, #251 ) ;
ENDSEC;
END-ISO-10303-21;
