ISO-10303-21;
HEADER;
FILE_DESCRIPTION (( 'STEP AP203' ),
    '1' );
FILE_NAME ('5198.STEP',
    '2022-07-08T14:31:36',
    ( '' ),
    ( '' ),
    'SwSTEP 2.0',
    'SolidWorks 2019',
    '' );
FILE_SCHEMA (( 'CONFIG_CONTROL_DESIGN' ));
ENDSEC;

DATA;
#1 = CARTESIAN_POINT ( 'NONE',  ( -6.000000000000000888, 0.000000000000000000, 7.700000000000012612 ) ) ;
#2 = VERTEX_POINT ( 'NONE', #357 ) ;
#3 = EDGE_CURVE ( 'NONE', #229, #34, #52, .T. ) ;
#4 = AXIS2_PLACEMENT_3D ( 'NONE', #246, #281, #308 ) ;
#5 = CALENDAR_DATE ( 2022, 8, 7 ) ;
#6 = VECTOR ( 'NONE', #249, 1000.000000000000000 ) ;
#7 = ORIENTED_EDGE ( 'NONE', *, *, #237, .T. ) ;
#8 = CYLINDRICAL_SURFACE ( 'NONE', #226, 10.00000000000000000 ) ;
#9 = FACE_OUTER_BOUND ( 'NONE', #22, .T. ) ;
#10 = CARTESIAN_POINT ( 'NONE',  ( -10.00000000000000000, 0.000000000000000000, 7.000000000000000000 ) ) ;
#11 = ADVANCED_FACE ( 'NONE', ( #238 ), #112, .T. ) ;
#12 = DIRECTION ( 'NONE',  ( 0.000000000000000000, 0.000000000000000000, -1.000000000000000000 ) ) ;
#13 = CARTESIAN_POINT ( 'NONE',  ( 0.000000000000000000, 0.000000000000000000, 157.0000000000000000 ) ) ;
#14 = PERSON_AND_ORGANIZATION ( #124, #138 ) ;
#15 = DIRECTION ( 'NONE',  ( 0.000000000000000000, 0.000000000000000000, 1.000000000000000000 ) ) ;
#16 = DIRECTION ( 'NONE',  ( 0.000000000000000000, 0.000000000000000000, 1.000000000000000000 ) ) ;
#17 = CC_DESIGN_APPROVAL ( #36, ( #98 ) ) ;
#18 = APPLICATION_PROTOCOL_DEFINITION ( 'international standard', 'config_control_design', 1994, #175 ) ;
#19 = CC_DESIGN_PERSON_AND_ORGANIZATION_ASSIGNMENT ( #80, #167, ( #204 ) ) ;
#20 = ORIENTED_EDGE ( 'NONE', *, *, #141, .F. ) ;
#21 = CYLINDRICAL_SURFACE ( 'NONE', #304, 6.000000000000000888 ) ;
#22 = EDGE_LOOP ( 'NONE', ( #26, #113, #222, #79 ) ) ;
#23 = EDGE_CURVE ( 'NONE', #133, #256, #214, .T. ) ;
#24 = ORIENTED_EDGE ( 'NONE', *, *, #179, .T. ) ;
#25 = COORDINATED_UNIVERSAL_TIME_OFFSET ( 1, 0, .AHEAD. ) ;
#26 = ORIENTED_EDGE ( 'NONE', *, *, #260, .F. ) ;
#27 = CC_DESIGN_APPROVAL ( #266, ( #274 ) ) ;
#28 = EDGE_LOOP ( 'NONE', ( #350, #82, #39, #248 ) ) ;
#29 = CARTESIAN_POINT ( 'NONE',  ( 0.000000000000000000, 0.000000000000000000, 0.000000000000000000 ) ) ;
#30 = FACE_OUTER_BOUND ( 'NONE', #355, .T. ) ;
#31 = DIRECTION ( 'NONE',  ( 1.000000000000000000, 0.000000000000000000, 0.000000000000000000 ) ) ;
#32 = AXIS2_PLACEMENT_3D ( 'NONE', #271, #15, #119 ) ;
#33 = APPROVAL_ROLE ( '' ) ;
#34 = VERTEX_POINT ( 'NONE', #359 ) ;
#35 = DIRECTION ( 'NONE',  ( 1.000000000000000000, 0.000000000000000000, 0.000000000000000000 ) ) ;
#36 = APPROVAL ( #190, 'NEURÈENÝ' ) ;
#37 = CARTESIAN_POINT ( 'NONE',  ( 0.000000000000000000, 0.000000000000000000, 157.0000000000000000 ) ) ;
#38 = APPROVAL_DATE_TIME ( #143, #84 ) ;
#39 = ORIENTED_EDGE ( 'NONE', *, *, #329, .T. ) ;
#40 = CARTESIAN_POINT ( 'NONE',  ( 0.000000000000000000, 0.000000000000000000, 157.0000000000000000 ) ) ;
#41 = AXIS2_PLACEMENT_3D ( 'NONE', #151, #45, #123 ) ;
#42 = LINE ( 'NONE', #68, #272 ) ;
#43 = AXIS2_PLACEMENT_3D ( 'NONE', #118, #267, #262 ) ;
#44 = CC_DESIGN_DATE_AND_TIME_ASSIGNMENT ( #137, #230, ( #98 ) ) ;
#45 = DIRECTION ( 'NONE',  ( 0.000000000000000000, 0.000000000000000000, 1.000000000000000000 ) ) ;
#46 = CARTESIAN_POINT ( 'NONE',  ( 10.00000000000000000, 1.224646799147353256E-15, 7.000000000000000000 ) ) ;
#47 = ORIENTED_EDGE ( 'NONE', *, *, #353, .F. ) ;
#48 = COORDINATED_UNIVERSAL_TIME_OFFSET ( 1, 0, .AHEAD. ) ;
#49 = FACE_OUTER_BOUND ( 'NONE', #347, .T. ) ;
#50 = AXIS2_PLACEMENT_3D ( 'NONE', #29, #140, #372 ) ;
#51 = ORIENTED_EDGE ( 'NONE', *, *, #291, .F. ) ;
#52 = CIRCLE ( 'NONE', #370, 6.000000000000000888 ) ;
#53 = ORIENTED_EDGE ( 'NONE', *, *, #260, .T. ) ;
#54 = MANIFOLD_SOLID_BREP ( 'Odebrat vysunutím3', #210 ) ;
#55 = DATE_AND_TIME ( #356, #150 ) ;
#56 = ORIENTED_EDGE ( 'NONE', *, *, #141, .T. ) ;
#57 = CIRCLE ( 'NONE', #41, 6.000000000000000888 ) ;
#58 = ORIENTED_EDGE ( 'NONE', *, *, #195, .F. ) ;
#59 = FACE_BOUND ( 'NONE', #189, .T. ) ;
#60 = CARTESIAN_POINT ( 'NONE',  ( 0.000000000000000000, 0.000000000000000000, 157.0000000000000000 ) ) ;
#61 = ADVANCED_FACE ( 'NONE', ( #142 ), #8, .T. ) ;
#62 = DIRECTION ( 'NONE',  ( 0.000000000000000000, 0.000000000000000000, 1.000000000000000000 ) ) ;
#63 = COORDINATED_UNIVERSAL_TIME_OFFSET ( 1, 0, .AHEAD. ) ;
#64 = CARTESIAN_POINT ( 'NONE',  ( -10.00000000000000000, 0.000000000000000000, 7.000000000000000000 ) ) ;
#65 = CIRCLE ( 'NONE', #351, 4.250000000000000000 ) ;
#66 = ORIENTED_EDGE ( 'NONE', *, *, #158, .T. ) ;
#67 = CARTESIAN_POINT ( 'NONE',  ( 4.250000000000000000, 5.204748896376250699E-16, 0.000000000000000000 ) ) ;
#68 = CARTESIAN_POINT ( 'NONE',  ( 6.000000000000000888, 7.347880794884120722E-16, 157.0000000000000000 ) ) ;
#69 = AXIS2_PLACEMENT_3D ( 'NONE', #326, #257, #191 ) ;
#70 = DIRECTION ( 'NONE',  ( 0.000000000000000000, 0.000000000000000000, -1.000000000000000000 ) ) ;
#71 = AXIS2_PLACEMENT_3D ( 'NONE', #37, #173, #115 ) ;
#72 = CARTESIAN_POINT ( 'NONE',  ( -6.700000000000001066, 8.205133554287267548E-16, 7.000000000000006217 ) ) ;
#73 = AXIS2_PLACEMENT_3D ( 'NONE', #292, #62, #35 ) ;
#74 = CARTESIAN_POINT ( 'NONE',  ( 0.000000000000000000, 0.000000000000000000, 157.0000000000000000 ) ) ;
#75 = ORIENTED_EDGE ( 'NONE', *, *, #109, .F. ) ;
#76 = MECHANICAL_CONTEXT ( 'NONE', #175, 'mechanical' ) ;
#77 = EDGE_CURVE ( 'NONE', #34, #252, #198, .T. ) ;
#78 = VERTEX_POINT ( 'NONE', #10 ) ;
#79 = ORIENTED_EDGE ( 'NONE', *, *, #154, .T. ) ;
#80 = PERSON_AND_ORGANIZATION ( #124, #138 ) ;
#81 = TOROIDAL_SURFACE ( 'NONE', #73, 6.700000000000001066, 0.6999999999999999556 ) ;
#82 = ORIENTED_EDGE ( 'NONE', *, *, #217, .T. ) ;
#83 = EDGE_LOOP ( 'NONE', ( #289, #316, #105, #139 ) ) ;
#84 = APPROVAL ( #368, 'NEURÈENÝ' ) ;
#85 = DIRECTION ( 'NONE',  ( 1.000000000000000000, 0.000000000000000000, 0.000000000000000000 ) ) ;
#86 = CARTESIAN_POINT ( 'NONE',  ( -6.700000000000001066, 8.205133554287267548E-16, 7.700000000000012612 ) ) ;
#87 = LINE ( 'NONE', #380, #339 ) ;
#88 = ADVANCED_FACE ( 'NONE', ( #30 ), #114, .F. ) ;
#89 = CYLINDRICAL_SURFACE ( 'NONE', #327, 4.250000000000000000 ) ;
#90 = DIRECTION ( 'NONE',  ( -0.000000000000000000, -0.000000000000000000, -1.000000000000000000 ) ) ;
#91 = APPROVAL_PERSON_ORGANIZATION ( #305, #36, #160 ) ;
#92 = DIRECTION ( 'NONE',  ( 1.000000000000000000, 0.000000000000000000, 0.000000000000000000 ) ) ;
#93 = APPROVAL_PERSON_ORGANIZATION ( #317, #266, #358 ) ;
#94 = CARTESIAN_POINT ( 'NONE',  ( 0.000000000000000000, 0.000000000000000000, 7.000000000000000000 ) ) ;
#95 = PLANE ( 'NONE',  #309 ) ;
#96 = UNCERTAINTY_MEASURE_WITH_UNIT (LENGTH_MEASURE( 1.000000000000000082E-05 ), #299, 'distance_accuracy_value', 'NONE');
#97 = CARTESIAN_POINT ( 'NONE',  ( 10.00000000000000000, 1.224646799147353256E-15, 7.000000000000000000 ) ) ;
#98 = PRODUCT_DEFINITION ( 'NEZNÁMÝ', '', #274, #263 ) ;
#99 = PERSON_AND_ORGANIZATION_ROLE ( 'design_owner' ) ;
#100 = CYLINDRICAL_SURFACE ( 'NONE', #334, 10.00000000000000000 ) ;
#101 = CARTESIAN_POINT ( 'NONE',  ( 0.000000000000000000, 0.000000000000000000, 7.700000000000012612 ) ) ;
#102 = EDGE_CURVE ( 'NONE', #78, #197, #258, .T. ) ;
#103 = ORIENTED_EDGE ( 'NONE', *, *, #23, .F. ) ;
#104 = AXIS2_PLACEMENT_3D ( 'NONE', #146, #201, #92 ) ;
#105 = ORIENTED_EDGE ( 'NONE', *, *, #102, .T. ) ;
#106 = PERSON_AND_ORGANIZATION ( #124, #138 ) ;
#107 = ORIENTED_EDGE ( 'NONE', *, *, #227, .T. ) ;
#108 = CIRCLE ( 'NONE', #43, 6.700000000000001066 ) ;
#109 = EDGE_CURVE ( 'NONE', #197, #322, #298, .T. ) ;
#110 = EDGE_LOOP ( 'NONE', ( #7, #24 ) ) ;
#111 = DIRECTION ( 'NONE',  ( 1.224646799147353207E-16, 1.000000000000000000, -0.000000000000000000 ) ) ;
#112 = CYLINDRICAL_SURFACE ( 'NONE', #71, 6.000000000000000888 ) ;
#113 = ORIENTED_EDGE ( 'NONE', *, *, #307, .T. ) ;
#114 = TOROIDAL_SURFACE ( 'NONE', #254, 6.700000000000001066, 0.6999999999999999556 ) ;
#115 = DIRECTION ( 'NONE',  ( -1.000000000000000000, 0.000000000000000000, 0.000000000000000000 ) ) ;
#116 = CALENDAR_DATE ( 2022, 8, 7 ) ;
#117 = ORIENTED_EDGE ( 'NONE', *, *, #300, .T. ) ;
#118 = CARTESIAN_POINT ( 'NONE',  ( 0.000000000000000000, 0.000000000000000000, 7.000000000000000000 ) ) ;
#119 = DIRECTION ( 'NONE',  ( 1.000000000000000000, 0.000000000000000000, -0.000000000000000000 ) ) ;
#120 = PRODUCT ( '5198', '5198', '', ( #76 ) ) ;
#121 = ADVANCED_FACE ( 'NONE', ( #9 ), #324, .F. ) ;
#122 = LINE ( 'NONE', #97, #6 ) ;
#123 = DIRECTION ( 'NONE',  ( 1.000000000000000000, 0.000000000000000000, 0.000000000000000000 ) ) ;
#124 = PERSON ( 'NEURÈENÝ', 'NEURÈENÝ', 'NEURÈENÝ', ('NEURÈENÝ'), ('NEURÈENÝ'), ('NEURÈENÝ') ) ;
#125 = DIRECTION ( 'NONE',  ( 1.000000000000000000, 0.000000000000000000, -0.000000000000000000 ) ) ;
#126 = ADVANCED_FACE ( 'NONE', ( #361 ), #89, .F. ) ;
#127 = DIRECTION ( 'NONE',  ( 0.000000000000000000, 0.000000000000000000, 1.000000000000000000 ) ) ;
#128 = VERTEX_POINT ( 'NONE', #276 ) ;
#129 = CALENDAR_DATE ( 2022, 8, 7 ) ;
#130 = CARTESIAN_POINT ( 'NONE',  ( 0.000000000000000000, 0.000000000000000000, 157.0000000000000000 ) ) ;
#131 = VERTEX_POINT ( 'NONE', #242 ) ;
#132 = APPROVAL_DATE_TIME ( #165, #266 ) ;
#133 = VERTEX_POINT ( 'NONE', #67 ) ;
#134 = CIRCLE ( 'NONE', #364, 6.000000000000000888 ) ;
#135 = PRODUCT_RELATED_PRODUCT_CATEGORY ( 'detail', '', ( #120 ) ) ;
#136 = EDGE_LOOP ( 'NONE', ( #265, #103 ) ) ;
#137 = DATE_AND_TIME ( #5, #223 ) ;
#138 = ORGANIZATION ( 'NEURÈENÝ', 'NEURÈENÝ', '' ) ;
#139 = ORIENTED_EDGE ( 'NONE', *, *, #109, .T. ) ;
#140 = DIRECTION ( 'NONE',  ( 0.000000000000000000, 0.000000000000000000, 1.000000000000000000 ) ) ;
#141 = EDGE_CURVE ( 'NONE', #128, #252, #57, .T. ) ;
#142 = FACE_OUTER_BOUND ( 'NONE', #28, .T. ) ;
#143 = DATE_AND_TIME ( #116, #188 ) ;
#144 = VERTEX_POINT ( 'NONE', #72 ) ;
#145 = VECTOR ( 'NONE', #330, 1000.000000000000000 ) ;
#146 = CARTESIAN_POINT ( 'NONE',  ( 0.000000000000000000, 0.000000000000000000, 0.000000000000000000 ) ) ;
#147 = ADVANCED_FACE ( 'NONE', ( #375, #340 ), #95, .T. ) ;
#148 = ORIENTED_EDGE ( 'NONE', *, *, #373, .F. ) ;
#149 = DIRECTION ( 'NONE',  ( 0.000000000000000000, -1.000000000000000000, 0.000000000000000000 ) ) ;
#150 = LOCAL_TIME ( 16, 31, 36.00000000000000000, #284 ) ;
#151 = CARTESIAN_POINT ( 'NONE',  ( 0.000000000000000000, 0.000000000000000000, 7.700000000000012612 ) ) ;
#152 =( NAMED_UNIT ( * ) PLANE_ANGLE_UNIT ( ) SI_UNIT ( $, .RADIAN. ) );
#153 = PLANE ( 'NONE',  #32 ) ;
#154 = EDGE_CURVE ( 'NONE', #256, #133, #156, .T. ) ;
#155 = AXIS2_PLACEMENT_3D ( 'NONE', #94, #338, #269 ) ;
#156 = CIRCLE ( 'NONE', #221, 4.250000000000000000 ) ;
#157 = PERSON_AND_ORGANIZATION ( #124, #138 ) ;
#158 = EDGE_CURVE ( 'NONE', #229, #128, #42, .T. ) ;
#159 = DIRECTION ( 'NONE',  ( -1.000000000000000000, 0.000000000000000000, 0.000000000000000000 ) ) ;
#160 = APPROVAL_ROLE ( '' ) ;
#161 = PLANE ( 'NONE',  #170 ) ;
#162 = ORIENTED_EDGE ( 'NONE', *, *, #158, .F. ) ;
#163 = ORIENTED_EDGE ( 'NONE', *, *, #195, .T. ) ;
#164 = CIRCLE ( 'NONE', #69, 6.700000000000001066 ) ;
#165 = DATE_AND_TIME ( #233, #336 ) ;
#166 = ORIENTED_EDGE ( 'NONE', *, *, #341, .T. ) ;
#167 = PERSON_AND_ORGANIZATION_ROLE ( 'classification_officer' ) ;
#168 = ADVANCED_FACE ( 'NONE', ( #377 ), #100, .T. ) ;
#169 = ORIENTED_EDGE ( 'NONE', *, *, #3, .T. ) ;
#170 = AXIS2_PLACEMENT_3D ( 'NONE', #278, #346, #125 ) ;
#171 = CARTESIAN_POINT ( 'NONE',  ( 10.00000000000000000, 1.224646799147353256E-15, 0.000000000000000000 ) ) ;
#172 = DIRECTION ( 'NONE',  ( -0.000000000000000000, -0.000000000000000000, -1.000000000000000000 ) ) ;
#173 = DIRECTION ( 'NONE',  ( -0.000000000000000000, -0.000000000000000000, -1.000000000000000000 ) ) ;
#174 = CARTESIAN_POINT ( 'NONE',  ( 6.000000000000000888, 7.347880794884120722E-16, 157.0000000000000000 ) ) ;
#175 = APPLICATION_CONTEXT ( 'configuration controlled 3d designs of mechanical parts and assemblies' ) ;
#176 = DIRECTION ( 'NONE',  ( 0.000000000000000000, 0.000000000000000000, 1.000000000000000000 ) ) ;
#177 = LOCAL_TIME ( 16, 31, 36.00000000000000000, #48 ) ;
#178 = CARTESIAN_POINT ( 'NONE',  ( 0.000000000000000000, 0.000000000000000000, 7.000000000000000000 ) ) ;
#179 = EDGE_CURVE ( 'NONE', #219, #78, #333, .T. ) ;
#180 = ORIENTED_EDGE ( 'NONE', *, *, #329, .F. ) ;
#181 = DIRECTION ( 'NONE',  ( 1.000000000000000000, 0.000000000000000000, 0.000000000000000000 ) ) ;
#182 = CARTESIAN_POINT ( 'NONE',  ( 0.000000000000000000, 0.000000000000000000, 157.0000000000000000 ) ) ;
#183 = CC_DESIGN_PERSON_AND_ORGANIZATION_ASSIGNMENT ( #106, #220, ( #274 ) ) ;
#184 = PERSON_AND_ORGANIZATION ( #124, #138 ) ;
#185 = FACE_BOUND ( 'NONE', #136, .T. ) ;
#186 = DATE_AND_TIME ( #129, #177 ) ;
#187 = DIRECTION ( 'NONE',  ( 1.000000000000000000, 0.000000000000000000, -0.000000000000000000 ) ) ;
#188 = LOCAL_TIME ( 16, 31, 36.00000000000000000, #63 ) ;
#189 = EDGE_LOOP ( 'NONE', ( #363, #314 ) ) ;
#190 = APPROVAL_STATUS ( 'not_yet_approved' ) ;
#191 = DIRECTION ( 'NONE',  ( 1.000000000000000000, 0.000000000000000000, 0.000000000000000000 ) ) ;
#192 = APPROVAL_STATUS ( 'not_yet_approved' ) ;
#193 = LINE ( 'NONE', #218, #208 ) ;
#194 = ORIENTED_EDGE ( 'NONE', *, *, #77, .T. ) ;
#195 = EDGE_CURVE ( 'NONE', #34, #229, #134, .T. ) ;
#196 = AXIS2_PLACEMENT_3D ( 'NONE', #182, #236, #207 ) ;
#197 = VERTEX_POINT ( 'NONE', #211 ) ;
#198 = LINE ( 'NONE', #294, #145 ) ;
#199 = CARTESIAN_POINT ( 'NONE',  ( 0.000000000000000000, 0.000000000000000000, 0.000000000000000000 ) ) ;
#200 = DIRECTION ( 'NONE',  ( 0.000000000000000000, 0.000000000000000000, -1.000000000000000000 ) ) ;
#201 = DIRECTION ( 'NONE',  ( 0.000000000000000000, 0.000000000000000000, 1.000000000000000000 ) ) ;
#202 = DIRECTION ( 'NONE',  ( 0.000000000000000000, 0.000000000000000000, 1.000000000000000000 ) ) ;
#203 = CC_DESIGN_PERSON_AND_ORGANIZATION_ASSIGNMENT ( #184, #224, ( #98 ) ) ;
#204 = SECURITY_CLASSIFICATION ( '', '', #320 ) ;
#205 = DIRECTION ( 'NONE',  ( 0.000000000000000000, 0.000000000000000000, -1.000000000000000000 ) ) ;
#206 = CARTESIAN_POINT ( 'NONE',  ( 0.000000000000000000, 0.000000000000000000, 7.000000000000000000 ) ) ;
#207 = DIRECTION ( 'NONE',  ( 1.000000000000000000, 0.000000000000000000, 0.000000000000000000 ) ) ;
#208 = VECTOR ( 'NONE', #378, 1000.000000000000000 ) ;
#209 = FACE_OUTER_BOUND ( 'NONE', #352, .T. ) ;
#210 = CLOSED_SHELL ( 'NONE', ( #126, #88, #11, #61, #168, #280, #212, #321, #147, #344, #121 ) ) ;
#211 = CARTESIAN_POINT ( 'NONE',  ( -10.00000000000000000, 0.000000000000000000, 0.000000000000000000 ) ) ;
#212 = ADVANCED_FACE ( 'NONE', ( #185, #209 ), #153, .F. ) ;
#213 = DIRECTION ( 'NONE',  ( 0.000000000000000000, 0.000000000000000000, 1.000000000000000000 ) ) ;
#214 = CIRCLE ( 'NONE', #319, 4.250000000000000000 ) ;
#215 = DIRECTION ( 'NONE',  ( 1.000000000000000000, 0.000000000000000000, 0.000000000000000000 ) ) ;
#216 = VERTEX_POINT ( 'NONE', #306 ) ;
#217 = EDGE_CURVE ( 'NONE', #219, #322, #122, .T. ) ;
#218 = CARTESIAN_POINT ( 'NONE',  ( -4.250000000000000000, 0.000000000000000000, 157.0000000000000000 ) ) ;
#219 = VERTEX_POINT ( 'NONE', #46 ) ;
#220 = PERSON_AND_ORGANIZATION_ROLE ( 'design_supplier' ) ;
#221 = AXIS2_PLACEMENT_3D ( 'NONE', #311, #342, #181 ) ;
#222 = ORIENTED_EDGE ( 'NONE', *, *, #291, .T. ) ;
#223 = LOCAL_TIME ( 16, 31, 36.00000000000000000, #255 ) ;
#224 = PERSON_AND_ORGANIZATION_ROLE ( 'creator' ) ;
#225 = ORIENTED_EDGE ( 'NONE', *, *, #300, .F. ) ;
#226 = AXIS2_PLACEMENT_3D ( 'NONE', #178, #90, #335 ) ;
#227 = EDGE_CURVE ( 'NONE', #252, #144, #318, .T. ) ;
#228 = PERSON_AND_ORGANIZATION_ROLE ( 'creator' ) ;
#229 = VERTEX_POINT ( 'NONE', #174 ) ;
#230 = DATE_TIME_ROLE ( 'creation_date' ) ;
#231 = DIRECTION ( 'NONE',  ( -1.000000000000000000, 1.224646799147353454E-16, 0.000000000000000000 ) ) ;
#232 = CARTESIAN_POINT ( 'NONE',  ( 0.000000000000000000, 0.000000000000000000, 157.0000000000000000 ) ) ;
#233 = CALENDAR_DATE ( 2022, 8, 7 ) ;
#234 = CARTESIAN_POINT ( 'NONE',  ( 0.000000000000000000, 0.000000000000000000, 7.000000000000000000 ) ) ;
#235 = DIRECTION ( 'NONE',  ( -1.000000000000000000, 0.000000000000000000, 0.000000000000000000 ) ) ;
#236 = DIRECTION ( 'NONE',  ( 0.000000000000000000, 0.000000000000000000, 1.000000000000000000 ) ) ;
#237 = EDGE_CURVE ( 'NONE', #78, #219, #376, .T. ) ;
#238 = FACE_OUTER_BOUND ( 'NONE', #282, .T. ) ;
#239 =( NAMED_UNIT ( * ) SI_UNIT ( $, .STERADIAN. ) SOLID_ANGLE_UNIT ( ) );
#240 = CIRCLE ( 'NONE', #196, 4.250000000000000000 ) ;
#241 = DIRECTION ( 'NONE',  ( 1.000000000000000000, 0.000000000000000000, 0.000000000000000000 ) ) ;
#242 = CARTESIAN_POINT ( 'NONE',  ( 4.250000000000000000, 5.204748896376250699E-16, 157.0000000000000000 ) ) ;
#243 = CIRCLE ( 'NONE', #50, 10.00000000000000000 ) ;
#244 = AXIS2_PLACEMENT_3D ( 'NONE', #234, #127, #215 ) ;
#245 = EDGE_CURVE ( 'NONE', #2, #144, #164, .T. ) ;
#246 = CARTESIAN_POINT ( 'NONE',  ( 0.000000000000000000, 0.000000000000000000, 0.000000000000000000 ) ) ;
#247 = DIRECTION ( 'NONE',  ( 0.000000000000000000, 0.000000000000000000, 1.000000000000000000 ) ) ;
#248 = ORIENTED_EDGE ( 'NONE', *, *, #102, .F. ) ;
#249 = DIRECTION ( 'NONE',  ( -0.000000000000000000, -0.000000000000000000, -1.000000000000000000 ) ) ;
#250 = ORIENTED_EDGE ( 'NONE', *, *, #245, .F. ) ;
#251 = PERSON_AND_ORGANIZATION ( #124, #138 ) ;
#252 = VERTEX_POINT ( 'NONE', #1 ) ;
#253 = ORIENTED_EDGE ( 'NONE', *, *, #227, .F. ) ;
#254 = AXIS2_PLACEMENT_3D ( 'NONE', #290, #202, #31 ) ;
#255 = COORDINATED_UNIVERSAL_TIME_OFFSET ( 1, 0, .AHEAD. ) ;
#256 = VERTEX_POINT ( 'NONE', #360 ) ;
#257 = DIRECTION ( 'NONE',  ( -0.000000000000000000, -0.000000000000000000, -1.000000000000000000 ) ) ;
#258 = LINE ( 'NONE', #64, #275 ) ;
#259 = CIRCLE ( 'NONE', #310, 6.000000000000000888 ) ;
#260 = EDGE_CURVE ( 'NONE', #131, #133, #87, .T. ) ;
#261 = EDGE_LOOP ( 'NONE', ( #253, #20, #312, #148 ) ) ;
#262 = DIRECTION ( 'NONE',  ( 1.000000000000000000, 0.000000000000000000, 0.000000000000000000 ) ) ;
#263 = DESIGN_CONTEXT ( 'detailed design', #328, 'design' ) ;
#264 = DIRECTION ( 'NONE',  ( 1.000000000000000000, 0.000000000000000000, 0.000000000000000000 ) ) ;
#265 = ORIENTED_EDGE ( 'NONE', *, *, #154, .F. ) ;
#266 = APPROVAL ( #192, 'NEURÈENÝ' ) ;
#267 = DIRECTION ( 'NONE',  ( -0.000000000000000000, -0.000000000000000000, -1.000000000000000000 ) ) ;
#268 = CIRCLE ( 'NONE', #295, 0.7000000000000000666 ) ;
#269 = DIRECTION ( 'NONE',  ( 1.000000000000000000, 0.000000000000000000, 0.000000000000000000 ) ) ;
#270 = AXIS2_PLACEMENT_3D ( 'NONE', #232, #205, #235 ) ;
#271 = CARTESIAN_POINT ( 'NONE',  ( 0.000000000000000000, 0.000000000000000000, 0.000000000000000000 ) ) ;
#272 = VECTOR ( 'NONE', #374, 1000.000000000000000 ) ;
#273 = CC_DESIGN_PERSON_AND_ORGANIZATION_ASSIGNMENT ( #157, #99, ( #120 ) ) ;
#274 = PRODUCT_DEFINITION_FORMATION_WITH_SPECIFIED_SOURCE ( 'LIBOVOLNÝ', '', #120, .NOT_KNOWN. ) ;
#275 = VECTOR ( 'NONE', #296, 1000.000000000000000 ) ;
#276 = CARTESIAN_POINT ( 'NONE',  ( 6.000000000000000888, 7.347880794884120722E-16, 7.700000000000012612 ) ) ;
#277 = APPROVAL_DATE_TIME ( #186, #36 ) ;
#278 = CARTESIAN_POINT ( 'NONE',  ( 0.000000000000000000, 0.000000000000000000, 7.000000000000000000 ) ) ;
#279 = ORIENTED_EDGE ( 'NONE', *, *, #307, .F. ) ;
#280 = ADVANCED_FACE ( 'NONE', ( #59, #331 ), #161, .T. ) ;
#281 = DIRECTION ( 'NONE',  ( 0.000000000000000000, 0.000000000000000000, 1.000000000000000000 ) ) ;
#282 = EDGE_LOOP ( 'NONE', ( #285, #66, #56, #332 ) ) ;
#283 = EDGE_LOOP ( 'NONE', ( #381, #279 ) ) ;
#284 = COORDINATED_UNIVERSAL_TIME_OFFSET ( 1, 0, .AHEAD. ) ;
#285 = ORIENTED_EDGE ( 'NONE', *, *, #3, .F. ) ;
#286 = CC_DESIGN_DATE_AND_TIME_ASSIGNMENT ( #55, #293, ( #204 ) ) ;
#287 = ORIENTED_EDGE ( 'NONE', *, *, #23, .T. ) ;
#288 = CC_DESIGN_APPROVAL ( #84, ( #204 ) ) ;
#289 = ORIENTED_EDGE ( 'NONE', *, *, #217, .F. ) ;
#290 = CARTESIAN_POINT ( 'NONE',  ( 0.000000000000000000, 0.000000000000000000, 7.700000000000012612 ) ) ;
#291 = EDGE_CURVE ( 'NONE', #216, #256, #193, .T. ) ;
#292 = CARTESIAN_POINT ( 'NONE',  ( 0.000000000000000000, 0.000000000000000000, 7.700000000000012612 ) ) ;
#293 = DATE_TIME_ROLE ( 'classification_date' ) ;
#294 = CARTESIAN_POINT ( 'NONE',  ( -6.000000000000000888, 0.000000000000000000, 157.0000000000000000 ) ) ;
#295 = AXIS2_PLACEMENT_3D ( 'NONE', #303, #149, #12 ) ;
#296 = DIRECTION ( 'NONE',  ( -0.000000000000000000, -0.000000000000000000, -1.000000000000000000 ) ) ;
#297 = PRODUCT_DEFINITION_SHAPE ( 'NONE', 'NONE',  #98 ) ;
#298 = CIRCLE ( 'NONE', #104, 10.00000000000000000 ) ;
#299 =( LENGTH_UNIT ( ) NAMED_UNIT ( * ) SI_UNIT ( .MILLI., .METRE. ) );
#300 = EDGE_CURVE ( 'NONE', #252, #128, #259, .T. ) ;
#301 = EDGE_LOOP ( 'NONE', ( #166, #53, #287, #51 ) ) ;
#302 = DIRECTION ( 'NONE',  ( -0.000000000000000000, -0.000000000000000000, -1.000000000000000000 ) ) ;
#303 = CARTESIAN_POINT ( 'NONE',  ( 6.700000000000001066, 0.000000000000000000, 7.700000000000012612 ) ) ;
#304 = AXIS2_PLACEMENT_3D ( 'NONE', #130, #349, #315 ) ;
#305 = PERSON_AND_ORGANIZATION ( #124, #138 ) ;
#306 = CARTESIAN_POINT ( 'NONE',  ( -4.250000000000000000, 0.000000000000000000, 157.0000000000000000 ) ) ;
#307 = EDGE_CURVE ( 'NONE', #131, #216, #65, .T. ) ;
#308 = DIRECTION ( 'NONE',  ( 1.000000000000000000, 0.000000000000000000, 0.000000000000000000 ) ) ;
#309 = AXIS2_PLACEMENT_3D ( 'NONE', #40, #369, #187 ) ;
#310 = AXIS2_PLACEMENT_3D ( 'NONE', #101, #213, #345 ) ;
#311 = CARTESIAN_POINT ( 'NONE',  ( 0.000000000000000000, 0.000000000000000000, 0.000000000000000000 ) ) ;
#312 = ORIENTED_EDGE ( 'NONE', *, *, #353, .T. ) ;
#313 = DIRECTION ( 'NONE',  ( 1.000000000000000000, 0.000000000000000000, 0.000000000000000000 ) ) ;
#314 = ORIENTED_EDGE ( 'NONE', *, *, #373, .T. ) ;
#315 = DIRECTION ( 'NONE',  ( -1.000000000000000000, 0.000000000000000000, 0.000000000000000000 ) ) ;
#316 = ORIENTED_EDGE ( 'NONE', *, *, #237, .F. ) ;
#317 = PERSON_AND_ORGANIZATION ( #124, #138 ) ;
#318 = CIRCLE ( 'NONE', #354, 0.7000000000000000666 ) ;
#319 = AXIS2_PLACEMENT_3D ( 'NONE', #199, #172, #264 ) ;
#320 = SECURITY_CLASSIFICATION_LEVEL ( 'unclassified' ) ;
#321 = ADVANCED_FACE ( 'NONE', ( #49 ), #21, .T. ) ;
#322 = VERTEX_POINT ( 'NONE', #171 ) ;
#323 = ADVANCED_BREP_SHAPE_REPRESENTATION ( '5198', ( #54, #4 ), #325 ) ;
#324 = CYLINDRICAL_SURFACE ( 'NONE', #270, 4.250000000000000000 ) ;
#325 =( GEOMETRIC_REPRESENTATION_CONTEXT ( 3 ) GLOBAL_UNCERTAINTY_ASSIGNED_CONTEXT ( ( #96 ) ) GLOBAL_UNIT_ASSIGNED_CONTEXT ( ( #299, #152, #239 ) ) REPRESENTATION_CONTEXT ( 'NONE', 'WORKASPACE' ) );
#326 = CARTESIAN_POINT ( 'NONE',  ( 0.000000000000000000, 0.000000000000000000, 7.000000000000000000 ) ) ;
#327 = AXIS2_PLACEMENT_3D ( 'NONE', #343, #70, #371 ) ;
#328 = APPLICATION_CONTEXT ( 'configuration controlled 3d designs of mechanical parts and assemblies' ) ;
#329 = EDGE_CURVE ( 'NONE', #322, #197, #243, .T. ) ;
#330 = DIRECTION ( 'NONE',  ( -0.000000000000000000, -0.000000000000000000, -1.000000000000000000 ) ) ;
#331 = FACE_OUTER_BOUND ( 'NONE', #110, .T. ) ;
#332 = ORIENTED_EDGE ( 'NONE', *, *, #77, .F. ) ;
#333 = CIRCLE ( 'NONE', #155, 10.00000000000000000 ) ;
#334 = AXIS2_PLACEMENT_3D ( 'NONE', #206, #302, #159 ) ;
#335 = DIRECTION ( 'NONE',  ( -1.000000000000000000, 0.000000000000000000, 0.000000000000000000 ) ) ;
#336 = LOCAL_TIME ( 16, 31, 36.00000000000000000, #25 ) ;
#337 = EDGE_LOOP ( 'NONE', ( #163, #169 ) ) ;
#338 = DIRECTION ( 'NONE',  ( 0.000000000000000000, 0.000000000000000000, 1.000000000000000000 ) ) ;
#339 = VECTOR ( 'NONE', #200, 1000.000000000000000 ) ;
#340 = FACE_OUTER_BOUND ( 'NONE', #337, .T. ) ;
#341 = EDGE_CURVE ( 'NONE', #216, #131, #240, .T. ) ;
#342 = DIRECTION ( 'NONE',  ( -0.000000000000000000, -0.000000000000000000, -1.000000000000000000 ) ) ;
#343 = CARTESIAN_POINT ( 'NONE',  ( 0.000000000000000000, 0.000000000000000000, 157.0000000000000000 ) ) ;
#344 = ADVANCED_FACE ( 'NONE', ( #365 ), #81, .F. ) ;
#345 = DIRECTION ( 'NONE',  ( 1.000000000000000000, 0.000000000000000000, 0.000000000000000000 ) ) ;
#346 = DIRECTION ( 'NONE',  ( 0.000000000000000000, 0.000000000000000000, 1.000000000000000000 ) ) ;
#347 = EDGE_LOOP ( 'NONE', ( #162, #58, #194, #117 ) ) ;
#348 = APPLICATION_PROTOCOL_DEFINITION ( 'international standard', 'config_control_design', 1994, #328 ) ;
#349 = DIRECTION ( 'NONE',  ( -0.000000000000000000, -0.000000000000000000, -1.000000000000000000 ) ) ;
#350 = ORIENTED_EDGE ( 'NONE', *, *, #179, .F. ) ;
#351 = AXIS2_PLACEMENT_3D ( 'NONE', #74, #247, #313 ) ;
#352 = EDGE_LOOP ( 'NONE', ( #75, #180 ) ) ;
#353 = EDGE_CURVE ( 'NONE', #128, #2, #268, .T. ) ;
#354 = AXIS2_PLACEMENT_3D ( 'NONE', #86, #111, #231 ) ;
#355 = EDGE_LOOP ( 'NONE', ( #225, #107, #250, #47 ) ) ;
#356 = CALENDAR_DATE ( 2022, 8, 7 ) ;
#357 = CARTESIAN_POINT ( 'NONE',  ( 6.700000000000001066, 0.000000000000000000, 7.000000000000006217 ) ) ;
#358 = APPROVAL_ROLE ( '' ) ;
#359 = CARTESIAN_POINT ( 'NONE',  ( -6.000000000000000888, 0.000000000000000000, 157.0000000000000000 ) ) ;
#360 = CARTESIAN_POINT ( 'NONE',  ( -4.250000000000000000, 0.000000000000000000, 0.000000000000000000 ) ) ;
#361 = FACE_OUTER_BOUND ( 'NONE', #301, .T. ) ;
#362 = SHAPE_DEFINITION_REPRESENTATION ( #297, #323 ) ;
#363 = ORIENTED_EDGE ( 'NONE', *, *, #245, .T. ) ;
#364 = AXIS2_PLACEMENT_3D ( 'NONE', #13, #16, #241 ) ;
#365 = FACE_OUTER_BOUND ( 'NONE', #261, .T. ) ;
#366 = APPROVAL_PERSON_ORGANIZATION ( #14, #84, #33 ) ;
#367 = CC_DESIGN_PERSON_AND_ORGANIZATION_ASSIGNMENT ( #251, #228, ( #274 ) ) ;
#368 = APPROVAL_STATUS ( 'not_yet_approved' ) ;
#369 = DIRECTION ( 'NONE',  ( 0.000000000000000000, 0.000000000000000000, 1.000000000000000000 ) ) ;
#370 = AXIS2_PLACEMENT_3D ( 'NONE', #60, #176, #85 ) ;
#371 = DIRECTION ( 'NONE',  ( -1.000000000000000000, 0.000000000000000000, 0.000000000000000000 ) ) ;
#372 = DIRECTION ( 'NONE',  ( 1.000000000000000000, 0.000000000000000000, 0.000000000000000000 ) ) ;
#373 = EDGE_CURVE ( 'NONE', #144, #2, #108, .T. ) ;
#374 = DIRECTION ( 'NONE',  ( -0.000000000000000000, -0.000000000000000000, -1.000000000000000000 ) ) ;
#375 = FACE_BOUND ( 'NONE', #283, .T. ) ;
#376 = CIRCLE ( 'NONE', #244, 10.00000000000000000 ) ;
#377 = FACE_OUTER_BOUND ( 'NONE', #83, .T. ) ;
#378 = DIRECTION ( 'NONE',  ( 0.000000000000000000, 0.000000000000000000, -1.000000000000000000 ) ) ;
#379 = CC_DESIGN_SECURITY_CLASSIFICATION ( #204, ( #274 ) ) ;
#380 = CARTESIAN_POINT ( 'NONE',  ( 4.250000000000000000, 5.204748896376250699E-16, 157.0000000000000000 ) ) ;
#381 = ORIENTED_EDGE ( 'NONE', *, *, #341, .F. ) ;
ENDSEC;
END-ISO-10303-21;
