ISO-10303-21;
HEADER;
FILE_DESCRIPTION (( 'STEP AP203' ),
    '1' );
FILE_NAME ('ee72.STEP',
    '2022-07-08T14:58:37',
    ( '' ),
    ( '' ),
    'SwSTEP 2.0',
    'SolidWorks 2019',
    '' );
FILE_SCHEMA (( 'CONFIG_CONTROL_DESIGN' ));
ENDSEC;

DATA;
#1 = CIRCLE ( 'NONE', #173, 8.000000000000000000 ) ;
#2 = ADVANCED_FACE ( 'NONE', ( #160, #270 ), #239, .T. ) ;
#3 = ORIENTED_EDGE ( 'NONE', *, *, #207, .F. ) ;
#4 = DIRECTION ( 'NONE',  ( -0.000000000000000000, -0.000000000000000000, -1.000000000000000000 ) ) ;
#5 = CIRCLE ( 'NONE', #118, 5.000000000000000000 ) ;
#6 = PRODUCT_DEFINITION_FORMATION_WITH_SPECIFIED_SOURCE ( 'LIBOVOLNÝ', '', #320, .NOT_KNOWN. ) ;
#7 = CARTESIAN_POINT ( 'NONE',  ( 0.000000000000000000, 0.000000000000000000, 130.0000000000000000 ) ) ;
#8 = DIRECTION ( 'NONE',  ( 1.000000000000000000, 0.000000000000000000, -0.000000000000000000 ) ) ;
#9 = DIRECTION ( 'NONE',  ( 0.000000000000000000, 0.000000000000000000, 1.000000000000000000 ) ) ;
#10 = DIRECTION ( 'NONE',  ( -0.000000000000000000, -0.000000000000000000, -1.000000000000000000 ) ) ;
#11 = CARTESIAN_POINT ( 'NONE',  ( 0.000000000000000000, 0.000000000000000000, 5.000000000000000000 ) ) ;
#12 = CARTESIAN_POINT ( 'NONE',  ( 0.000000000000000000, 0.000000000000000000, 130.0000000000000000 ) ) ;
#13 = CIRCLE ( 'NONE', #235, 8.000000000000000000 ) ;
#14 = FACE_OUTER_BOUND ( 'NONE', #86, .T. ) ;
#15 = CIRCLE ( 'NONE', #359, 5.000000000000000000 ) ;
#16 = DIRECTION ( 'NONE',  ( 0.000000000000000000, 0.000000000000000000, -1.000000000000000000 ) ) ;
#17 = DIRECTION ( 'NONE',  ( 1.000000000000000000, 0.000000000000000000, -0.000000000000000000 ) ) ;
#18 = VERTEX_POINT ( 'NONE', #66 ) ;
#19 = EDGE_CURVE ( 'NONE', #164, #233, #13, .T. ) ;
#20 = EDGE_LOOP ( 'NONE', ( #292, #134, #378, #237 ) ) ;
#21 = CALENDAR_DATE ( 2022, 8, 7 ) ;
#22 = VERTEX_POINT ( 'NONE', #243 ) ;
#23 = PERSON_AND_ORGANIZATION_ROLE ( 'creator' ) ;
#24 = VERTEX_POINT ( 'NONE', #35 ) ;
#25 = EDGE_CURVE ( 'NONE', #230, #24, #144, .T. ) ;
#26 = PERSON_AND_ORGANIZATION_ROLE ( 'classification_officer' ) ;
#27 = CIRCLE ( 'NONE', #242, 8.000000000000000000 ) ;
#28 = CC_DESIGN_APPROVAL ( #114, ( #6 ) ) ;
#29 = ORIENTED_EDGE ( 'NONE', *, *, #245, .T. ) ;
#30 = CALENDAR_DATE ( 2022, 8, 7 ) ;
#31 = EDGE_CURVE ( 'NONE', #230, #326, #217, .T. ) ;
#32 = ORIENTED_EDGE ( 'NONE', *, *, #250, .T. ) ;
#33 = PERSON_AND_ORGANIZATION ( #371, #306 ) ;
#34 = CARTESIAN_POINT ( 'NONE',  ( -3.000000000000000444, 0.000000000000000000, 130.0000000000000000 ) ) ;
#35 = CARTESIAN_POINT ( 'NONE',  ( 5.000000000000000000, 6.123233995736766282E-16, 5.500000000000005329 ) ) ;
#36 = LINE ( 'NONE', #336, #212 ) ;
#37 = CARTESIAN_POINT ( 'NONE',  ( 5.000000000000000000, 6.123233995736766282E-16, 130.0000000000000000 ) ) ;
#38 = AXIS2_PLACEMENT_3D ( 'NONE', #361, #9, #334 ) ;
#39 = ADVANCED_FACE ( 'NONE', ( #238 ), #93, .T. ) ;
#40 = FACE_BOUND ( 'NONE', #353, .T. ) ;
#41 = DIRECTION ( 'NONE',  ( 1.000000000000000000, 0.000000000000000000, 0.000000000000000000 ) ) ;
#42 = EDGE_CURVE ( 'NONE', #54, #18, #71, .T. ) ;
#43 = CARTESIAN_POINT ( 'NONE',  ( 0.000000000000000000, 0.000000000000000000, 130.0000000000000000 ) ) ;
#44 = CYLINDRICAL_SURFACE ( 'NONE', #206, 3.000000000000000444 ) ;
#45 = CARTESIAN_POINT ( 'NONE',  ( 0.000000000000000000, 0.000000000000000000, 130.0000000000000000 ) ) ;
#46 = DIRECTION ( 'NONE',  ( -0.000000000000000000, -0.000000000000000000, -1.000000000000000000 ) ) ;
#47 = ORIENTED_EDGE ( 'NONE', *, *, #366, .F. ) ;
#48 = DIRECTION ( 'NONE',  ( 1.000000000000000000, 0.000000000000000000, 0.000000000000000000 ) ) ;
#49 = ORIENTED_EDGE ( 'NONE', *, *, #31, .T. ) ;
#50 = ORIENTED_EDGE ( 'NONE', *, *, #108, .F. ) ;
#51 = CALENDAR_DATE ( 2022, 8, 7 ) ;
#52 = AXIS2_PLACEMENT_3D ( 'NONE', #145, #122, #208 ) ;
#53 = EDGE_CURVE ( 'NONE', #111, #90, #146, .T. ) ;
#54 = VERTEX_POINT ( 'NONE', #305 ) ;
#55 = CC_DESIGN_PERSON_AND_ORGANIZATION_ASSIGNMENT ( #167, #26, ( #154 ) ) ;
#56 = PERSON_AND_ORGANIZATION_ROLE ( 'design_supplier' ) ;
#57 = ORIENTED_EDGE ( 'NONE', *, *, #205, .T. ) ;
#58 = PERSON_AND_ORGANIZATION ( #371, #306 ) ;
#59 = AXIS2_PLACEMENT_3D ( 'NONE', #7, #171, #276 ) ;
#60 = ORIENTED_EDGE ( 'NONE', *, *, #302, .T. ) ;
#61 = COORDINATED_UNIVERSAL_TIME_OFFSET ( 1, 0, .AHEAD. ) ;
#62 = EDGE_LOOP ( 'NONE', ( #158, #289, #328, #323 ) ) ;
#63 = COORDINATED_UNIVERSAL_TIME_OFFSET ( 1, 0, .AHEAD. ) ;
#64 = CARTESIAN_POINT ( 'NONE',  ( 3.000000000000000444, 3.673940397442060361E-16, 130.0000000000000000 ) ) ;
#65 = EDGE_CURVE ( 'NONE', #357, #22, #279, .T. ) ;
#66 = CARTESIAN_POINT ( 'NONE',  ( -5.500000000000000000, 6.735557395310442023E-16, 5.000000000000002665 ) ) ;
#67 = DIRECTION ( 'NONE',  ( 0.000000000000000000, 0.000000000000000000, 1.000000000000000000 ) ) ;
#68 = TOROIDAL_SURFACE ( 'NONE', #281, 5.500000000000000000, 0.5000000000000000000 ) ;
#69 = DIRECTION ( 'NONE',  ( 0.000000000000000000, 0.000000000000000000, -1.000000000000000000 ) ) ;
#70 = CARTESIAN_POINT ( 'NONE',  ( 5.500000000000000000, 0.000000000000000000, 5.500000000000005329 ) ) ;
#71 = CIRCLE ( 'NONE', #272, 5.500000000000000000 ) ;
#72 = FACE_OUTER_BOUND ( 'NONE', #316, .T. ) ;
#73 = AXIS2_PLACEMENT_3D ( 'NONE', #112, #170, #349 ) ;
#74 = DIRECTION ( 'NONE',  ( -0.000000000000000000, -0.000000000000000000, -1.000000000000000000 ) ) ;
#75 = DIRECTION ( 'NONE',  ( 0.000000000000000000, 0.000000000000000000, 1.000000000000000000 ) ) ;
#76 = UNCERTAINTY_MEASURE_WITH_UNIT (LENGTH_MEASURE( 1.000000000000000082E-05 ), #159, 'distance_accuracy_value', 'NONE');
#77 = LINE ( 'NONE', #100, #103 ) ;
#78 = AXIS2_PLACEMENT_3D ( 'NONE', #120, #172, #271 ) ;
#79 = PLANE ( 'NONE',  #363 ) ;
#80 = ORIENTED_EDGE ( 'NONE', *, *, #42, .F. ) ;
#81 = COORDINATED_UNIVERSAL_TIME_OFFSET ( 1, 0, .AHEAD. ) ;
#82 = CC_DESIGN_DATE_AND_TIME_ASSIGNMENT ( #188, #162, ( #226 ) ) ;
#83 = ORIENTED_EDGE ( 'NONE', *, *, #25, .T. ) ;
#84 = LOCAL_TIME ( 16, 58, 37.00000000000000000, #81 ) ;
#85 = EDGE_CURVE ( 'NONE', #191, #24, #132, .T. ) ;
#86 = EDGE_LOOP ( 'NONE', ( #381, #166, #197, #318 ) ) ;
#87 = CALENDAR_DATE ( 2022, 8, 7 ) ;
#88 = ORIENTED_EDGE ( 'NONE', *, *, #31, .F. ) ;
#89 = COORDINATED_UNIVERSAL_TIME_OFFSET ( 1, 0, .AHEAD. ) ;
#90 = VERTEX_POINT ( 'NONE', #64 ) ;
#91 = CIRCLE ( 'NONE', #150, 5.500000000000000000 ) ;
#92 = LOCAL_TIME ( 16, 58, 37.00000000000000000, #89 ) ;
#93 = CYLINDRICAL_SURFACE ( 'NONE', #195, 5.000000000000000000 ) ;
#94 = CARTESIAN_POINT ( 'NONE',  ( -5.000000000000000000, 0.000000000000000000, 5.500000000000005329 ) ) ;
#95 = DIRECTION ( 'NONE',  ( -0.000000000000000000, -0.000000000000000000, -1.000000000000000000 ) ) ;
#96 = ADVANCED_FACE ( 'NONE', ( #364 ), #209, .T. ) ;
#97 = CARTESIAN_POINT ( 'NONE',  ( 0.000000000000000000, 0.000000000000000000, 5.000000000000000000 ) ) ;
#98 = AXIS2_PLACEMENT_3D ( 'NONE', #99, #178, #309 ) ;
#99 = CARTESIAN_POINT ( 'NONE',  ( -5.500000000000000000, 6.735557395310442023E-16, 5.500000000000005329 ) ) ;
#100 = CARTESIAN_POINT ( 'NONE',  ( -5.000000000000000000, 0.000000000000000000, 130.0000000000000000 ) ) ;
#101 = AXIS2_PLACEMENT_3D ( 'NONE', #303, #362, #358 ) ;
#102 = DIRECTION ( 'NONE',  ( 1.000000000000000000, 0.000000000000000000, 0.000000000000000000 ) ) ;
#103 = VECTOR ( 'NONE', #184, 1000.000000000000000 ) ;
#104 = CARTESIAN_POINT ( 'NONE',  ( 0.000000000000000000, 0.000000000000000000, 5.500000000000005329 ) ) ;
#105 = DIRECTION ( 'NONE',  ( -0.000000000000000000, -0.000000000000000000, -1.000000000000000000 ) ) ;
#106 = DIRECTION ( 'NONE',  ( 0.000000000000000000, 0.000000000000000000, 1.000000000000000000 ) ) ;
#107 = APPROVAL ( #115, 'NEURÈENÝ' ) ;
#108 = EDGE_CURVE ( 'NONE', #233, #164, #1, .T. ) ;
#109 = PERSON_AND_ORGANIZATION ( #371, #306 ) ;
#110 = ORIENTED_EDGE ( 'NONE', *, *, #65, .F. ) ;
#111 = VERTEX_POINT ( 'NONE', #34 ) ;
#112 = CARTESIAN_POINT ( 'NONE',  ( 0.000000000000000000, 0.000000000000000000, 0.000000000000000000 ) ) ;
#113 = EDGE_LOOP ( 'NONE', ( #110, #47 ) ) ;
#114 = APPROVAL ( #225, 'NEURÈENÝ' ) ;
#115 = APPROVAL_STATUS ( 'not_yet_approved' ) ;
#116 = ORIENTED_EDGE ( 'NONE', *, *, #304, .T. ) ;
#117 = ORIENTED_EDGE ( 'NONE', *, *, #108, .T. ) ;
#118 = AXIS2_PLACEMENT_3D ( 'NONE', #360, #274, #268 ) ;
#119 = LOCAL_TIME ( 16, 58, 37.00000000000000000, #354 ) ;
#120 = CARTESIAN_POINT ( 'NONE',  ( 0.000000000000000000, 0.000000000000000000, 130.0000000000000000 ) ) ;
#121 = DIRECTION ( 'NONE',  ( -0.000000000000000000, -0.000000000000000000, -1.000000000000000000 ) ) ;
#122 = DIRECTION ( 'NONE',  ( -0.000000000000000000, -0.000000000000000000, -1.000000000000000000 ) ) ;
#123 = CARTESIAN_POINT ( 'NONE',  ( 0.000000000000000000, 0.000000000000000000, 5.500000000000005329 ) ) ;
#124 = AXIS2_PLACEMENT_3D ( 'NONE', #180, #131, #247 ) ;
#125 = DIRECTION ( 'NONE',  ( 0.000000000000000000, 0.000000000000000000, 1.000000000000000000 ) ) ;
#126 = DIRECTION ( 'NONE',  ( 1.000000000000000000, 0.000000000000000000, 0.000000000000000000 ) ) ;
#127 = MANIFOLD_SOLID_BREP ( 'Odebrat vysunutím3', #325 ) ;
#128 = LINE ( 'NONE', #365, #161 ) ;
#129 = APPROVAL_PERSON_ORGANIZATION ( #109, #107, #356 ) ;
#130 = CARTESIAN_POINT ( 'NONE',  ( 0.000000000000000000, 0.000000000000000000, 130.0000000000000000 ) ) ;
#131 = DIRECTION ( 'NONE',  ( -0.000000000000000000, -0.000000000000000000, -1.000000000000000000 ) ) ;
#132 = CIRCLE ( 'NONE', #286, 5.000000000000000000 ) ;
#133 = AXIS2_PLACEMENT_3D ( 'NONE', #130, #342, #102 ) ;
#134 = ORIENTED_EDGE ( 'NONE', *, *, #198, .T. ) ;
#135 = EDGE_LOOP ( 'NONE', ( #295, #299, #57, #194 ) ) ;
#136 = CALENDAR_DATE ( 2022, 8, 7 ) ;
#137 = EDGE_CURVE ( 'NONE', #24, #191, #5, .T. ) ;
#138 = ORIENTED_EDGE ( 'NONE', *, *, #85, .F. ) ;
#139 = ORIENTED_EDGE ( 'NONE', *, *, #313, .F. ) ;
#140 = ORIENTED_EDGE ( 'NONE', *, *, #65, .T. ) ;
#141 = DIRECTION ( 'NONE',  ( 1.000000000000000000, 0.000000000000000000, 0.000000000000000000 ) ) ;
#142 = APPROVAL ( #262, 'NEURÈENÝ' ) ;
#143 = CARTESIAN_POINT ( 'NONE',  ( -5.000000000000000000, 0.000000000000000000, 130.0000000000000000 ) ) ;
#144 = LINE ( 'NONE', #203, #294 ) ;
#145 = CARTESIAN_POINT ( 'NONE',  ( 0.000000000000000000, 0.000000000000000000, 0.000000000000000000 ) ) ;
#146 = CIRCLE ( 'NONE', #223, 3.000000000000000444 ) ;
#147 = DIRECTION ( 'NONE',  ( 1.000000000000000000, 0.000000000000000000, 0.000000000000000000 ) ) ;
#148 = CARTESIAN_POINT ( 'NONE',  ( 0.000000000000000000, 0.000000000000000000, 5.000000000000000000 ) ) ;
#149 = CARTESIAN_POINT ( 'NONE',  ( 0.000000000000000000, 0.000000000000000000, 130.0000000000000000 ) ) ;
#150 = AXIS2_PLACEMENT_3D ( 'NONE', #346, #46, #126 ) ;
#151 = CARTESIAN_POINT ( 'NONE',  ( -8.000000000000000000, 0.000000000000000000, 5.000000000000000000 ) ) ;
#152 = DIRECTION ( 'NONE',  ( 0.000000000000000000, 0.000000000000000000, -1.000000000000000000 ) ) ;
#153 = FACE_OUTER_BOUND ( 'NONE', #135, .T. ) ;
#154 = SECURITY_CLASSIFICATION ( '', '', #165 ) ;
#155 = CARTESIAN_POINT ( 'NONE',  ( 3.000000000000000444, 3.673940397442060361E-16, 130.0000000000000000 ) ) ;
#156 = APPLICATION_CONTEXT ( 'configuration controlled 3d designs of mechanical parts and assemblies' ) ;
#157 = ORIENTED_EDGE ( 'NONE', *, *, #232, .T. ) ;
#158 = ORIENTED_EDGE ( 'NONE', *, *, #232, .F. ) ;
#159 =( LENGTH_UNIT ( ) NAMED_UNIT ( * ) SI_UNIT ( .MILLI., .METRE. ) );
#160 = FACE_BOUND ( 'NONE', #265, .T. ) ;
#161 = VECTOR ( 'NONE', #16, 1000.000000000000000 ) ;
#162 = DATE_TIME_ROLE ( 'creation_date' ) ;
#163 = ORIENTED_EDGE ( 'NONE', *, *, #288, .T. ) ;
#164 = VERTEX_POINT ( 'NONE', #307 ) ;
#165 = SECURITY_CLASSIFICATION_LEVEL ( 'unclassified' ) ;
#166 = ORIENTED_EDGE ( 'NONE', *, *, #302, .F. ) ;
#167 = PERSON_AND_ORGANIZATION ( #371, #306 ) ;
#168 = LOCAL_TIME ( 16, 58, 37.00000000000000000, #61 ) ;
#169 = ORIENTED_EDGE ( 'NONE', *, *, #198, .F. ) ;
#170 = DIRECTION ( 'NONE',  ( 0.000000000000000000, 0.000000000000000000, 1.000000000000000000 ) ) ;
#171 = DIRECTION ( 'NONE',  ( 0.000000000000000000, 0.000000000000000000, 1.000000000000000000 ) ) ;
#172 = DIRECTION ( 'NONE',  ( 0.000000000000000000, 0.000000000000000000, 1.000000000000000000 ) ) ;
#173 = AXIS2_PLACEMENT_3D ( 'NONE', #97, #125, #174 ) ;
#174 = DIRECTION ( 'NONE',  ( 1.000000000000000000, 0.000000000000000000, 0.000000000000000000 ) ) ;
#175 = CC_DESIGN_DATE_AND_TIME_ASSIGNMENT ( #301, #376, ( #154 ) ) ;
#176 = DIRECTION ( 'NONE',  ( -1.000000000000000000, 0.000000000000000000, 0.000000000000000000 ) ) ;
#177 = APPLICATION_CONTEXT ( 'configuration controlled 3d designs of mechanical parts and assemblies' ) ;
#178 = DIRECTION ( 'NONE',  ( 1.224646799147353207E-16, 1.000000000000000000, -0.000000000000000000 ) ) ;
#179 = DIRECTION ( 'NONE',  ( 0.000000000000000000, 0.000000000000000000, 1.000000000000000000 ) ) ;
#180 = CARTESIAN_POINT ( 'NONE',  ( 0.000000000000000000, 0.000000000000000000, 0.000000000000000000 ) ) ;
#181 = CIRCLE ( 'NONE', #52, 3.000000000000000444 ) ;
#182 = DIRECTION ( 'NONE',  ( 0.000000000000000000, 0.000000000000000000, 1.000000000000000000 ) ) ;
#183 = DIRECTION ( 'NONE',  ( -1.000000000000000000, 0.000000000000000000, 0.000000000000000000 ) ) ;
#184 = DIRECTION ( 'NONE',  ( -0.000000000000000000, -0.000000000000000000, -1.000000000000000000 ) ) ;
#185 = TOROIDAL_SURFACE ( 'NONE', #200, 5.500000000000000000, 0.5000000000000000000 ) ;
#186 = APPROVAL_PERSON_ORGANIZATION ( #293, #114, #260 ) ;
#187 = ORIENTED_EDGE ( 'NONE', *, *, #42, .T. ) ;
#188 = DATE_AND_TIME ( #21, #119 ) ;
#189 = EDGE_LOOP ( 'NONE', ( #117, #259 ) ) ;
#190 = PERSON_AND_ORGANIZATION ( #371, #306 ) ;
#191 = VERTEX_POINT ( 'NONE', #94 ) ;
#192 = CC_DESIGN_PERSON_AND_ORGANIZATION_ASSIGNMENT ( #190, #23, ( #226 ) ) ;
#193 = DATE_AND_TIME ( #136, #84 ) ;
#194 = ORIENTED_EDGE ( 'NONE', *, *, #250, .F. ) ;
#195 = AXIS2_PLACEMENT_3D ( 'NONE', #332, #95, #176 ) ;
#196 = DATE_AND_TIME ( #30, #92 ) ;
#197 = ORIENTED_EDGE ( 'NONE', *, *, #273, .T. ) ;
#198 = EDGE_CURVE ( 'NONE', #164, #22, #36, .T. ) ;
#199 = PERSON_AND_ORGANIZATION ( #371, #306 ) ;
#200 = AXIS2_PLACEMENT_3D ( 'NONE', #283, #253, #48 ) ;
#201 = LOCAL_TIME ( 16, 58, 37.00000000000000000, #63 ) ;
#202 = DIRECTION ( 'NONE',  ( 1.000000000000000000, 0.000000000000000000, 0.000000000000000000 ) ) ;
#203 = CARTESIAN_POINT ( 'NONE',  ( 5.000000000000000000, 6.123233995736766282E-16, 130.0000000000000000 ) ) ;
#204 = CARTESIAN_POINT ( 'NONE',  ( 0.000000000000000000, 0.000000000000000000, 5.000000000000000000 ) ) ;
#205 = EDGE_CURVE ( 'NONE', #227, #266, #181, .T. ) ;
#206 = AXIS2_PLACEMENT_3D ( 'NONE', #43, #152, #183 ) ;
#207 = EDGE_CURVE ( 'NONE', #24, #54, #228, .T. ) ;
#208 = DIRECTION ( 'NONE',  ( 1.000000000000000000, 0.000000000000000000, 0.000000000000000000 ) ) ;
#209 = CYLINDRICAL_SURFACE ( 'NONE', #101, 8.000000000000000000 ) ;
#210 = CC_DESIGN_PERSON_AND_ORGANIZATION_ASSIGNMENT ( #199, #229, ( #320 ) ) ;
#211 = CARTESIAN_POINT ( 'NONE',  ( 0.000000000000000000, 0.000000000000000000, 5.000000000000000000 ) ) ;
#212 = VECTOR ( 'NONE', #10, 1000.000000000000000 ) ;
#213 = EDGE_LOOP ( 'NONE', ( #60, #49 ) ) ;
#214 = FACE_OUTER_BOUND ( 'NONE', #62, .T. ) ;
#215 = FACE_OUTER_BOUND ( 'NONE', #113, .T. ) ;
#216 = CARTESIAN_POINT ( 'NONE',  ( -8.000000000000000000, 0.000000000000000000, 0.000000000000000000 ) ) ;
#217 = CIRCLE ( 'NONE', #59, 5.000000000000000000 ) ;
#218 = DIRECTION ( 'NONE',  ( 1.000000000000000000, 0.000000000000000000, 0.000000000000000000 ) ) ;
#219 = AXIS2_PLACEMENT_3D ( 'NONE', #70, #335, #69 ) ;
#220 = CC_DESIGN_APPROVAL ( #107, ( #154 ) ) ;
#221 = EDGE_LOOP ( 'NONE', ( #88, #83, #355, #380 ) ) ;
#222 = APPROVAL_DATE_TIME ( #193, #142 ) ;
#223 = AXIS2_PLACEMENT_3D ( 'NONE', #149, #331, #41 ) ;
#224 = ORIENTED_EDGE ( 'NONE', *, *, #245, .F. ) ;
#225 = APPROVAL_STATUS ( 'not_yet_approved' ) ;
#226 = PRODUCT_DEFINITION ( 'NEZNÁMÝ', '', #6, #236 ) ;
#227 = VERTEX_POINT ( 'NONE', #308 ) ;
#228 = CIRCLE ( 'NONE', #219, 0.5000000000000004441 ) ;
#229 = PERSON_AND_ORGANIZATION_ROLE ( 'design_owner' ) ;
#230 = VERTEX_POINT ( 'NONE', #37 ) ;
#231 = PERSON_AND_ORGANIZATION_ROLE ( 'creator' ) ;
#232 = EDGE_CURVE ( 'NONE', #191, #18, #255, .T. ) ;
#233 = VERTEX_POINT ( 'NONE', #244 ) ;
#234 = ADVANCED_FACE ( 'NONE', ( #370, #215 ), #79, .F. ) ;
#235 = AXIS2_PLACEMENT_3D ( 'NONE', #11, #67, #147 ) ;
#236 = DESIGN_CONTEXT ( 'detailed design', #177, 'design' ) ;
#237 = ORIENTED_EDGE ( 'NONE', *, *, #288, .F. ) ;
#238 = FACE_OUTER_BOUND ( 'NONE', #221, .T. ) ;
#239 = PLANE ( 'NONE',  #78 ) ;
#240 = FACE_OUTER_BOUND ( 'NONE', #322, .T. ) ;
#241 = DIRECTION ( 'NONE',  ( 0.000000000000000000, 0.000000000000000000, 1.000000000000000000 ) ) ;
#242 = AXIS2_PLACEMENT_3D ( 'NONE', #343, #75, #345 ) ;
#243 = CARTESIAN_POINT ( 'NONE',  ( 8.000000000000000000, 9.797174393178825657E-16, 0.000000000000000000 ) ) ;
#244 = CARTESIAN_POINT ( 'NONE',  ( -8.000000000000000000, 0.000000000000000000, 5.000000000000000000 ) ) ;
#245 = EDGE_CURVE ( 'NONE', #266, #227, #340, .T. ) ;
#246 = CIRCLE ( 'NONE', #133, 3.000000000000000444 ) ;
#247 = DIRECTION ( 'NONE',  ( 1.000000000000000000, 0.000000000000000000, 0.000000000000000000 ) ) ;
#248 = AXIS2_PLACEMENT_3D ( 'NONE', #211, #74, #311 ) ;
#249 = CC_DESIGN_SECURITY_CLASSIFICATION ( #154, ( #6 ) ) ;
#250 = EDGE_CURVE ( 'NONE', #111, #266, #128, .T. ) ;
#251 = CYLINDRICAL_SURFACE ( 'NONE', #248, 8.000000000000000000 ) ;
#252 = CARTESIAN_POINT ( 'NONE',  ( 0.000000000000000000, 0.000000000000000000, 130.0000000000000000 ) ) ;
#253 = DIRECTION ( 'NONE',  ( 0.000000000000000000, 0.000000000000000000, 1.000000000000000000 ) ) ;
#254 = EDGE_CURVE ( 'NONE', #90, #111, #246, .T. ) ;
#255 = CIRCLE ( 'NONE', #98, 0.5000000000000004441 ) ;
#256 = ORIENTED_EDGE ( 'NONE', *, *, #254, .F. ) ;
#257 = APPROVAL_ROLE ( '' ) ;
#258 = CC_DESIGN_PERSON_AND_ORGANIZATION_ASSIGNMENT ( #58, #56, ( #6 ) ) ;
#259 = ORIENTED_EDGE ( 'NONE', *, *, #19, .T. ) ;
#260 = APPROVAL_ROLE ( '' ) ;
#261 = ORIENTED_EDGE ( 'NONE', *, *, #205, .F. ) ;
#262 = APPROVAL_STATUS ( 'not_yet_approved' ) ;
#263 = ADVANCED_FACE ( 'NONE', ( #337 ), #251, .T. ) ;
#264 = ADVANCED_FACE ( 'NONE', ( #72 ), #44, .F. ) ;
#265 = EDGE_LOOP ( 'NONE', ( #350, #256 ) ) ;
#266 = VERTEX_POINT ( 'NONE', #280 ) ;
#267 = ADVANCED_FACE ( 'NONE', ( #14 ), #310, .T. ) ;
#268 = DIRECTION ( 'NONE',  ( 1.000000000000000000, 0.000000000000000000, 0.000000000000000000 ) ) ;
#269 = FACE_OUTER_BOUND ( 'NONE', #189, .T. ) ;
#270 = FACE_OUTER_BOUND ( 'NONE', #213, .T. ) ;
#271 = DIRECTION ( 'NONE',  ( 1.000000000000000000, 0.000000000000000000, -0.000000000000000000 ) ) ;
#272 = AXIS2_PLACEMENT_3D ( 'NONE', #204, #4, #141 ) ;
#273 = EDGE_CURVE ( 'NONE', #326, #191, #77, .T. ) ;
#274 = DIRECTION ( 'NONE',  ( 0.000000000000000000, 0.000000000000000000, 1.000000000000000000 ) ) ;
#275 = AXIS2_PLACEMENT_3D ( 'NONE', #252, #372, #278 ) ;
#276 = DIRECTION ( 'NONE',  ( 1.000000000000000000, 0.000000000000000000, 0.000000000000000000 ) ) ;
#277 = PLANE ( 'NONE',  #368 ) ;
#278 = DIRECTION ( 'NONE',  ( -1.000000000000000000, 0.000000000000000000, 0.000000000000000000 ) ) ;
#279 = CIRCLE ( 'NONE', #38, 8.000000000000000000 ) ;
#280 = CARTESIAN_POINT ( 'NONE',  ( -3.000000000000000444, 0.000000000000000000, 0.000000000000000000 ) ) ;
#281 = AXIS2_PLACEMENT_3D ( 'NONE', #104, #285, #339 ) ;
#282 = CYLINDRICAL_SURFACE ( 'NONE', #275, 3.000000000000000444 ) ;
#283 = CARTESIAN_POINT ( 'NONE',  ( 0.000000000000000000, 0.000000000000000000, 5.500000000000005329 ) ) ;
#284 = LINE ( 'NONE', #155, #321 ) ;
#285 = DIRECTION ( 'NONE',  ( 0.000000000000000000, 0.000000000000000000, 1.000000000000000000 ) ) ;
#286 = AXIS2_PLACEMENT_3D ( 'NONE', #123, #241, #202 ) ;
#287 =( NAMED_UNIT ( * ) PLANE_ANGLE_UNIT ( ) SI_UNIT ( $, .RADIAN. ) );
#288 = EDGE_CURVE ( 'NONE', #233, #357, #312, .T. ) ;
#289 = ORIENTED_EDGE ( 'NONE', *, *, #137, .F. ) ;
#290 = APPROVAL_PERSON_ORGANIZATION ( #33, #142, #257 ) ;
#291 = APPROVAL_DATE_TIME ( #196, #107 ) ;
#292 = ORIENTED_EDGE ( 'NONE', *, *, #19, .F. ) ;
#293 = PERSON_AND_ORGANIZATION ( #371, #306 ) ;
#294 = VECTOR ( 'NONE', #121, 1000.000000000000000 ) ;
#295 = ORIENTED_EDGE ( 'NONE', *, *, #53, .T. ) ;
#296 = ADVANCED_FACE ( 'NONE', ( #153 ), #282, .F. ) ;
#297 = MECHANICAL_CONTEXT ( 'NONE', #156, 'mechanical' ) ;
#298 = PRODUCT_RELATED_PRODUCT_CATEGORY ( 'detail', '', ( #320 ) ) ;
#299 = ORIENTED_EDGE ( 'NONE', *, *, #313, .T. ) ;
#300 = ORIENTED_EDGE ( 'NONE', *, *, #254, .T. ) ;
#301 = DATE_AND_TIME ( #51, #168 ) ;
#302 = EDGE_CURVE ( 'NONE', #326, #230, #15, .T. ) ;
#303 = CARTESIAN_POINT ( 'NONE',  ( 0.000000000000000000, 0.000000000000000000, 5.000000000000000000 ) ) ;
#304 = EDGE_CURVE ( 'NONE', #18, #54, #91, .T. ) ;
#305 = CARTESIAN_POINT ( 'NONE',  ( 5.500000000000000000, 0.000000000000000000, 5.000000000000002665 ) ) ;
#306 = ORGANIZATION ( 'NEURÈENÝ', 'NEURÈENÝ', '' ) ;
#307 = CARTESIAN_POINT ( 'NONE',  ( 8.000000000000000000, 9.797174393178825657E-16, 5.000000000000000000 ) ) ;
#308 = CARTESIAN_POINT ( 'NONE',  ( 3.000000000000000444, 3.673940397442060361E-16, 0.000000000000000000 ) ) ;
#309 = DIRECTION ( 'NONE',  ( -1.000000000000000000, 1.224646799147351482E-16, 0.000000000000000000 ) ) ;
#310 = CYLINDRICAL_SURFACE ( 'NONE', #314, 5.000000000000000000 ) ;
#311 = DIRECTION ( 'NONE',  ( -1.000000000000000000, 0.000000000000000000, 0.000000000000000000 ) ) ;
#312 = LINE ( 'NONE', #151, #352 ) ;
#313 = EDGE_CURVE ( 'NONE', #90, #227, #284, .T. ) ;
#314 = AXIS2_PLACEMENT_3D ( 'NONE', #45, #105, #344 ) ;
#315 = DIRECTION ( 'NONE',  ( -0.000000000000000000, -0.000000000000000000, -1.000000000000000000 ) ) ;
#316 = EDGE_LOOP ( 'NONE', ( #139, #300, #32, #29 ) ) ;
#317 = EDGE_LOOP ( 'NONE', ( #224, #261 ) ) ;
#318 = ORIENTED_EDGE ( 'NONE', *, *, #85, .T. ) ;
#319 = DATE_AND_TIME ( #87, #201 ) ;
#320 = PRODUCT ( 'ee72', 'ee72', '', ( #297 ) ) ;
#321 = VECTOR ( 'NONE', #373, 1000.000000000000000 ) ;
#322 = EDGE_LOOP ( 'NONE', ( #138, #157, #80, #3 ) ) ;
#323 = ORIENTED_EDGE ( 'NONE', *, *, #304, .F. ) ;
#324 = PERSON_AND_ORGANIZATION ( #371, #306 ) ;
#325 = CLOSED_SHELL ( 'NONE', ( #296, #338, #39, #263, #96, #333, #234, #267, #2, #347, #264 ) ) ;
#326 = VERTEX_POINT ( 'NONE', #143 ) ;
#327 = SHAPE_DEFINITION_REPRESENTATION ( #329, #341 ) ;
#328 = ORIENTED_EDGE ( 'NONE', *, *, #207, .T. ) ;
#329 = PRODUCT_DEFINITION_SHAPE ( 'NONE', 'NONE',  #226 ) ;
#330 = APPLICATION_PROTOCOL_DEFINITION ( 'international standard', 'config_control_design', 1994, #156 ) ;
#331 = DIRECTION ( 'NONE',  ( 0.000000000000000000, 0.000000000000000000, 1.000000000000000000 ) ) ;
#332 = CARTESIAN_POINT ( 'NONE',  ( 0.000000000000000000, 0.000000000000000000, 130.0000000000000000 ) ) ;
#333 = ADVANCED_FACE ( 'NONE', ( #40, #269 ), #277, .T. ) ;
#334 = DIRECTION ( 'NONE',  ( 1.000000000000000000, 0.000000000000000000, 0.000000000000000000 ) ) ;
#335 = DIRECTION ( 'NONE',  ( 0.000000000000000000, -1.000000000000000000, 0.000000000000000000 ) ) ;
#336 = CARTESIAN_POINT ( 'NONE',  ( 8.000000000000000000, 9.797174393178825657E-16, 5.000000000000000000 ) ) ;
#337 = FACE_OUTER_BOUND ( 'NONE', #20, .T. ) ;
#338 = ADVANCED_FACE ( 'NONE', ( #240 ), #68, .F. ) ;
#339 = DIRECTION ( 'NONE',  ( 1.000000000000000000, 0.000000000000000000, 0.000000000000000000 ) ) ;
#340 = CIRCLE ( 'NONE', #124, 3.000000000000000444 ) ;
#341 = ADVANCED_BREP_SHAPE_REPRESENTATION ( 'ee72', ( #127, #73 ), #348 ) ;
#342 = DIRECTION ( 'NONE',  ( 0.000000000000000000, 0.000000000000000000, 1.000000000000000000 ) ) ;
#343 = CARTESIAN_POINT ( 'NONE',  ( 0.000000000000000000, 0.000000000000000000, 0.000000000000000000 ) ) ;
#344 = DIRECTION ( 'NONE',  ( -1.000000000000000000, 0.000000000000000000, 0.000000000000000000 ) ) ;
#345 = DIRECTION ( 'NONE',  ( 1.000000000000000000, 0.000000000000000000, 0.000000000000000000 ) ) ;
#346 = CARTESIAN_POINT ( 'NONE',  ( 0.000000000000000000, 0.000000000000000000, 5.000000000000000000 ) ) ;
#347 = ADVANCED_FACE ( 'NONE', ( #214 ), #185, .F. ) ;
#348 =( GEOMETRIC_REPRESENTATION_CONTEXT ( 3 ) GLOBAL_UNCERTAINTY_ASSIGNED_CONTEXT ( ( #76 ) ) GLOBAL_UNIT_ASSIGNED_CONTEXT ( ( #159, #287, #375 ) ) REPRESENTATION_CONTEXT ( 'NONE', 'WORKASPACE' ) );
#349 = DIRECTION ( 'NONE',  ( 1.000000000000000000, 0.000000000000000000, 0.000000000000000000 ) ) ;
#350 = ORIENTED_EDGE ( 'NONE', *, *, #53, .F. ) ;
#351 = APPLICATION_PROTOCOL_DEFINITION ( 'international standard', 'config_control_design', 1994, #177 ) ;
#352 = VECTOR ( 'NONE', #315, 1000.000000000000000 ) ;
#353 = EDGE_LOOP ( 'NONE', ( #187, #116 ) ) ;
#354 = COORDINATED_UNIVERSAL_TIME_OFFSET ( 1, 0, .AHEAD. ) ;
#355 = ORIENTED_EDGE ( 'NONE', *, *, #137, .T. ) ;
#356 = APPROVAL_ROLE ( '' ) ;
#357 = VERTEX_POINT ( 'NONE', #216 ) ;
#358 = DIRECTION ( 'NONE',  ( -1.000000000000000000, 0.000000000000000000, 0.000000000000000000 ) ) ;
#359 = AXIS2_PLACEMENT_3D ( 'NONE', #12, #106, #218 ) ;
#360 = CARTESIAN_POINT ( 'NONE',  ( 0.000000000000000000, 0.000000000000000000, 5.500000000000005329 ) ) ;
#361 = CARTESIAN_POINT ( 'NONE',  ( 0.000000000000000000, 0.000000000000000000, 0.000000000000000000 ) ) ;
#362 = DIRECTION ( 'NONE',  ( -0.000000000000000000, -0.000000000000000000, -1.000000000000000000 ) ) ;
#363 = AXIS2_PLACEMENT_3D ( 'NONE', #367, #182, #17 ) ;
#364 = FACE_OUTER_BOUND ( 'NONE', #377, .T. ) ;
#365 = CARTESIAN_POINT ( 'NONE',  ( -3.000000000000000444, 0.000000000000000000, 130.0000000000000000 ) ) ;
#366 = EDGE_CURVE ( 'NONE', #22, #357, #27, .T. ) ;
#367 = CARTESIAN_POINT ( 'NONE',  ( 0.000000000000000000, 0.000000000000000000, 0.000000000000000000 ) ) ;
#368 = AXIS2_PLACEMENT_3D ( 'NONE', #148, #179, #8 ) ;
#369 = CC_DESIGN_APPROVAL ( #142, ( #226 ) ) ;
#370 = FACE_BOUND ( 'NONE', #317, .T. ) ;
#371 = PERSON ( 'NEURÈENÝ', 'NEURÈENÝ', 'NEURÈENÝ', ('NEURÈENÝ'), ('NEURÈENÝ'), ('NEURÈENÝ') ) ;
#372 = DIRECTION ( 'NONE',  ( 0.000000000000000000, 0.000000000000000000, -1.000000000000000000 ) ) ;
#373 = DIRECTION ( 'NONE',  ( 0.000000000000000000, 0.000000000000000000, -1.000000000000000000 ) ) ;
#374 = CC_DESIGN_PERSON_AND_ORGANIZATION_ASSIGNMENT ( #324, #231, ( #6 ) ) ;
#375 =( NAMED_UNIT ( * ) SI_UNIT ( $, .STERADIAN. ) SOLID_ANGLE_UNIT ( ) );
#376 = DATE_TIME_ROLE ( 'classification_date' ) ;
#377 = EDGE_LOOP ( 'NONE', ( #169, #50, #163, #140 ) ) ;
#378 = ORIENTED_EDGE ( 'NONE', *, *, #366, .T. ) ;
#379 = APPROVAL_DATE_TIME ( #319, #114 ) ;
#380 = ORIENTED_EDGE ( 'NONE', *, *, #273, .F. ) ;
#381 = ORIENTED_EDGE ( 'NONE', *, *, #25, .F. ) ;
ENDSEC;
END-ISO-10303-21;
