ISO-10303-21;
HEADER;
FILE_DESCRIPTION (( 'STEP AP203' ),
    '1' );
FILE_NAME ('8c78.STEP',
    '2022-07-08T15:35:02',
    ( '' ),
    ( '' ),
    'SwSTEP 2.0',
    'SolidWorks 2019',
    '' );
FILE_SCHEMA (( 'CONFIG_CONTROL_DESIGN' ));
ENDSEC;

DATA;
#1 = CARTESIAN_POINT ( 'NONE',  ( 0.000000000000000000, 0.000000000000000000, 0.000000000000000000 ) ) ;
#2 = EDGE_CURVE ( 'NONE', #284, #201, #231, .T. ) ;
#3 = CYLINDRICAL_SURFACE ( 'NONE', #77, 2.000000000000000000 ) ;
#4 = VECTOR ( 'NONE', #90, 1000.000000000000000 ) ;
#5 = CARTESIAN_POINT ( 'NONE',  ( 0.000000000000000000, 0.000000000000000000, 5.500000000000005329 ) ) ;
#6 = AXIS2_PLACEMENT_3D ( 'NONE', #150, #208, #331 ) ;
#7 = AXIS2_PLACEMENT_3D ( 'NONE', #101, #98, #333 ) ;
#8 = DIRECTION ( 'NONE',  ( 0.000000000000000000, 0.000000000000000000, 1.000000000000000000 ) ) ;
#9 = DIRECTION ( 'NONE',  ( 1.224646799147353207E-16, 1.000000000000000000, -0.000000000000000000 ) ) ;
#10 = CIRCLE ( 'NONE', #375, 2.000000000000000000 ) ;
#11 = DIRECTION ( 'NONE',  ( 0.000000000000000000, 0.000000000000000000, -1.000000000000000000 ) ) ;
#12 = AXIS2_PLACEMENT_3D ( 'NONE', #226, #350, #166 ) ;
#13 = DIRECTION ( 'NONE',  ( 0.000000000000000000, 0.000000000000000000, 1.000000000000000000 ) ) ;
#14 = EDGE_CURVE ( 'NONE', #229, #374, #156, .T. ) ;
#15 = DIRECTION ( 'NONE',  ( 1.000000000000000000, 0.000000000000000000, 0.000000000000000000 ) ) ;
#16 = ORIENTED_EDGE ( 'NONE', *, *, #346, .F. ) ;
#17 = CARTESIAN_POINT ( 'NONE',  ( 3.000000000000000444, 3.673940397442060361E-16, 305.0000000000000000 ) ) ;
#18 = ORIENTED_EDGE ( 'NONE', *, *, #362, .F. ) ;
#19 = ORIENTED_EDGE ( 'NONE', *, *, #205, .T. ) ;
#20 = CIRCLE ( 'NONE', #236, 2.000000000000000000 ) ;
#21 = APPROVAL_ROLE ( '' ) ;
#22 = EDGE_LOOP ( 'NONE', ( #30, #130, #72, #138 ) ) ;
#23 = PERSON_AND_ORGANIZATION_ROLE ( 'design_supplier' ) ;
#24 = CARTESIAN_POINT ( 'NONE',  ( 0.000000000000000000, 0.000000000000000000, 5.000000000000000000 ) ) ;
#25 = APPROVAL_DATE_TIME ( #141, #266 ) ;
#26 = EDGE_LOOP ( 'NONE', ( #286, #313 ) ) ;
#27 = TOROIDAL_SURFACE ( 'NONE', #103, 3.500000000000000444, 0.5000000000000000000 ) ;
#28 = CC_DESIGN_PERSON_AND_ORGANIZATION_ASSIGNMENT ( #373, #23, ( #75 ) ) ;
#29 = DATE_AND_TIME ( #191, #327 ) ;
#30 = ORIENTED_EDGE ( 'NONE', *, *, #245, .F. ) ;
#31 = ORIENTED_EDGE ( 'NONE', *, *, #228, .T. ) ;
#32 = PRODUCT_DEFINITION_SHAPE ( 'NONE', 'NONE',  #95 ) ;
#33 = EDGE_CURVE ( 'NONE', #85, #353, #61, .T. ) ;
#34 = CARTESIAN_POINT ( 'NONE',  ( -6.000000000000000888, 0.000000000000000000, 5.000000000000000000 ) ) ;
#35 = CC_DESIGN_APPROVAL ( #251, ( #75 ) ) ;
#36 = CIRCLE ( 'NONE', #244, 6.000000000000000888 ) ;
#37 = FACE_OUTER_BOUND ( 'NONE', #380, .T. ) ;
#38 = DIRECTION ( 'NONE',  ( 1.000000000000000000, 0.000000000000000000, 0.000000000000000000 ) ) ;
#39 = CARTESIAN_POINT ( 'NONE',  ( 3.000000000000000444, 3.673940397442060361E-16, 5.500000000000005329 ) ) ;
#40 = CIRCLE ( 'NONE', #113, 3.000000000000000444 ) ;
#41 = CARTESIAN_POINT ( 'NONE',  ( 0.000000000000000000, 0.000000000000000000, 0.000000000000000000 ) ) ;
#42 = DIRECTION ( 'NONE',  ( 0.000000000000000000, 0.000000000000000000, 1.000000000000000000 ) ) ;
#43 = AXIS2_PLACEMENT_3D ( 'NONE', #142, #195, #203 ) ;
#44 = CC_DESIGN_DATE_AND_TIME_ASSIGNMENT ( #145, #220, ( #136 ) ) ;
#45 = EDGE_LOOP ( 'NONE', ( #187, #167, #155, #118 ) ) ;
#46 =( GEOMETRIC_REPRESENTATION_CONTEXT ( 3 ) GLOBAL_UNCERTAINTY_ASSIGNED_CONTEXT ( ( #200 ) ) GLOBAL_UNIT_ASSIGNED_CONTEXT ( ( #309, #312, #212 ) ) REPRESENTATION_CONTEXT ( 'NONE', 'WORKASPACE' ) );
#47 = DIRECTION ( 'NONE',  ( 0.000000000000000000, -1.000000000000000000, 0.000000000000000000 ) ) ;
#48 = AXIS2_PLACEMENT_3D ( 'NONE', #41, #182, #121 ) ;
#49 = FACE_OUTER_BOUND ( 'NONE', #60, .T. ) ;
#50 = PRODUCT ( '8c78', '8c78', '', ( #250 ) ) ;
#51 = CALENDAR_DATE ( 2022, 8, 7 ) ;
#52 = APPROVAL_STATUS ( 'not_yet_approved' ) ;
#53 = ORIENTED_EDGE ( 'NONE', *, *, #245, .T. ) ;
#54 = CYLINDRICAL_SURFACE ( 'NONE', #325, 3.000000000000000444 ) ;
#55 = PERSON_AND_ORGANIZATION ( #175, #149 ) ;
#56 = FACE_BOUND ( 'NONE', #279, .T. ) ;
#57 = ADVANCED_FACE ( 'NONE', ( #222 ), #54, .T. ) ;
#58 = SECURITY_CLASSIFICATION_LEVEL ( 'unclassified' ) ;
#59 = AXIS2_PLACEMENT_3D ( 'NONE', #69, #307, #381 ) ;
#60 = EDGE_LOOP ( 'NONE', ( #192, #364, #144, #176 ) ) ;
#61 = LINE ( 'NONE', #107, #254 ) ;
#62 = DIRECTION ( 'NONE',  ( 0.000000000000000000, 0.000000000000000000, 1.000000000000000000 ) ) ;
#63 = DESIGN_CONTEXT ( 'detailed design', #94, 'design' ) ;
#64 = APPLICATION_CONTEXT ( 'configuration controlled 3d designs of mechanical parts and assemblies' ) ;
#65 = CYLINDRICAL_SURFACE ( 'NONE', #59, 3.000000000000000444 ) ;
#66 = VECTOR ( 'NONE', #363, 1000.000000000000000 ) ;
#67 = FACE_OUTER_BOUND ( 'NONE', #347, .T. ) ;
#68 = FACE_OUTER_BOUND ( 'NONE', #262, .T. ) ;
#69 = CARTESIAN_POINT ( 'NONE',  ( 0.000000000000000000, 0.000000000000000000, 305.0000000000000000 ) ) ;
#70 = CARTESIAN_POINT ( 'NONE',  ( -3.500000000000000444, 4.286263797015737088E-16, 5.500000000000005329 ) ) ;
#71 = ADVANCED_FACE ( 'NONE', ( #56, #292 ), #320, .T. ) ;
#72 = ORIENTED_EDGE ( 'NONE', *, *, #14, .F. ) ;
#73 = LINE ( 'NONE', #185, #302 ) ;
#74 = AXIS2_PLACEMENT_3D ( 'NONE', #304, #152, #92 ) ;
#75 = PRODUCT_DEFINITION_FORMATION_WITH_SPECIFIED_SOURCE ( 'LIBOVOLNÝ', '', #50, .NOT_KNOWN. ) ;
#76 = DIRECTION ( 'NONE',  ( 0.000000000000000000, 0.000000000000000000, -1.000000000000000000 ) ) ;
#77 = AXIS2_PLACEMENT_3D ( 'NONE', #122, #232, #357 ) ;
#78 = CARTESIAN_POINT ( 'NONE',  ( 0.000000000000000000, 0.000000000000000000, 5.000000000000000000 ) ) ;
#79 = ORIENTED_EDGE ( 'NONE', *, *, #233, .F. ) ;
#80 = CC_DESIGN_PERSON_AND_ORGANIZATION_ASSIGNMENT ( #318, #143, ( #50 ) ) ;
#81 = CIRCLE ( 'NONE', #271, 3.500000000000000444 ) ;
#82 = COORDINATED_UNIVERSAL_TIME_OFFSET ( 1, 0, .AHEAD. ) ;
#83 = DIRECTION ( 'NONE',  ( -0.000000000000000000, -0.000000000000000000, -1.000000000000000000 ) ) ;
#84 = CC_DESIGN_APPROVAL ( #273, ( #136 ) ) ;
#85 = VERTEX_POINT ( 'NONE', #114 ) ;
#86 = EDGE_CURVE ( 'NONE', #374, #229, #81, .T. ) ;
#87 = APPROVAL_STATUS ( 'not_yet_approved' ) ;
#88 = EDGE_LOOP ( 'NONE', ( #148, #379, #135, #53 ) ) ;
#89 = ORIENTED_EDGE ( 'NONE', *, *, #362, .T. ) ;
#90 = DIRECTION ( 'NONE',  ( -0.000000000000000000, -0.000000000000000000, -1.000000000000000000 ) ) ;
#91 = FACE_BOUND ( 'NONE', #368, .T. ) ;
#92 = DIRECTION ( 'NONE',  ( 1.000000000000000000, 0.000000000000000000, -0.000000000000000000 ) ) ;
#93 = LINE ( 'NONE', #238, #177 ) ;
#94 = APPLICATION_CONTEXT ( 'configuration controlled 3d designs of mechanical parts and assemblies' ) ;
#95 = PRODUCT_DEFINITION ( 'NEZNÁMÝ', '', #75, #63 ) ;
#96 = DIRECTION ( 'NONE',  ( 1.000000000000000000, 0.000000000000000000, 0.000000000000000000 ) ) ;
#97 = DIRECTION ( 'NONE',  ( 1.000000000000000000, 0.000000000000000000, 0.000000000000000000 ) ) ;
#98 = DIRECTION ( 'NONE',  ( 0.000000000000000000, 0.000000000000000000, 1.000000000000000000 ) ) ;
#99 = ORIENTED_EDGE ( 'NONE', *, *, #366, .T. ) ;
#100 = CARTESIAN_POINT ( 'NONE',  ( -6.000000000000000888, 0.000000000000000000, 0.000000000000000000 ) ) ;
#101 = CARTESIAN_POINT ( 'NONE',  ( 0.000000000000000000, 0.000000000000000000, 5.500000000000005329 ) ) ;
#102 = ORIENTED_EDGE ( 'NONE', *, *, #186, .T. ) ;
#103 = AXIS2_PLACEMENT_3D ( 'NONE', #306, #361, #183 ) ;
#104 = CARTESIAN_POINT ( 'NONE',  ( -2.000000000000000000, 0.000000000000000000, 0.000000000000000000 ) ) ;
#105 = VERTEX_POINT ( 'NONE', #235 ) ;
#106 = APPROVAL_DATE_TIME ( #321, #251 ) ;
#107 = CARTESIAN_POINT ( 'NONE',  ( 6.000000000000000888, 7.347880794884120722E-16, 5.000000000000000000 ) ) ;
#108 = PERSON_AND_ORGANIZATION_ROLE ( 'classification_officer' ) ;
#109 = ORIENTED_EDGE ( 'NONE', *, *, #346, .T. ) ;
#110 = ADVANCED_FACE ( 'NONE', ( #67 ), #140, .F. ) ;
#111 = LOCAL_TIME ( 17, 35, 2.000000000000000000, #297 ) ;
#112 = PERSON_AND_ORGANIZATION_ROLE ( 'creator' ) ;
#113 = AXIS2_PLACEMENT_3D ( 'NONE', #280, #13, #367 ) ;
#114 = CARTESIAN_POINT ( 'NONE',  ( 6.000000000000000888, 7.347880794884120722E-16, 5.000000000000000000 ) ) ;
#115 = PERSON_AND_ORGANIZATION_ROLE ( 'creator' ) ;
#116 = ORIENTED_EDGE ( 'NONE', *, *, #372, .F. ) ;
#117 = APPROVAL_DATE_TIME ( #263, #273 ) ;
#118 = ORIENTED_EDGE ( 'NONE', *, *, #147, .F. ) ;
#119 = LOCAL_TIME ( 17, 35, 2.000000000000000000, #289 ) ;
#120 = FACE_OUTER_BOUND ( 'NONE', #298, .T. ) ;
#121 = DIRECTION ( 'NONE',  ( 1.000000000000000000, 0.000000000000000000, 0.000000000000000000 ) ) ;
#122 = CARTESIAN_POINT ( 'NONE',  ( 0.000000000000000000, 0.000000000000000000, 305.0000000000000000 ) ) ;
#123 = ADVANCED_FACE ( 'NONE', ( #37 ), #272, .F. ) ;
#124 = DIRECTION ( 'NONE',  ( -0.000000000000000000, -0.000000000000000000, -1.000000000000000000 ) ) ;
#125 = AXIS2_PLACEMENT_3D ( 'NONE', #154, #47, #76 ) ;
#126 = CIRCLE ( 'NONE', #260, 3.000000000000000444 ) ;
#127 = LINE ( 'NONE', #34, #345 ) ;
#128 = CARTESIAN_POINT ( 'NONE',  ( 0.000000000000000000, 0.000000000000000000, 305.0000000000000000 ) ) ;
#129 = ADVANCED_FACE ( 'NONE', ( #68 ), #240, .T. ) ;
#130 = ORIENTED_EDGE ( 'NONE', *, *, #233, .T. ) ;
#131 = PLANE ( 'NONE',  #341 ) ;
#132 = DIRECTION ( 'NONE',  ( -1.000000000000000000, 0.000000000000000000, 0.000000000000000000 ) ) ;
#133 = PRODUCT_RELATED_PRODUCT_CATEGORY ( 'detail', '', ( #50 ) ) ;
#134 = CARTESIAN_POINT ( 'NONE',  ( -3.000000000000000444, 0.000000000000000000, 5.500000000000005329 ) ) ;
#135 = ORIENTED_EDGE ( 'NONE', *, *, #147, .T. ) ;
#136 = SECURITY_CLASSIFICATION ( '', '', #58 ) ;
#137 = CIRCLE ( 'NONE', #48, 2.000000000000000000 ) ;
#138 = ORIENTED_EDGE ( 'NONE', *, *, #316, .F. ) ;
#139 = EDGE_CURVE ( 'NONE', #197, #311, #127, .T. ) ;
#140 = TOROIDAL_SURFACE ( 'NONE', #319, 3.500000000000000444, 0.5000000000000000000 ) ;
#141 = DATE_AND_TIME ( #51, #274 ) ;
#142 = CARTESIAN_POINT ( 'NONE',  ( 0.000000000000000000, 0.000000000000000000, 5.000000000000000000 ) ) ;
#143 = PERSON_AND_ORGANIZATION_ROLE ( 'design_owner' ) ;
#144 = ORIENTED_EDGE ( 'NONE', *, *, #139, .T. ) ;
#145 = DATE_AND_TIME ( #223, #111 ) ;
#146 = ORIENTED_EDGE ( 'NONE', *, *, #86, .F. ) ;
#147 = EDGE_CURVE ( 'NONE', #105, #294, #93, .T. ) ;
#148 = ORIENTED_EDGE ( 'NONE', *, *, #2, .F. ) ;
#149 = ORGANIZATION ( 'NEURÈENÝ', 'NEURÈENÝ', '' ) ;
#150 = CARTESIAN_POINT ( 'NONE',  ( 0.000000000000000000, 0.000000000000000000, 0.000000000000000000 ) ) ;
#151 = FACE_OUTER_BOUND ( 'NONE', #26, .T. ) ;
#152 = DIRECTION ( 'NONE',  ( 0.000000000000000000, 0.000000000000000000, 1.000000000000000000 ) ) ;
#153 = CIRCLE ( 'NONE', #184, 3.000000000000000444 ) ;
#154 = CARTESIAN_POINT ( 'NONE',  ( 3.500000000000000444, 0.000000000000000000, 5.500000000000005329 ) ) ;
#155 = ORIENTED_EDGE ( 'NONE', *, *, #372, .T. ) ;
#156 = CIRCLE ( 'NONE', #43, 3.500000000000000444 ) ;
#157 = FACE_OUTER_BOUND ( 'NONE', #255, .T. ) ;
#158 = ORIENTED_EDGE ( 'NONE', *, *, #161, .F. ) ;
#159 = CIRCLE ( 'NONE', #356, 6.000000000000000888 ) ;
#160 = DIRECTION ( 'NONE',  ( 0.000000000000000000, 0.000000000000000000, 1.000000000000000000 ) ) ;
#161 = EDGE_CURVE ( 'NONE', #343, #224, #10, .T. ) ;
#162 = DIRECTION ( 'NONE',  ( -0.000000000000000000, -0.000000000000000000, -1.000000000000000000 ) ) ;
#163 = ORIENTED_EDGE ( 'NONE', *, *, #186, .F. ) ;
#164 = CALENDAR_DATE ( 2022, 8, 7 ) ;
#165 = EDGE_CURVE ( 'NONE', #311, #353, #225, .T. ) ;
#166 = DIRECTION ( 'NONE',  ( 1.000000000000000000, 0.000000000000000000, 0.000000000000000000 ) ) ;
#167 = ORIENTED_EDGE ( 'NONE', *, *, #2, .T. ) ;
#168 = PERSON_AND_ORGANIZATION ( #175, #149 ) ;
#169 = DIRECTION ( 'NONE',  ( -1.000000000000000000, 0.000000000000000000, 0.000000000000000000 ) ) ;
#170 = DIRECTION ( 'NONE',  ( -0.000000000000000000, -0.000000000000000000, -1.000000000000000000 ) ) ;
#171 = CIRCLE ( 'NONE', #349, 0.4999999999999995559 ) ;
#172 = COORDINATED_UNIVERSAL_TIME_OFFSET ( 1, 0, .AHEAD. ) ;
#173 = CIRCLE ( 'NONE', #7, 3.000000000000000444 ) ;
#174 = ORIENTED_EDGE ( 'NONE', *, *, #210, .T. ) ;
#175 = PERSON ( 'NEURÈENÝ', 'NEURÈENÝ', 'NEURÈENÝ', ('NEURÈENÝ'), ('NEURÈENÝ'), ('NEURÈENÝ') ) ;
#176 = ORIENTED_EDGE ( 'NONE', *, *, #165, .T. ) ;
#177 = VECTOR ( 'NONE', #124, 1000.000000000000000 ) ;
#178 = DIRECTION ( 'NONE',  ( -1.000000000000000000, 0.000000000000000000, 0.000000000000000000 ) ) ;
#179 = LOCAL_TIME ( 17, 35, 2.000000000000000000, #378 ) ;
#180 = CC_DESIGN_DATE_AND_TIME_ASSIGNMENT ( #29, #199, ( #95 ) ) ;
#181 = CARTESIAN_POINT ( 'NONE',  ( 0.000000000000000000, 0.000000000000000000, 305.0000000000000000 ) ) ;
#182 = DIRECTION ( 'NONE',  ( -0.000000000000000000, -0.000000000000000000, -1.000000000000000000 ) ) ;
#183 = DIRECTION ( 'NONE',  ( 1.000000000000000000, 0.000000000000000000, 0.000000000000000000 ) ) ;
#184 = AXIS2_PLACEMENT_3D ( 'NONE', #181, #62, #342 ) ;
#185 = CARTESIAN_POINT ( 'NONE',  ( 2.000000000000000000, 2.449293598294706414E-16, 305.0000000000000000 ) ) ;
#186 = EDGE_CURVE ( 'NONE', #288, #315, #137, .T. ) ;
#187 = ORIENTED_EDGE ( 'NONE', *, *, #228, .F. ) ;
#188 = APPROVAL_PERSON_ORGANIZATION ( #256, #273, #293 ) ;
#189 = CARTESIAN_POINT ( 'NONE',  ( 0.000000000000000000, 0.000000000000000000, 305.0000000000000000 ) ) ;
#190 = ADVANCED_FACE ( 'NONE', ( #209 ), #27, .F. ) ;
#191 = CALENDAR_DATE ( 2022, 8, 7 ) ;
#192 = ORIENTED_EDGE ( 'NONE', *, *, #33, .F. ) ;
#193 = CIRCLE ( 'NONE', #338, 2.000000000000000000 ) ;
#194 = PERSON_AND_ORGANIZATION ( #175, #149 ) ;
#195 = DIRECTION ( 'NONE',  ( -0.000000000000000000, -0.000000000000000000, -1.000000000000000000 ) ) ;
#196 = CALENDAR_DATE ( 2022, 8, 7 ) ;
#197 = VERTEX_POINT ( 'NONE', #267 ) ;
#198 = AXIS2_PLACEMENT_3D ( 'NONE', #234, #303, #206 ) ;
#199 = DATE_TIME_ROLE ( 'creation_date' ) ;
#200 = UNCERTAINTY_MEASURE_WITH_UNIT (LENGTH_MEASURE( 1.000000000000000082E-05 ), #309, 'distance_accuracy_value', 'NONE');
#201 = VERTEX_POINT ( 'NONE', #39 ) ;
#202 = ADVANCED_FACE ( 'NONE', ( #91, #151 ), #270, .F. ) ;
#203 = DIRECTION ( 'NONE',  ( 1.000000000000000000, 0.000000000000000000, 0.000000000000000000 ) ) ;
#204 = CARTESIAN_POINT ( 'NONE',  ( -2.000000000000000000, 0.000000000000000000, 305.0000000000000000 ) ) ;
#205 = EDGE_CURVE ( 'NONE', #353, #311, #159, .T. ) ;
#206 = DIRECTION ( 'NONE',  ( -1.000000000000000000, 0.000000000000000000, 0.000000000000000000 ) ) ;
#207 = DIRECTION ( 'NONE',  ( 0.000000000000000000, 0.000000000000000000, 1.000000000000000000 ) ) ;
#208 = DIRECTION ( 'NONE',  ( 0.000000000000000000, 0.000000000000000000, 1.000000000000000000 ) ) ;
#209 = FACE_OUTER_BOUND ( 'NONE', #22, .T. ) ;
#210 = EDGE_CURVE ( 'NONE', #315, #288, #193, .T. ) ;
#211 = LINE ( 'NONE', #369, #66 ) ;
#212 =( NAMED_UNIT ( * ) SI_UNIT ( $, .STERADIAN. ) SOLID_ANGLE_UNIT ( ) );
#213 = EDGE_LOOP ( 'NONE', ( #371, #158 ) ) ;
#214 = ADVANCED_FACE ( 'NONE', ( #326 ), #65, .T. ) ;
#215 = CARTESIAN_POINT ( 'NONE',  ( 6.000000000000000888, 7.347880794884120722E-16, 0.000000000000000000 ) ) ;
#216 = ADVANCED_BREP_SHAPE_REPRESENTATION ( '8c78', ( #264, #12 ), #46 ) ;
#217 = CARTESIAN_POINT ( 'NONE',  ( -3.500000000000000444, 4.286263797015737088E-16, 5.000000000000002665 ) ) ;
#218 = CARTESIAN_POINT ( 'NONE',  ( 3.500000000000000444, 0.000000000000000000, 5.000000000000002665 ) ) ;
#219 = ADVANCED_FACE ( 'NONE', ( #120 ), #3, .F. ) ;
#220 = DATE_TIME_ROLE ( 'classification_date' ) ;
#221 = CLOSED_SHELL ( 'NONE', ( #219, #190, #57, #129, #239, #71, #202, #214, #278, #110, #123 ) ) ;
#222 = FACE_OUTER_BOUND ( 'NONE', #45, .T. ) ;
#223 = CALENDAR_DATE ( 2022, 8, 7 ) ;
#224 = VERTEX_POINT ( 'NONE', #204 ) ;
#225 = CIRCLE ( 'NONE', #6, 6.000000000000000888 ) ;
#226 = CARTESIAN_POINT ( 'NONE',  ( 0.000000000000000000, 0.000000000000000000, 0.000000000000000000 ) ) ;
#227 = CARTESIAN_POINT ( 'NONE',  ( 0.000000000000000000, 0.000000000000000000, 5.000000000000000000 ) ) ;
#228 = EDGE_CURVE ( 'NONE', #284, #105, #153, .T. ) ;
#229 = VERTEX_POINT ( 'NONE', #218 ) ;
#230 = SHAPE_DEFINITION_REPRESENTATION ( #32, #216 ) ;
#231 = LINE ( 'NONE', #354, #4 ) ;
#232 = DIRECTION ( 'NONE',  ( 0.000000000000000000, 0.000000000000000000, -1.000000000000000000 ) ) ;
#233 = EDGE_CURVE ( 'NONE', #294, #374, #171, .T. ) ;
#234 = CARTESIAN_POINT ( 'NONE',  ( 0.000000000000000000, 0.000000000000000000, 305.0000000000000000 ) ) ;
#235 = CARTESIAN_POINT ( 'NONE',  ( -3.000000000000000444, 0.000000000000000000, 305.0000000000000000 ) ) ;
#236 = AXIS2_PLACEMENT_3D ( 'NONE', #277, #276, #283 ) ;
#237 = APPROVAL_PERSON_ORGANIZATION ( #194, #266, #21 ) ;
#238 = CARTESIAN_POINT ( 'NONE',  ( -3.000000000000000444, 0.000000000000000000, 305.0000000000000000 ) ) ;
#239 = ADVANCED_FACE ( 'NONE', ( #49 ), #246, .T. ) ;
#240 = CYLINDRICAL_SURFACE ( 'NONE', #300, 6.000000000000000888 ) ;
#241 = CARTESIAN_POINT ( 'NONE',  ( 0.000000000000000000, 0.000000000000000000, 5.000000000000000000 ) ) ;
#242 = AXIS2_PLACEMENT_3D ( 'NONE', #24, #257, #377 ) ;
#243 = DIRECTION ( 'NONE',  ( 1.000000000000000000, 0.000000000000000000, 0.000000000000000000 ) ) ;
#244 = AXIS2_PLACEMENT_3D ( 'NONE', #241, #42, #247 ) ;
#245 = EDGE_CURVE ( 'NONE', #294, #201, #40, .T. ) ;
#246 = CYLINDRICAL_SURFACE ( 'NONE', #296, 6.000000000000000888 ) ;
#247 = DIRECTION ( 'NONE',  ( 1.000000000000000000, 0.000000000000000000, 0.000000000000000000 ) ) ;
#248 = DIRECTION ( 'NONE',  ( 0.000000000000000000, 0.000000000000000000, 1.000000000000000000 ) ) ;
#249 = ORIENTED_EDGE ( 'NONE', *, *, #316, .T. ) ;
#250 = MECHANICAL_CONTEXT ( 'NONE', #64, 'mechanical' ) ;
#251 = APPROVAL ( #52, 'NEURÈENÝ' ) ;
#252 = ORIENTED_EDGE ( 'NONE', *, *, #86, .T. ) ;
#253 = APPLICATION_PROTOCOL_DEFINITION ( 'international standard', 'config_control_design', 1994, #64 ) ;
#254 = VECTOR ( 'NONE', #317, 1000.000000000000000 ) ;
#255 = EDGE_LOOP ( 'NONE', ( #265, #31 ) ) ;
#256 = PERSON_AND_ORGANIZATION ( #175, #149 ) ;
#257 = DIRECTION ( 'NONE',  ( 0.000000000000000000, 0.000000000000000000, 1.000000000000000000 ) ) ;
#258 = CC_DESIGN_SECURITY_CLASSIFICATION ( #136, ( #75 ) ) ;
#259 = EDGE_CURVE ( 'NONE', #224, #343, #20, .T. ) ;
#260 = AXIS2_PLACEMENT_3D ( 'NONE', #189, #248, #243 ) ;
#261 = PERSON_AND_ORGANIZATION ( #175, #149 ) ;
#262 = EDGE_LOOP ( 'NONE', ( #337, #322, #19, #299 ) ) ;
#263 = DATE_AND_TIME ( #164, #119 ) ;
#264 = MANIFOLD_SOLID_BREP ( 'Odebrat vysunutím3', #221 ) ;
#265 = ORIENTED_EDGE ( 'NONE', *, *, #305, .T. ) ;
#266 = APPROVAL ( #376, 'NEURÈENÝ' ) ;
#267 = CARTESIAN_POINT ( 'NONE',  ( -6.000000000000000888, 0.000000000000000000, 5.000000000000000000 ) ) ;
#268 = CC_DESIGN_APPROVAL ( #266, ( #95 ) ) ;
#269 = DIRECTION ( 'NONE',  ( 1.000000000000000000, 0.000000000000000000, 0.000000000000000000 ) ) ;
#270 = PLANE ( 'NONE',  #74 ) ;
#271 = AXIS2_PLACEMENT_3D ( 'NONE', #227, #170, #38 ) ;
#272 = CYLINDRICAL_SURFACE ( 'NONE', #198, 2.000000000000000000 ) ;
#273 = APPROVAL ( #87, 'NEURÈENÝ' ) ;
#274 = LOCAL_TIME ( 17, 35, 2.000000000000000000, #172 ) ;
#275 = CARTESIAN_POINT ( 'NONE',  ( 0.000000000000000000, 0.000000000000000000, 0.000000000000000000 ) ) ;
#276 = DIRECTION ( 'NONE',  ( 0.000000000000000000, 0.000000000000000000, 1.000000000000000000 ) ) ;
#277 = CARTESIAN_POINT ( 'NONE',  ( 0.000000000000000000, 0.000000000000000000, 305.0000000000000000 ) ) ;
#278 = ADVANCED_FACE ( 'NONE', ( #336, #157 ), #131, .T. ) ;
#279 = EDGE_LOOP ( 'NONE', ( #351, #252 ) ) ;
#280 = CARTESIAN_POINT ( 'NONE',  ( 0.000000000000000000, 0.000000000000000000, 5.500000000000005329 ) ) ;
#281 = ORIENTED_EDGE ( 'NONE', *, *, #329, .T. ) ;
#282 = CIRCLE ( 'NONE', #328, 6.000000000000000888 ) ;
#283 = DIRECTION ( 'NONE',  ( 1.000000000000000000, 0.000000000000000000, 0.000000000000000000 ) ) ;
#284 = VERTEX_POINT ( 'NONE', #17 ) ;
#285 = DIRECTION ( 'NONE',  ( 1.000000000000000000, 0.000000000000000000, -0.000000000000000000 ) ) ;
#286 = ORIENTED_EDGE ( 'NONE', *, *, #165, .F. ) ;
#287 = CC_DESIGN_PERSON_AND_ORGANIZATION_ASSIGNMENT ( #168, #112, ( #75 ) ) ;
#288 = VERTEX_POINT ( 'NONE', #308 ) ;
#289 = COORDINATED_UNIVERSAL_TIME_OFFSET ( 1, 0, .AHEAD. ) ;
#290 = EDGE_LOOP ( 'NONE', ( #99, #281 ) ) ;
#291 = PERSON_AND_ORGANIZATION ( #175, #149 ) ;
#292 = FACE_OUTER_BOUND ( 'NONE', #290, .T. ) ;
#293 = APPROVAL_ROLE ( '' ) ;
#294 = VERTEX_POINT ( 'NONE', #134 ) ;
#295 = CIRCLE ( 'NONE', #125, 0.5000000000000004441 ) ;
#296 = AXIS2_PLACEMENT_3D ( 'NONE', #78, #162, #132 ) ;
#297 = COORDINATED_UNIVERSAL_TIME_OFFSET ( 1, 0, .AHEAD. ) ;
#298 = EDGE_LOOP ( 'NONE', ( #335, #109, #102, #18 ) ) ;
#299 = ORIENTED_EDGE ( 'NONE', *, *, #139, .F. ) ;
#300 = AXIS2_PLACEMENT_3D ( 'NONE', #332, #324, #178 ) ;
#301 = DIRECTION ( 'NONE',  ( -0.000000000000000000, -0.000000000000000000, -1.000000000000000000 ) ) ;
#302 = VECTOR ( 'NONE', #11, 1000.000000000000000 ) ;
#303 = DIRECTION ( 'NONE',  ( 0.000000000000000000, 0.000000000000000000, -1.000000000000000000 ) ) ;
#304 = CARTESIAN_POINT ( 'NONE',  ( 0.000000000000000000, 0.000000000000000000, 0.000000000000000000 ) ) ;
#305 = EDGE_CURVE ( 'NONE', #105, #284, #126, .T. ) ;
#306 = CARTESIAN_POINT ( 'NONE',  ( 0.000000000000000000, 0.000000000000000000, 5.500000000000005329 ) ) ;
#307 = DIRECTION ( 'NONE',  ( -0.000000000000000000, -0.000000000000000000, -1.000000000000000000 ) ) ;
#308 = CARTESIAN_POINT ( 'NONE',  ( 2.000000000000000000, 2.449293598294706414E-16, 0.000000000000000000 ) ) ;
#309 =( LENGTH_UNIT ( ) NAMED_UNIT ( * ) SI_UNIT ( .MILLI., .METRE. ) );
#310 = DIRECTION ( 'NONE',  ( -1.000000000000000000, 1.224646799147354440E-16, 0.000000000000000000 ) ) ;
#311 = VERTEX_POINT ( 'NONE', #100 ) ;
#312 =( NAMED_UNIT ( * ) PLANE_ANGLE_UNIT ( ) SI_UNIT ( $, .RADIAN. ) );
#313 = ORIENTED_EDGE ( 'NONE', *, *, #205, .F. ) ;
#314 = APPROVAL_ROLE ( '' ) ;
#315 = VERTEX_POINT ( 'NONE', #104 ) ;
#316 = EDGE_CURVE ( 'NONE', #201, #229, #295, .T. ) ;
#317 = DIRECTION ( 'NONE',  ( -0.000000000000000000, -0.000000000000000000, -1.000000000000000000 ) ) ;
#318 = PERSON_AND_ORGANIZATION ( #175, #149 ) ;
#319 = AXIS2_PLACEMENT_3D ( 'NONE', #5, #207, #96 ) ;
#320 = PLANE ( 'NONE',  #242 ) ;
#321 = DATE_AND_TIME ( #196, #179 ) ;
#322 = ORIENTED_EDGE ( 'NONE', *, *, #33, .T. ) ;
#323 = ORIENTED_EDGE ( 'NONE', *, *, #210, .F. ) ;
#324 = DIRECTION ( 'NONE',  ( -0.000000000000000000, -0.000000000000000000, -1.000000000000000000 ) ) ;
#325 = AXIS2_PLACEMENT_3D ( 'NONE', #344, #83, #169 ) ;
#326 = FACE_OUTER_BOUND ( 'NONE', #88, .T. ) ;
#327 = LOCAL_TIME ( 17, 35, 2.000000000000000000, #82 ) ;
#328 = AXIS2_PLACEMENT_3D ( 'NONE', #339, #160, #15 ) ;
#329 = EDGE_CURVE ( 'NONE', #85, #197, #36, .T. ) ;
#330 = DIRECTION ( 'NONE',  ( 0.000000000000000000, 0.000000000000000000, 1.000000000000000000 ) ) ;
#331 = DIRECTION ( 'NONE',  ( 1.000000000000000000, 0.000000000000000000, 0.000000000000000000 ) ) ;
#332 = CARTESIAN_POINT ( 'NONE',  ( 0.000000000000000000, 0.000000000000000000, 5.000000000000000000 ) ) ;
#333 = DIRECTION ( 'NONE',  ( 1.000000000000000000, 0.000000000000000000, 0.000000000000000000 ) ) ;
#334 = CARTESIAN_POINT ( 'NONE',  ( 2.000000000000000000, 2.449293598294706414E-16, 305.0000000000000000 ) ) ;
#335 = ORIENTED_EDGE ( 'NONE', *, *, #259, .T. ) ;
#336 = FACE_BOUND ( 'NONE', #213, .T. ) ;
#337 = ORIENTED_EDGE ( 'NONE', *, *, #329, .F. ) ;
#338 = AXIS2_PLACEMENT_3D ( 'NONE', #1, #301, #97 ) ;
#339 = CARTESIAN_POINT ( 'NONE',  ( 0.000000000000000000, 0.000000000000000000, 5.000000000000000000 ) ) ;
#340 = CC_DESIGN_PERSON_AND_ORGANIZATION_ASSIGNMENT ( #291, #108, ( #136 ) ) ;
#341 = AXIS2_PLACEMENT_3D ( 'NONE', #128, #365, #285 ) ;
#342 = DIRECTION ( 'NONE',  ( 1.000000000000000000, 0.000000000000000000, 0.000000000000000000 ) ) ;
#343 = VERTEX_POINT ( 'NONE', #334 ) ;
#344 = CARTESIAN_POINT ( 'NONE',  ( 0.000000000000000000, 0.000000000000000000, 305.0000000000000000 ) ) ;
#345 = VECTOR ( 'NONE', #359, 1000.000000000000000 ) ;
#346 = EDGE_CURVE ( 'NONE', #343, #288, #73, .T. ) ;
#347 = EDGE_LOOP ( 'NONE', ( #79, #116, #249, #146 ) ) ;
#348 = APPROVAL_PERSON_ORGANIZATION ( #261, #251, #314 ) ;
#349 = AXIS2_PLACEMENT_3D ( 'NONE', #70, #9, #310 ) ;
#350 = DIRECTION ( 'NONE',  ( 0.000000000000000000, 0.000000000000000000, 1.000000000000000000 ) ) ;
#351 = ORIENTED_EDGE ( 'NONE', *, *, #14, .T. ) ;
#352 = APPLICATION_PROTOCOL_DEFINITION ( 'international standard', 'config_control_design', 1994, #94 ) ;
#353 = VERTEX_POINT ( 'NONE', #215 ) ;
#354 = CARTESIAN_POINT ( 'NONE',  ( 3.000000000000000444, 3.673940397442060361E-16, 305.0000000000000000 ) ) ;
#355 = CC_DESIGN_PERSON_AND_ORGANIZATION_ASSIGNMENT ( #55, #115, ( #95 ) ) ;
#356 = AXIS2_PLACEMENT_3D ( 'NONE', #275, #8, #269 ) ;
#357 = DIRECTION ( 'NONE',  ( -1.000000000000000000, 0.000000000000000000, 0.000000000000000000 ) ) ;
#358 = DIRECTION ( 'NONE',  ( 1.000000000000000000, 0.000000000000000000, 0.000000000000000000 ) ) ;
#359 = DIRECTION ( 'NONE',  ( -0.000000000000000000, -0.000000000000000000, -1.000000000000000000 ) ) ;
#360 = CARTESIAN_POINT ( 'NONE',  ( 0.000000000000000000, 0.000000000000000000, 305.0000000000000000 ) ) ;
#361 = DIRECTION ( 'NONE',  ( 0.000000000000000000, 0.000000000000000000, 1.000000000000000000 ) ) ;
#362 = EDGE_CURVE ( 'NONE', #224, #315, #211, .T. ) ;
#363 = DIRECTION ( 'NONE',  ( 0.000000000000000000, 0.000000000000000000, -1.000000000000000000 ) ) ;
#364 = ORIENTED_EDGE ( 'NONE', *, *, #366, .F. ) ;
#365 = DIRECTION ( 'NONE',  ( 0.000000000000000000, 0.000000000000000000, 1.000000000000000000 ) ) ;
#366 = EDGE_CURVE ( 'NONE', #197, #85, #282, .T. ) ;
#367 = DIRECTION ( 'NONE',  ( 1.000000000000000000, 0.000000000000000000, 0.000000000000000000 ) ) ;
#368 = EDGE_LOOP ( 'NONE', ( #323, #163 ) ) ;
#369 = CARTESIAN_POINT ( 'NONE',  ( -2.000000000000000000, 0.000000000000000000, 305.0000000000000000 ) ) ;
#370 = ORIENTED_EDGE ( 'NONE', *, *, #161, .T. ) ;
#371 = ORIENTED_EDGE ( 'NONE', *, *, #259, .F. ) ;
#372 = EDGE_CURVE ( 'NONE', #201, #294, #173, .T. ) ;
#373 = PERSON_AND_ORGANIZATION ( #175, #149 ) ;
#374 = VERTEX_POINT ( 'NONE', #217 ) ;
#375 = AXIS2_PLACEMENT_3D ( 'NONE', #360, #330, #358 ) ;
#376 = APPROVAL_STATUS ( 'not_yet_approved' ) ;
#377 = DIRECTION ( 'NONE',  ( 1.000000000000000000, 0.000000000000000000, -0.000000000000000000 ) ) ;
#378 = COORDINATED_UNIVERSAL_TIME_OFFSET ( 1, 0, .AHEAD. ) ;
#379 = ORIENTED_EDGE ( 'NONE', *, *, #305, .F. ) ;
#380 = EDGE_LOOP ( 'NONE', ( #16, #370, #89, #174 ) ) ;
#381 = DIRECTION ( 'NONE',  ( -1.000000000000000000, 0.000000000000000000, 0.000000000000000000 ) ) ;
ENDSEC;
END-ISO-10303-21;
