ISO-10303-21;
HEADER;
FILE_DESCRIPTION (( 'STEP AP203' ),
    '1' );
FILE_NAME ('ce5b.STEP',
    '2022-07-08T15:29:46',
    ( '' ),
    ( '' ),
    'SwSTEP 2.0',
    'SolidWorks 2019',
    '' );
FILE_SCHEMA (( 'CONFIG_CONTROL_DESIGN' ));
ENDSEC;

DATA;
#1 = EDGE_CURVE ( 'NONE', #145, #346, #177, .T. ) ;
#2 = ORIENTED_EDGE ( 'NONE', *, *, #83, .F. ) ;
#3 = COORDINATED_UNIVERSAL_TIME_OFFSET ( 1, 0, .AHEAD. ) ;
#4 = SECURITY_CLASSIFICATION_LEVEL ( 'unclassified' ) ;
#5 = DIRECTION ( 'NONE',  ( 1.000000000000000000, 0.000000000000000000, 0.000000000000000000 ) ) ;
#6 = ORIENTED_EDGE ( 'NONE', *, *, #1, .F. ) ;
#7 = CALENDAR_DATE ( 2022, 8, 7 ) ;
#8 = CARTESIAN_POINT ( 'NONE',  ( -2.000000000000000000, 0.000000000000000000, 655.0000000000000000 ) ) ;
#9 = AXIS2_PLACEMENT_3D ( 'NONE', #263, #241, #294 ) ;
#10 = PERSON_AND_ORGANIZATION_ROLE ( 'design_owner' ) ;
#11 = AXIS2_PLACEMENT_3D ( 'NONE', #281, #200, #359 ) ;
#12 = ORIENTED_EDGE ( 'NONE', *, *, #64, .T. ) ;
#13 = EDGE_CURVE ( 'NONE', #318, #342, #379, .T. ) ;
#14 = DIRECTION ( 'NONE',  ( -0.000000000000000000, -0.000000000000000000, -1.000000000000000000 ) ) ;
#15 = DATE_AND_TIME ( #7, #131 ) ;
#16 = ADVANCED_FACE ( 'NONE', ( #313 ), #215, .F. ) ;
#17 = EDGE_LOOP ( 'NONE', ( #333, #223, #46, #348 ) ) ;
#18 = EDGE_CURVE ( 'NONE', #299, #180, #35, .T. ) ;
#19 = ORIENTED_EDGE ( 'NONE', *, *, #334, .T. ) ;
#20 = DATE_TIME_ROLE ( 'classification_date' ) ;
#21 = LOCAL_TIME ( 17, 29, 46.00000000000000000, #371 ) ;
#22 = EDGE_LOOP ( 'NONE', ( #370, #174, #262, #95 ) ) ;
#23 = PLANE ( 'NONE',  #347 ) ;
#24 = CARTESIAN_POINT ( 'NONE',  ( -4.000000000000000000, 0.000000000000000000, 655.0000000000000000 ) ) ;
#25 = AXIS2_PLACEMENT_3D ( 'NONE', #72, #284, #206 ) ;
#26 = ADVANCED_FACE ( 'NONE', ( #207 ), #311, .T. ) ;
#27 = CARTESIAN_POINT ( 'NONE',  ( 0.000000000000000000, 0.000000000000000000, 655.0000000000000000 ) ) ;
#28 = CARTESIAN_POINT ( 'NONE',  ( -4.500000000000000888, 5.510910596163089556E-16, 5.499999999999949374 ) ) ;
#29 = CYLINDRICAL_SURFACE ( 'NONE', #285, 2.000000000000000000 ) ;
#30 = CC_DESIGN_PERSON_AND_ORGANIZATION_ASSIGNMENT ( #166, #280, ( #184 ) ) ;
#31 = AXIS2_PLACEMENT_3D ( 'NONE', #51, #295, #54 ) ;
#32 = CARTESIAN_POINT ( 'NONE',  ( 0.000000000000000000, 0.000000000000000000, 5.499999999999949374 ) ) ;
#33 = CARTESIAN_POINT ( 'NONE',  ( 0.000000000000000000, 0.000000000000000000, 0.000000000000000000 ) ) ;
#34 = CARTESIAN_POINT ( 'NONE',  ( 0.000000000000000000, 0.000000000000000000, 655.0000000000000000 ) ) ;
#35 = CIRCLE ( 'NONE', #100, 2.000000000000000000 ) ;
#36 = CC_DESIGN_PERSON_AND_ORGANIZATION_ASSIGNMENT ( #198, #302, ( #184 ) ) ;
#37 = AXIS2_PLACEMENT_3D ( 'NONE', #151, #270, #188 ) ;
#38 = CALENDAR_DATE ( 2022, 8, 7 ) ;
#39 = CIRCLE ( 'NONE', #55, 4.000000000000000000 ) ;
#40 = DIRECTION ( 'NONE',  ( 1.000000000000000000, 0.000000000000000000, 0.000000000000000000 ) ) ;
#41 = EDGE_CURVE ( 'NONE', #226, #299, #113, .T. ) ;
#42 = APPROVAL_ROLE ( '' ) ;
#43 = ORIENTED_EDGE ( 'NONE', *, *, #191, .F. ) ;
#44 = SHAPE_DEFINITION_REPRESENTATION ( #179, #130 ) ;
#45 = EDGE_CURVE ( 'NONE', #342, #318, #123, .T. ) ;
#46 = ORIENTED_EDGE ( 'NONE', *, *, #41, .T. ) ;
#47 = AXIS2_PLACEMENT_3D ( 'NONE', #138, #365, #185 ) ;
#48 = CIRCLE ( 'NONE', #88, 7.000000000000000000 ) ;
#49 = ORIENTED_EDGE ( 'NONE', *, *, #167, .F. ) ;
#50 = CALENDAR_DATE ( 2022, 8, 7 ) ;
#51 = CARTESIAN_POINT ( 'NONE',  ( 4.500000000000000888, 0.000000000000000000, 5.499999999999949374 ) ) ;
#52 = FACE_OUTER_BOUND ( 'NONE', #238, .T. ) ;
#53 = ADVANCED_FACE ( 'NONE', ( #84 ), #29, .F. ) ;
#54 = DIRECTION ( 'NONE',  ( 0.000000000000000000, 0.000000000000000000, -1.000000000000000000 ) ) ;
#55 = AXIS2_PLACEMENT_3D ( 'NONE', #34, #251, #358 ) ;
#56 = CARTESIAN_POINT ( 'NONE',  ( -7.000000000000000000, 0.000000000000000000, 5.000000000000000000 ) ) ;
#57 = DIRECTION ( 'NONE',  ( 1.224646799147353207E-16, 1.000000000000000000, -0.000000000000000000 ) ) ;
#58 = CARTESIAN_POINT ( 'NONE',  ( -4.000000000000000000, 0.000000000000000000, 5.499999999999949374 ) ) ;
#59 = CIRCLE ( 'NONE', #112, 2.000000000000000000 ) ;
#60 = DIRECTION ( 'NONE',  ( 1.000000000000000000, 0.000000000000000000, 0.000000000000000000 ) ) ;
#61 = TOROIDAL_SURFACE ( 'NONE', #220, 4.500000000000000888, 0.5000000000000000000 ) ;
#62 = ORIENTED_EDGE ( 'NONE', *, *, #1, .T. ) ;
#63 = DIRECTION ( 'NONE',  ( 0.000000000000000000, 0.000000000000000000, -1.000000000000000000 ) ) ;
#64 = EDGE_CURVE ( 'NONE', #335, #342, #67, .T. ) ;
#65 = DATE_AND_TIME ( #38, #135 ) ;
#66 = FACE_BOUND ( 'NONE', #162, .T. ) ;
#67 = CIRCLE ( 'NONE', #31, 0.5000000000000004441 ) ;
#68 = COORDINATED_UNIVERSAL_TIME_OFFSET ( 1, 0, .AHEAD. ) ;
#69 = APPLICATION_CONTEXT ( 'configuration controlled 3d designs of mechanical parts and assemblies' ) ;
#70 = CARTESIAN_POINT ( 'NONE',  ( 2.000000000000000000, 2.449293598294706414E-16, 0.000000000000000000 ) ) ;
#71 = CC_DESIGN_PERSON_AND_ORGANIZATION_ASSIGNMENT ( #74, #10, ( #288 ) ) ;
#72 = CARTESIAN_POINT ( 'NONE',  ( 0.000000000000000000, 0.000000000000000000, 0.000000000000000000 ) ) ;
#73 = DIRECTION ( 'NONE',  ( 1.000000000000000000, 0.000000000000000000, 0.000000000000000000 ) ) ;
#74 = PERSON_AND_ORGANIZATION ( #136, #278 ) ;
#75 = EDGE_LOOP ( 'NONE', ( #247, #2, #12, #287 ) ) ;
#76 = VECTOR ( 'NONE', #14, 1000.000000000000000 ) ;
#77 = DESIGN_CONTEXT ( 'detailed design', #341, 'design' ) ;
#78 = APPROVAL_PERSON_ORGANIZATION ( #232, #160, #42 ) ;
#79 = DIRECTION ( 'NONE',  ( 1.000000000000000000, 0.000000000000000000, 0.000000000000000000 ) ) ;
#80 = ORIENTED_EDGE ( 'NONE', *, *, #332, .F. ) ;
#81 = ORIENTED_EDGE ( 'NONE', *, *, #146, .F. ) ;
#82 = EDGE_LOOP ( 'NONE', ( #140, #126, #62, #235 ) ) ;
#83 = EDGE_CURVE ( 'NONE', #335, #346, #296, .T. ) ;
#84 = FACE_OUTER_BOUND ( 'NONE', #17, .T. ) ;
#85 = PLANE ( 'NONE',  #37 ) ;
#86 = CIRCLE ( 'NONE', #9, 7.000000000000000000 ) ;
#87 = DIRECTION ( 'NONE',  ( 1.000000000000000000, 0.000000000000000000, -0.000000000000000000 ) ) ;
#88 = AXIS2_PLACEMENT_3D ( 'NONE', #272, #276, #116 ) ;
#89 = ADVANCED_FACE ( 'NONE', ( #154, #244 ), #23, .T. ) ;
#90 = DIRECTION ( 'NONE',  ( 1.000000000000000000, 0.000000000000000000, 0.000000000000000000 ) ) ;
#91 = DIRECTION ( 'NONE',  ( -0.000000000000000000, -0.000000000000000000, -1.000000000000000000 ) ) ;
#92 = VECTOR ( 'NONE', #253, 1000.000000000000000 ) ;
#93 = DIRECTION ( 'NONE',  ( -0.000000000000000000, -0.000000000000000000, -1.000000000000000000 ) ) ;
#94 = CIRCLE ( 'NONE', #309, 2.000000000000000000 ) ;
#95 = ORIENTED_EDGE ( 'NONE', *, *, #219, .T. ) ;
#96 = APPLICATION_PROTOCOL_DEFINITION ( 'international standard', 'config_control_design', 1994, #341 ) ;
#97 = DIRECTION ( 'NONE',  ( -1.000000000000000000, 0.000000000000000000, 0.000000000000000000 ) ) ;
#98 = COORDINATED_UNIVERSAL_TIME_OFFSET ( 1, 0, .AHEAD. ) ;
#99 = FACE_OUTER_BOUND ( 'NONE', #257, .T. ) ;
#100 = AXIS2_PLACEMENT_3D ( 'NONE', #339, #369, #79 ) ;
#101 = DATE_TIME_ROLE ( 'creation_date' ) ;
#102 = AXIS2_PLACEMENT_3D ( 'NONE', #307, #283, #60 ) ;
#103 = PLANE ( 'NONE',  #205 ) ;
#104 = UNCERTAINTY_MEASURE_WITH_UNIT (LENGTH_MEASURE( 1.000000000000000082E-05 ), #269, 'distance_accuracy_value', 'NONE');
#105 = ORIENTED_EDGE ( 'NONE', *, *, #345, .F. ) ;
#106 = DATE_AND_TIME ( #134, #125 ) ;
#107 = ORIENTED_EDGE ( 'NONE', *, *, #64, .F. ) ;
#108 = AXIS2_PLACEMENT_3D ( 'NONE', #197, #193, #97 ) ;
#109 = EDGE_LOOP ( 'NONE', ( #289, #110 ) ) ;
#110 = ORIENTED_EDGE ( 'NONE', *, *, #13, .T. ) ;
#111 = ORIENTED_EDGE ( 'NONE', *, *, #117, .T. ) ;
#112 = AXIS2_PLACEMENT_3D ( 'NONE', #267, #115, #90 ) ;
#113 = LINE ( 'NONE', #349, #155 ) ;
#114 = APPROVAL_PERSON_ORGANIZATION ( #236, #355, #209 ) ;
#115 = DIRECTION ( 'NONE',  ( -0.000000000000000000, -0.000000000000000000, -1.000000000000000000 ) ) ;
#116 = DIRECTION ( 'NONE',  ( 1.000000000000000000, 0.000000000000000000, 0.000000000000000000 ) ) ;
#117 = EDGE_CURVE ( 'NONE', #290, #312, #86, .T. ) ;
#118 = DIRECTION ( 'NONE',  ( 1.000000000000000000, 0.000000000000000000, 0.000000000000000000 ) ) ;
#119 = DIRECTION ( 'NONE',  ( 1.000000000000000000, 0.000000000000000000, 0.000000000000000000 ) ) ;
#120 = DIRECTION ( 'NONE',  ( 0.000000000000000000, 0.000000000000000000, 1.000000000000000000 ) ) ;
#121 = FACE_OUTER_BOUND ( 'NONE', #255, .T. ) ;
#122 = EDGE_LOOP ( 'NONE', ( #357, #329 ) ) ;
#123 = CIRCLE ( 'NONE', #132, 4.500000000000000888 ) ;
#124 = LINE ( 'NONE', #364, #264 ) ;
#125 = LOCAL_TIME ( 17, 29, 46.00000000000000000, #3 ) ;
#126 = ORIENTED_EDGE ( 'NONE', *, *, #317, .F. ) ;
#127 = PRODUCT_RELATED_PRODUCT_CATEGORY ( 'detail', '', ( #288 ) ) ;
#128 = CARTESIAN_POINT ( 'NONE',  ( 0.000000000000000000, 0.000000000000000000, 5.499999999999949374 ) ) ;
#129 = VERTEX_POINT ( 'NONE', #321 ) ;
#130 = ADVANCED_BREP_SHAPE_REPRESENTATION ( 'ce5b', ( #178, #25 ), #303 ) ;
#131 = LOCAL_TIME ( 17, 29, 46.00000000000000000, #282 ) ;
#132 = AXIS2_PLACEMENT_3D ( 'NONE', #350, #320, #292 ) ;
#133 = DIRECTION ( 'NONE',  ( 1.000000000000000000, 0.000000000000000000, 0.000000000000000000 ) ) ;
#134 = CALENDAR_DATE ( 2022, 8, 7 ) ;
#135 = LOCAL_TIME ( 17, 29, 46.00000000000000000, #68 ) ;
#136 = PERSON ( 'NEURÈENÝ', 'NEURÈENÝ', 'NEURÈENÝ', ('NEURÈENÝ'), ('NEURÈENÝ'), ('NEURÈENÝ') ) ;
#137 = CARTESIAN_POINT ( 'NONE',  ( -4.000000000000000000, 0.000000000000000000, 655.0000000000000000 ) ) ;
#138 = CARTESIAN_POINT ( 'NONE',  ( 0.000000000000000000, 0.000000000000000000, 5.000000000000000000 ) ) ;
#139 = EDGE_CURVE ( 'NONE', #346, #318, #308, .T. ) ;
#140 = ORIENTED_EDGE ( 'NONE', *, *, #306, .F. ) ;
#141 = CIRCLE ( 'NONE', #351, 2.000000000000000000 ) ;
#142 = CC_DESIGN_APPROVAL ( #160, ( #315 ) ) ;
#143 = ORIENTED_EDGE ( 'NONE', *, *, #317, .T. ) ;
#144 = ADVANCED_FACE ( 'NONE', ( #189, #52 ), #85, .T. ) ;
#145 = VERTEX_POINT ( 'NONE', #24 ) ;
#146 = EDGE_CURVE ( 'NONE', #180, #299, #59, .T. ) ;
#147 = AXIS2_PLACEMENT_3D ( 'NONE', #217, #322, #273 ) ;
#148 = DIRECTION ( 'NONE',  ( -1.000000000000000000, 0.000000000000000000, 0.000000000000000000 ) ) ;
#149 = VECTOR ( 'NONE', #91, 1000.000000000000000 ) ;
#150 = CC_DESIGN_APPROVAL ( #237, ( #184 ) ) ;
#151 = CARTESIAN_POINT ( 'NONE',  ( 0.000000000000000000, 0.000000000000000000, 655.0000000000000000 ) ) ;
#152 = CARTESIAN_POINT ( 'NONE',  ( 0.000000000000000000, 0.000000000000000000, 655.0000000000000000 ) ) ;
#153 = CARTESIAN_POINT ( 'NONE',  ( 7.000000000000000000, 8.572527594031473190E-16, 5.000000000000000000 ) ) ;
#154 = FACE_BOUND ( 'NONE', #109, .T. ) ;
#155 = VECTOR ( 'NONE', #242, 1000.000000000000000 ) ;
#156 = APPLICATION_PROTOCOL_DEFINITION ( 'international standard', 'config_control_design', 1994, #69 ) ;
#157 = FACE_OUTER_BOUND ( 'NONE', #212, .T. ) ;
#158 = CARTESIAN_POINT ( 'NONE',  ( 0.000000000000000000, 0.000000000000000000, 5.000000000000000000 ) ) ;
#159 = LINE ( 'NONE', #246, #183 ) ;
#160 = APPROVAL ( #305, 'NEURÈENÝ' ) ;
#161 = CARTESIAN_POINT ( 'NONE',  ( 4.000000000000000000, 4.898587196589412829E-16, 655.0000000000000000 ) ) ;
#162 = EDGE_LOOP ( 'NONE', ( #181, #81 ) ) ;
#163 = LINE ( 'NONE', #56, #149 ) ;
#164 = CLOSED_SHELL ( 'NONE', ( #170, #277, #325, #210, #254, #89, #234, #26, #144, #16, #53 ) ) ;
#165 = APPROVAL_PERSON_ORGANIZATION ( #229, #237, #330 ) ;
#166 = PERSON_AND_ORGANIZATION ( #136, #278 ) ;
#167 = EDGE_CURVE ( 'NONE', #249, #226, #141, .T. ) ;
#168 = CALENDAR_DATE ( 2022, 8, 7 ) ;
#169 = CC_DESIGN_PERSON_AND_ORGANIZATION_ASSIGNMENT ( #336, #340, ( #315 ) ) ;
#170 = ADVANCED_FACE ( 'NONE', ( #157 ), #245, .F. ) ;
#171 = CC_DESIGN_DATE_AND_TIME_ASSIGNMENT ( #15, #20, ( #293 ) ) ;
#172 = CYLINDRICAL_SURFACE ( 'NONE', #11, 7.000000000000000000 ) ;
#173 = ORIENTED_EDGE ( 'NONE', *, *, #377, .F. ) ;
#174 = ORIENTED_EDGE ( 'NONE', *, *, #367, .F. ) ;
#175 = APPROVAL_DATE_TIME ( #65, #237 ) ;
#176 = CC_DESIGN_SECURITY_CLASSIFICATION ( #293, ( #184 ) ) ;
#177 = LINE ( 'NONE', #137, #76 ) ;
#178 = MANIFOLD_SOLID_BREP ( 'Odebrat vysunutím3', #164 ) ;
#179 = PRODUCT_DEFINITION_SHAPE ( 'NONE', 'NONE',  #315 ) ;
#180 = VERTEX_POINT ( 'NONE', #70 ) ;
#181 = ORIENTED_EDGE ( 'NONE', *, *, #18, .F. ) ;
#182 = APPROVAL_DATE_TIME ( #240, #355 ) ;
#183 = VECTOR ( 'NONE', #93, 1000.000000000000000 ) ;
#184 = PRODUCT_DEFINITION_FORMATION_WITH_SPECIFIED_SOURCE ( 'LIBOVOLNÝ', '', #288, .NOT_KNOWN. ) ;
#185 = DIRECTION ( 'NONE',  ( 1.000000000000000000, 0.000000000000000000, 0.000000000000000000 ) ) ;
#186 = CARTESIAN_POINT ( 'NONE',  ( 0.000000000000000000, 0.000000000000000000, 655.0000000000000000 ) ) ;
#187 = DIRECTION ( 'NONE',  ( -0.000000000000000000, -0.000000000000000000, -1.000000000000000000 ) ) ;
#188 = DIRECTION ( 'NONE',  ( 1.000000000000000000, 0.000000000000000000, -0.000000000000000000 ) ) ;
#189 = FACE_BOUND ( 'NONE', #261, .T. ) ;
#190 = DIRECTION ( 'NONE',  ( -1.000000000000000000, 0.000000000000000000, 0.000000000000000000 ) ) ;
#191 = EDGE_CURVE ( 'NONE', #346, #335, #199, .T. ) ;
#192 = CARTESIAN_POINT ( 'NONE',  ( 7.000000000000000000, 8.572527594031473190E-16, 0.000000000000000000 ) ) ;
#193 = DIRECTION ( 'NONE',  ( -0.000000000000000000, -0.000000000000000000, -1.000000000000000000 ) ) ;
#194 = EDGE_CURVE ( 'NONE', #372, #290, #275, .T. ) ;
#195 = ORIENTED_EDGE ( 'NONE', *, *, #306, .T. ) ;
#196 = CARTESIAN_POINT ( 'NONE',  ( 4.500000000000000888, 0.000000000000000000, 4.999999999999975131 ) ) ;
#197 = CARTESIAN_POINT ( 'NONE',  ( 0.000000000000000000, 0.000000000000000000, 5.000000000000000000 ) ) ;
#198 = PERSON_AND_ORGANIZATION ( #136, #278 ) ;
#199 = CIRCLE ( 'NONE', #356, 4.000000000000000000 ) ;
#200 = DIRECTION ( 'NONE',  ( -0.000000000000000000, -0.000000000000000000, -1.000000000000000000 ) ) ;
#201 = PERSON_AND_ORGANIZATION_ROLE ( 'classification_officer' ) ;
#202 = DIRECTION ( 'NONE',  ( 0.000000000000000000, 0.000000000000000000, 1.000000000000000000 ) ) ;
#203 = ORIENTED_EDGE ( 'NONE', *, *, #139, .T. ) ;
#204 = CARTESIAN_POINT ( 'NONE',  ( 0.000000000000000000, 0.000000000000000000, 5.499999999999949374 ) ) ;
#205 = AXIS2_PLACEMENT_3D ( 'NONE', #33, #222, #248 ) ;
#206 = DIRECTION ( 'NONE',  ( 1.000000000000000000, 0.000000000000000000, 0.000000000000000000 ) ) ;
#207 = FACE_OUTER_BOUND ( 'NONE', #82, .T. ) ;
#208 = ORIENTED_EDGE ( 'NONE', *, *, #194, .T. ) ;
#209 = APPROVAL_ROLE ( '' ) ;
#210 = ADVANCED_FACE ( 'NONE', ( #297 ), #172, .T. ) ;
#211 = VERTEX_POINT ( 'NONE', #161 ) ;
#212 = EDGE_LOOP ( 'NONE', ( #19, #286, #233, #239 ) ) ;
#213 = DIRECTION ( 'NONE',  ( -1.000000000000000000, 0.000000000000000000, 0.000000000000000000 ) ) ;
#214 = EDGE_CURVE ( 'NONE', #249, #180, #124, .T. ) ;
#215 = TOROIDAL_SURFACE ( 'NONE', #271, 4.500000000000000888, 0.5000000000000000000 ) ;
#216 = DIRECTION ( 'NONE',  ( 1.000000000000000000, 0.000000000000000000, 0.000000000000000000 ) ) ;
#217 = CARTESIAN_POINT ( 'NONE',  ( 0.000000000000000000, 0.000000000000000000, 655.0000000000000000 ) ) ;
#218 = DIRECTION ( 'NONE',  ( 0.000000000000000000, 0.000000000000000000, 1.000000000000000000 ) ) ;
#219 = EDGE_CURVE ( 'NONE', #312, #290, #375, .T. ) ;
#220 = AXIS2_PLACEMENT_3D ( 'NONE', #300, #331, #5 ) ;
#221 = CARTESIAN_POINT ( 'NONE',  ( -7.000000000000000000, 0.000000000000000000, 0.000000000000000000 ) ) ;
#222 = DIRECTION ( 'NONE',  ( 0.000000000000000000, 0.000000000000000000, 1.000000000000000000 ) ) ;
#223 = ORIENTED_EDGE ( 'NONE', *, *, #167, .T. ) ;
#224 = APPROVAL_STATUS ( 'not_yet_approved' ) ;
#225 = FACE_OUTER_BOUND ( 'NONE', #259, .T. ) ;
#226 = VERTEX_POINT ( 'NONE', #8 ) ;
#227 = CYLINDRICAL_SURFACE ( 'NONE', #228, 4.000000000000000000 ) ;
#228 = AXIS2_PLACEMENT_3D ( 'NONE', #27, #316, #148 ) ;
#229 = PERSON_AND_ORGANIZATION ( #136, #278 ) ;
#230 = DIRECTION ( 'NONE',  ( 0.000000000000000000, 0.000000000000000000, 1.000000000000000000 ) ) ;
#231 = DATE_AND_TIME ( #168, #353 ) ;
#232 = PERSON_AND_ORGANIZATION ( #136, #278 ) ;
#233 = ORIENTED_EDGE ( 'NONE', *, *, #146, .T. ) ;
#234 = ADVANCED_FACE ( 'NONE', ( #66, #121 ), #103, .F. ) ;
#235 = ORIENTED_EDGE ( 'NONE', *, *, #191, .T. ) ;
#236 = PERSON_AND_ORGANIZATION ( #136, #278 ) ;
#237 = APPROVAL ( #224, 'NEURÈENÝ' ) ;
#238 = EDGE_LOOP ( 'NONE', ( #143, #373 ) ) ;
#239 = ORIENTED_EDGE ( 'NONE', *, *, #41, .F. ) ;
#240 = DATE_AND_TIME ( #50, #21 ) ;
#241 = DIRECTION ( 'NONE',  ( 0.000000000000000000, 0.000000000000000000, 1.000000000000000000 ) ) ;
#242 = DIRECTION ( 'NONE',  ( 0.000000000000000000, 0.000000000000000000, -1.000000000000000000 ) ) ;
#243 =( NAMED_UNIT ( * ) PLANE_ANGLE_UNIT ( ) SI_UNIT ( $, .RADIAN. ) );
#244 = FACE_OUTER_BOUND ( 'NONE', #122, .T. ) ;
#245 = CYLINDRICAL_SURFACE ( 'NONE', #147, 2.000000000000000000 ) ;
#246 = CARTESIAN_POINT ( 'NONE',  ( 4.000000000000000000, 4.898587196589412829E-16, 655.0000000000000000 ) ) ;
#247 = ORIENTED_EDGE ( 'NONE', *, *, #139, .F. ) ;
#248 = DIRECTION ( 'NONE',  ( 1.000000000000000000, 0.000000000000000000, -0.000000000000000000 ) ) ;
#249 = VERTEX_POINT ( 'NONE', #328 ) ;
#250 = PERSON_AND_ORGANIZATION ( #136, #278 ) ;
#251 = DIRECTION ( 'NONE',  ( 0.000000000000000000, 0.000000000000000000, 1.000000000000000000 ) ) ;
#252 = ORIENTED_EDGE ( 'NONE', *, *, #117, .F. ) ;
#253 = DIRECTION ( 'NONE',  ( -0.000000000000000000, -0.000000000000000000, -1.000000000000000000 ) ) ;
#254 = ADVANCED_FACE ( 'NONE', ( #323 ), #304, .T. ) ;
#255 = EDGE_LOOP ( 'NONE', ( #279, #252 ) ) ;
#256 = DIRECTION ( 'NONE',  ( 1.000000000000000000, 0.000000000000000000, 0.000000000000000000 ) ) ;
#257 = EDGE_LOOP ( 'NONE', ( #80, #195, #326, #6 ) ) ;
#258 = AXIS2_PLACEMENT_3D ( 'NONE', #32, #120, #118 ) ;
#259 = EDGE_LOOP ( 'NONE', ( #43, #203, #291, #107 ) ) ;
#260 = CIRCLE ( 'NONE', #314, 7.000000000000000000 ) ;
#261 = EDGE_LOOP ( 'NONE', ( #361, #49 ) ) ;
#262 = ORIENTED_EDGE ( 'NONE', *, *, #345, .T. ) ;
#263 = CARTESIAN_POINT ( 'NONE',  ( 0.000000000000000000, 0.000000000000000000, 0.000000000000000000 ) ) ;
#264 = VECTOR ( 'NONE', #63, 1000.000000000000000 ) ;
#265 = CC_DESIGN_PERSON_AND_ORGANIZATION_ASSIGNMENT ( #250, #201, ( #293 ) ) ;
#266 = CARTESIAN_POINT ( 'NONE',  ( 0.000000000000000000, 0.000000000000000000, 655.0000000000000000 ) ) ;
#267 = CARTESIAN_POINT ( 'NONE',  ( 0.000000000000000000, 0.000000000000000000, 0.000000000000000000 ) ) ;
#268 = CARTESIAN_POINT ( 'NONE',  ( 0.000000000000000000, 0.000000000000000000, 655.0000000000000000 ) ) ;
#269 =( LENGTH_UNIT ( ) NAMED_UNIT ( * ) SI_UNIT ( .MILLI., .METRE. ) );
#270 = DIRECTION ( 'NONE',  ( 0.000000000000000000, 0.000000000000000000, 1.000000000000000000 ) ) ;
#271 = AXIS2_PLACEMENT_3D ( 'NONE', #204, #310, #40 ) ;
#272 = CARTESIAN_POINT ( 'NONE',  ( 0.000000000000000000, 0.000000000000000000, 5.000000000000000000 ) ) ;
#273 = DIRECTION ( 'NONE',  ( -1.000000000000000000, 0.000000000000000000, 0.000000000000000000 ) ) ;
#274 = CARTESIAN_POINT ( 'NONE',  ( 7.000000000000000000, 8.572527594031473190E-16, 5.000000000000000000 ) ) ;
#275 = LINE ( 'NONE', #274, #92 ) ;
#276 = DIRECTION ( 'NONE',  ( 0.000000000000000000, 0.000000000000000000, 1.000000000000000000 ) ) ;
#277 = ADVANCED_FACE ( 'NONE', ( #225 ), #61, .F. ) ;
#278 = ORGANIZATION ( 'NEURÈENÝ', 'NEURÈENÝ', '' ) ;
#279 = ORIENTED_EDGE ( 'NONE', *, *, #219, .F. ) ;
#280 = PERSON_AND_ORGANIZATION_ROLE ( 'design_supplier' ) ;
#281 = CARTESIAN_POINT ( 'NONE',  ( 0.000000000000000000, 0.000000000000000000, 5.000000000000000000 ) ) ;
#282 = COORDINATED_UNIVERSAL_TIME_OFFSET ( 1, 0, .AHEAD. ) ;
#283 = DIRECTION ( 'NONE',  ( 0.000000000000000000, 0.000000000000000000, 1.000000000000000000 ) ) ;
#284 = DIRECTION ( 'NONE',  ( 0.000000000000000000, 0.000000000000000000, 1.000000000000000000 ) ) ;
#285 = AXIS2_PLACEMENT_3D ( 'NONE', #268, #319, #190 ) ;
#286 = ORIENTED_EDGE ( 'NONE', *, *, #214, .T. ) ;
#287 = ORIENTED_EDGE ( 'NONE', *, *, #13, .F. ) ;
#288 = PRODUCT ( 'ce5b', 'ce5b', '', ( #366 ) ) ;
#289 = ORIENTED_EDGE ( 'NONE', *, *, #45, .T. ) ;
#290 = VERTEX_POINT ( 'NONE', #192 ) ;
#291 = ORIENTED_EDGE ( 'NONE', *, *, #45, .F. ) ;
#292 = DIRECTION ( 'NONE',  ( 1.000000000000000000, 0.000000000000000000, 0.000000000000000000 ) ) ;
#293 = SECURITY_CLASSIFICATION ( '', '', #4 ) ;
#294 = DIRECTION ( 'NONE',  ( 1.000000000000000000, 0.000000000000000000, 0.000000000000000000 ) ) ;
#295 = DIRECTION ( 'NONE',  ( 0.000000000000000000, -1.000000000000000000, 0.000000000000000000 ) ) ;
#296 = CIRCLE ( 'NONE', #258, 4.000000000000000000 ) ;
#297 = FACE_OUTER_BOUND ( 'NONE', #344, .T. ) ;
#298 = CARTESIAN_POINT ( 'NONE',  ( -2.000000000000000000, 0.000000000000000000, 0.000000000000000000 ) ) ;
#299 = VERTEX_POINT ( 'NONE', #298 ) ;
#300 = CARTESIAN_POINT ( 'NONE',  ( 0.000000000000000000, 0.000000000000000000, 5.499999999999949374 ) ) ;
#301 = AXIS2_PLACEMENT_3D ( 'NONE', #28, #57, #378 ) ;
#302 = PERSON_AND_ORGANIZATION_ROLE ( 'creator' ) ;
#303 =( GEOMETRIC_REPRESENTATION_CONTEXT ( 3 ) GLOBAL_UNCERTAINTY_ASSIGNED_CONTEXT ( ( #104 ) ) GLOBAL_UNIT_ASSIGNED_CONTEXT ( ( #269, #243, #354 ) ) REPRESENTATION_CONTEXT ( 'NONE', 'WORKASPACE' ) );
#304 = CYLINDRICAL_SURFACE ( 'NONE', #108, 7.000000000000000000 ) ;
#305 = APPROVAL_STATUS ( 'not_yet_approved' ) ;
#306 = EDGE_CURVE ( 'NONE', #211, #335, #159, .T. ) ;
#307 = CARTESIAN_POINT ( 'NONE',  ( 0.000000000000000000, 0.000000000000000000, 0.000000000000000000 ) ) ;
#308 = CIRCLE ( 'NONE', #301, 0.5000000000000004441 ) ;
#309 = AXIS2_PLACEMENT_3D ( 'NONE', #266, #338, #256 ) ;
#310 = DIRECTION ( 'NONE',  ( 0.000000000000000000, 0.000000000000000000, 1.000000000000000000 ) ) ;
#311 = CYLINDRICAL_SURFACE ( 'NONE', #362, 4.000000000000000000 ) ;
#312 = VERTEX_POINT ( 'NONE', #221 ) ;
#313 = FACE_OUTER_BOUND ( 'NONE', #75, .T. ) ;
#314 = AXIS2_PLACEMENT_3D ( 'NONE', #158, #218, #216 ) ;
#315 = PRODUCT_DEFINITION ( 'NEZNÁMÝ', '', #184, #77 ) ;
#316 = DIRECTION ( 'NONE',  ( -0.000000000000000000, -0.000000000000000000, -1.000000000000000000 ) ) ;
#317 = EDGE_CURVE ( 'NONE', #145, #211, #39, .T. ) ;
#318 = VERTEX_POINT ( 'NONE', #360 ) ;
#319 = DIRECTION ( 'NONE',  ( 0.000000000000000000, 0.000000000000000000, -1.000000000000000000 ) ) ;
#320 = DIRECTION ( 'NONE',  ( -0.000000000000000000, -0.000000000000000000, -1.000000000000000000 ) ) ;
#321 = CARTESIAN_POINT ( 'NONE',  ( -7.000000000000000000, 0.000000000000000000, 5.000000000000000000 ) ) ;
#322 = DIRECTION ( 'NONE',  ( 0.000000000000000000, 0.000000000000000000, -1.000000000000000000 ) ) ;
#323 = FACE_OUTER_BOUND ( 'NONE', #22, .T. ) ;
#324 = CC_DESIGN_DATE_AND_TIME_ASSIGNMENT ( #231, #101, ( #315 ) ) ;
#325 = ADVANCED_FACE ( 'NONE', ( #99 ), #227, .T. ) ;
#326 = ORIENTED_EDGE ( 'NONE', *, *, #83, .T. ) ;
#327 = CC_DESIGN_APPROVAL ( #355, ( #293 ) ) ;
#328 = CARTESIAN_POINT ( 'NONE',  ( 2.000000000000000000, 2.449293598294706414E-16, 655.0000000000000000 ) ) ;
#329 = ORIENTED_EDGE ( 'NONE', *, *, #377, .T. ) ;
#330 = APPROVAL_ROLE ( '' ) ;
#331 = DIRECTION ( 'NONE',  ( 0.000000000000000000, 0.000000000000000000, 1.000000000000000000 ) ) ;
#332 = EDGE_CURVE ( 'NONE', #211, #145, #381, .T. ) ;
#333 = ORIENTED_EDGE ( 'NONE', *, *, #214, .F. ) ;
#334 = EDGE_CURVE ( 'NONE', #226, #249, #94, .T. ) ;
#335 = VERTEX_POINT ( 'NONE', #368 ) ;
#336 = PERSON_AND_ORGANIZATION ( #136, #278 ) ;
#337 = APPROVAL_DATE_TIME ( #106, #160 ) ;
#338 = DIRECTION ( 'NONE',  ( 0.000000000000000000, 0.000000000000000000, 1.000000000000000000 ) ) ;
#339 = CARTESIAN_POINT ( 'NONE',  ( 0.000000000000000000, 0.000000000000000000, 0.000000000000000000 ) ) ;
#340 = PERSON_AND_ORGANIZATION_ROLE ( 'creator' ) ;
#341 = APPLICATION_CONTEXT ( 'configuration controlled 3d designs of mechanical parts and assemblies' ) ;
#342 = VERTEX_POINT ( 'NONE', #196 ) ;
#343 = APPROVAL_STATUS ( 'not_yet_approved' ) ;
#344 = EDGE_LOOP ( 'NONE', ( #173, #208, #111, #105 ) ) ;
#345 = EDGE_CURVE ( 'NONE', #129, #312, #163, .T. ) ;
#346 = VERTEX_POINT ( 'NONE', #58 ) ;
#347 = AXIS2_PLACEMENT_3D ( 'NONE', #352, #376, #87 ) ;
#348 = ORIENTED_EDGE ( 'NONE', *, *, #18, .T. ) ;
#349 = CARTESIAN_POINT ( 'NONE',  ( -2.000000000000000000, 0.000000000000000000, 655.0000000000000000 ) ) ;
#350 = CARTESIAN_POINT ( 'NONE',  ( 0.000000000000000000, 0.000000000000000000, 5.000000000000000000 ) ) ;
#351 = AXIS2_PLACEMENT_3D ( 'NONE', #152, #380, #119 ) ;
#352 = CARTESIAN_POINT ( 'NONE',  ( 0.000000000000000000, 0.000000000000000000, 5.000000000000000000 ) ) ;
#353 = LOCAL_TIME ( 17, 29, 46.00000000000000000, #98 ) ;
#354 =( NAMED_UNIT ( * ) SI_UNIT ( $, .STERADIAN. ) SOLID_ANGLE_UNIT ( ) );
#355 = APPROVAL ( #343, 'NEURÈENÝ' ) ;
#356 = AXIS2_PLACEMENT_3D ( 'NONE', #128, #202, #133 ) ;
#357 = ORIENTED_EDGE ( 'NONE', *, *, #367, .T. ) ;
#358 = DIRECTION ( 'NONE',  ( 1.000000000000000000, 0.000000000000000000, 0.000000000000000000 ) ) ;
#359 = DIRECTION ( 'NONE',  ( -1.000000000000000000, 0.000000000000000000, 0.000000000000000000 ) ) ;
#360 = CARTESIAN_POINT ( 'NONE',  ( -4.500000000000000888, 5.510910596163088569E-16, 4.999999999999975131 ) ) ;
#361 = ORIENTED_EDGE ( 'NONE', *, *, #334, .F. ) ;
#362 = AXIS2_PLACEMENT_3D ( 'NONE', #374, #187, #213 ) ;
#363 = AXIS2_PLACEMENT_3D ( 'NONE', #186, #230, #73 ) ;
#364 = CARTESIAN_POINT ( 'NONE',  ( 2.000000000000000000, 2.449293598294706414E-16, 655.0000000000000000 ) ) ;
#365 = DIRECTION ( 'NONE',  ( -0.000000000000000000, -0.000000000000000000, -1.000000000000000000 ) ) ;
#366 = MECHANICAL_CONTEXT ( 'NONE', #69, 'mechanical' ) ;
#367 = EDGE_CURVE ( 'NONE', #129, #372, #48, .T. ) ;
#368 = CARTESIAN_POINT ( 'NONE',  ( 4.000000000000000000, 4.898587196589412829E-16, 5.499999999999949374 ) ) ;
#369 = DIRECTION ( 'NONE',  ( -0.000000000000000000, -0.000000000000000000, -1.000000000000000000 ) ) ;
#370 = ORIENTED_EDGE ( 'NONE', *, *, #194, .F. ) ;
#371 = COORDINATED_UNIVERSAL_TIME_OFFSET ( 1, 0, .AHEAD. ) ;
#372 = VERTEX_POINT ( 'NONE', #153 ) ;
#373 = ORIENTED_EDGE ( 'NONE', *, *, #332, .T. ) ;
#374 = CARTESIAN_POINT ( 'NONE',  ( 0.000000000000000000, 0.000000000000000000, 655.0000000000000000 ) ) ;
#375 = CIRCLE ( 'NONE', #102, 7.000000000000000000 ) ;
#376 = DIRECTION ( 'NONE',  ( 0.000000000000000000, 0.000000000000000000, 1.000000000000000000 ) ) ;
#377 = EDGE_CURVE ( 'NONE', #372, #129, #260, .T. ) ;
#378 = DIRECTION ( 'NONE',  ( -1.000000000000000000, 1.224646799147351482E-16, 0.000000000000000000 ) ) ;
#379 = CIRCLE ( 'NONE', #47, 4.500000000000000888 ) ;
#380 = DIRECTION ( 'NONE',  ( 0.000000000000000000, 0.000000000000000000, 1.000000000000000000 ) ) ;
#381 = CIRCLE ( 'NONE', #363, 4.000000000000000000 ) ;
ENDSEC;
END-ISO-10303-21;
