ISO-10303-21;
HEADER;
FILE_DESCRIPTION (( 'STEP AP203' ),
    '1' );
FILE_NAME ('ec64.STEP',
    '2022-07-08T14:28:03',
    ( '' ),
    ( '' ),
    'SwSTEP 2.0',
    'SolidWorks 2019',
    '' );
FILE_SCHEMA (( 'CONFIG_CONTROL_DESIGN' ));
ENDSEC;

DATA;
#1 = APPROVAL_STATUS ( 'not_yet_approved' ) ;
#2 = CIRCLE ( 'NONE', #105, 6.700000000000001066 ) ;
#3 = EDGE_LOOP ( 'NONE', ( #189, #231 ) ) ;
#4 = ADVANCED_FACE ( 'NONE', ( #79 ), #345, .F. ) ;
#5 = CIRCLE ( 'NONE', #305, 6.000000000000000888 ) ;
#6 = LINE ( 'NONE', #156, #244 ) ;
#7 = ORIENTED_EDGE ( 'NONE', *, *, #169, .F. ) ;
#8 = ORIENTED_EDGE ( 'NONE', *, *, #227, .T. ) ;
#9 = FACE_OUTER_BOUND ( 'NONE', #171, .T. ) ;
#10 = APPROVAL_DATE_TIME ( #233, #170 ) ;
#11 = APPROVAL ( #334, 'NEURÈENÝ' ) ;
#12 = CIRCLE ( 'NONE', #149, 4.500000000000000000 ) ;
#13 = DATE_AND_TIME ( #16, #104 ) ;
#14 = CARTESIAN_POINT ( 'NONE',  ( 4.500000000000000000, 5.510910596163088569E-16, 132.0000000000000000 ) ) ;
#15 = EDGE_CURVE ( 'NONE', #75, #249, #339, .T. ) ;
#16 = CALENDAR_DATE ( 2022, 8, 7 ) ;
#17 = CARTESIAN_POINT ( 'NONE',  ( 6.700000000000001066, 0.000000000000000000, 6.999999999999999112 ) ) ;
#18 = DIRECTION ( 'NONE',  ( 0.000000000000000000, -1.000000000000000000, 0.000000000000000000 ) ) ;
#19 = CIRCLE ( 'NONE', #381, 4.500000000000000000 ) ;
#20 = DIRECTION ( 'NONE',  ( -0.000000000000000000, -0.000000000000000000, -1.000000000000000000 ) ) ;
#21 = CARTESIAN_POINT ( 'NONE',  ( 0.000000000000000000, 0.000000000000000000, 0.000000000000000000 ) ) ;
#22 = AXIS2_PLACEMENT_3D ( 'NONE', #166, #110, #143 ) ;
#23 = DIRECTION ( 'NONE',  ( 1.000000000000000000, 0.000000000000000000, 0.000000000000000000 ) ) ;
#24 = FACE_OUTER_BOUND ( 'NONE', #303, .T. ) ;
#25 = APPROVAL ( #1, 'NEURÈENÝ' ) ;
#26 = DIRECTION ( 'NONE',  ( -0.000000000000000000, -0.000000000000000000, -1.000000000000000000 ) ) ;
#27 = VERTEX_POINT ( 'NONE', #164 ) ;
#28 = DIRECTION ( 'NONE',  ( 0.000000000000000000, 0.000000000000000000, 1.000000000000000000 ) ) ;
#29 = AXIS2_PLACEMENT_3D ( 'NONE', #377, #151, #121 ) ;
#30 = DIRECTION ( 'NONE',  ( 0.000000000000000000, 0.000000000000000000, 1.000000000000000000 ) ) ;
#31 = VERTEX_POINT ( 'NONE', #136 ) ;
#32 = AXIS2_PLACEMENT_3D ( 'NONE', #178, #81, #50 ) ;
#33 = EDGE_LOOP ( 'NONE', ( #219, #344, #160, #48 ) ) ;
#34 = MECHANICAL_CONTEXT ( 'NONE', #315, 'mechanical' ) ;
#35 = ORIENTED_EDGE ( 'NONE', *, *, #169, .T. ) ;
#36 = ADVANCED_BREP_SHAPE_REPRESENTATION ( 'ec64', ( #67, #96 ), #316 ) ;
#37 = CIRCLE ( 'NONE', #161, 10.00000000000000000 ) ;
#38 = VERTEX_POINT ( 'NONE', #17 ) ;
#39 = CC_DESIGN_PERSON_AND_ORGANIZATION_ASSIGNMENT ( #111, #304, ( #287 ) ) ;
#40 = PERSON_AND_ORGANIZATION_ROLE ( 'classification_officer' ) ;
#41 = ORIENTED_EDGE ( 'NONE', *, *, #267, .F. ) ;
#42 = SHAPE_DEFINITION_REPRESENTATION ( #380, #36 ) ;
#43 = PERSON_AND_ORGANIZATION ( #243, #261 ) ;
#44 = APPROVAL_PERSON_ORGANIZATION ( #155, #25, #122 ) ;
#45 = DATE_TIME_ROLE ( 'creation_date' ) ;
#46 = CARTESIAN_POINT ( 'NONE',  ( 0.000000000000000000, 0.000000000000000000, 7.000000000000000000 ) ) ;
#47 = VERTEX_POINT ( 'NONE', #359 ) ;
#48 = ORIENTED_EDGE ( 'NONE', *, *, #329, .T. ) ;
#49 = PRODUCT_RELATED_PRODUCT_CATEGORY ( 'detail', '', ( #210 ) ) ;
#50 = DIRECTION ( 'NONE',  ( 1.000000000000000000, 0.000000000000000000, 0.000000000000000000 ) ) ;
#51 = CARTESIAN_POINT ( 'NONE',  ( 6.000000000000000888, 7.347880794884120722E-16, 132.0000000000000000 ) ) ;
#52 = CIRCLE ( 'NONE', #264, 6.700000000000001066 ) ;
#53 = CYLINDRICAL_SURFACE ( 'NONE', #60, 4.500000000000000000 ) ;
#54 = EDGE_CURVE ( 'NONE', #366, #38, #184, .T. ) ;
#55 = CC_DESIGN_APPROVAL ( #25, ( #287 ) ) ;
#56 = CARTESIAN_POINT ( 'NONE',  ( 0.000000000000000000, 0.000000000000000000, 7.000000000000000000 ) ) ;
#57 = FACE_BOUND ( 'NONE', #271, .T. ) ;
#58 = DIRECTION ( 'NONE',  ( -0.000000000000000000, -0.000000000000000000, -1.000000000000000000 ) ) ;
#59 = ORIENTED_EDGE ( 'NONE', *, *, #376, .F. ) ;
#60 = AXIS2_PLACEMENT_3D ( 'NONE', #200, #118, #153 ) ;
#61 = CARTESIAN_POINT ( 'NONE',  ( -6.000000000000000888, 0.000000000000000000, 7.699999999999998401 ) ) ;
#62 = ORIENTED_EDGE ( 'NONE', *, *, #206, .T. ) ;
#63 = APPROVAL_PERSON_ORGANIZATION ( #43, #11, #224 ) ;
#64 = DIRECTION ( 'NONE',  ( 0.000000000000000000, 0.000000000000000000, 1.000000000000000000 ) ) ;
#65 = EDGE_LOOP ( 'NONE', ( #41, #126, #35, #89 ) ) ;
#66 = CYLINDRICAL_SURFACE ( 'NONE', #112, 6.000000000000000888 ) ;
#67 = MANIFOLD_SOLID_BREP ( 'Odebrat vysunutím3', #275 ) ;
#68 = ORIENTED_EDGE ( 'NONE', *, *, #84, .T. ) ;
#69 = EDGE_CURVE ( 'NONE', #38, #31, #52, .T. ) ;
#70 = APPROVAL_DATE_TIME ( #139, #11 ) ;
#71 = CIRCLE ( 'NONE', #223, 6.000000000000000888 ) ;
#72 = APPROVAL_DATE_TIME ( #257, #25 ) ;
#73 = DIRECTION ( 'NONE',  ( 0.000000000000000000, 0.000000000000000000, -1.000000000000000000 ) ) ;
#74 = ADVANCED_FACE ( 'NONE', ( #336 ), #258, .F. ) ;
#75 = VERTEX_POINT ( 'NONE', #283 ) ;
#76 = PERSON_AND_ORGANIZATION ( #243, #261 ) ;
#77 = DIRECTION ( 'NONE',  ( 0.000000000000000000, 0.000000000000000000, 1.000000000000000000 ) ) ;
#78 = DIRECTION ( 'NONE',  ( 1.000000000000000000, 0.000000000000000000, 0.000000000000000000 ) ) ;
#79 = FACE_OUTER_BOUND ( 'NONE', #321, .T. ) ;
#80 = CC_DESIGN_DATE_AND_TIME_ASSIGNMENT ( #13, #191, ( #150 ) ) ;
#81 = DIRECTION ( 'NONE',  ( 0.000000000000000000, 0.000000000000000000, 1.000000000000000000 ) ) ;
#82 = AXIS2_PLACEMENT_3D ( 'NONE', #265, #292, #175 ) ;
#83 = CARTESIAN_POINT ( 'NONE',  ( -10.00000000000000000, 0.000000000000000000, 0.000000000000000000 ) ) ;
#84 = EDGE_CURVE ( 'NONE', #366, #327, #5, .T. ) ;
#85 = DIRECTION ( 'NONE',  ( -0.000000000000000000, -0.000000000000000000, -1.000000000000000000 ) ) ;
#86 = FACE_OUTER_BOUND ( 'NONE', #183, .T. ) ;
#87 = LOCAL_TIME ( 16, 28, 3.000000000000000000, #163 ) ;
#88 = CARTESIAN_POINT ( 'NONE',  ( 0.000000000000000000, 0.000000000000000000, 132.0000000000000000 ) ) ;
#89 = ORIENTED_EDGE ( 'NONE', *, *, #15, .F. ) ;
#90 = CARTESIAN_POINT ( 'NONE',  ( 0.000000000000000000, 0.000000000000000000, 132.0000000000000000 ) ) ;
#91 = ORIENTED_EDGE ( 'NONE', *, *, #141, .F. ) ;
#92 = CARTESIAN_POINT ( 'NONE',  ( 0.000000000000000000, 0.000000000000000000, 0.000000000000000000 ) ) ;
#93 = VERTEX_POINT ( 'NONE', #14 ) ;
#94 = AXIS2_PLACEMENT_3D ( 'NONE', #56, #85, #204 ) ;
#95 = EDGE_LOOP ( 'NONE', ( #347, #330, #247, #301 ) ) ;
#96 = AXIS2_PLACEMENT_3D ( 'NONE', #294, #216, #328 ) ;
#97 = CC_DESIGN_PERSON_AND_ORGANIZATION_ASSIGNMENT ( #220, #332, ( #210 ) ) ;
#98 = ADVANCED_FACE ( 'NONE', ( #234 ), #228, .T. ) ;
#99 = AXIS2_PLACEMENT_3D ( 'NONE', #309, #18, #226 ) ;
#100 = DIRECTION ( 'NONE',  ( 1.000000000000000000, 0.000000000000000000, 0.000000000000000000 ) ) ;
#101 = ORIENTED_EDGE ( 'NONE', *, *, #376, .T. ) ;
#102 = PERSON_AND_ORGANIZATION ( #243, #261 ) ;
#103 = LINE ( 'NONE', #225, #107 ) ;
#104 = LOCAL_TIME ( 16, 28, 3.000000000000000000, #165 ) ;
#105 = AXIS2_PLACEMENT_3D ( 'NONE', #349, #26, #23 ) ;
#106 = ORIENTED_EDGE ( 'NONE', *, *, #190, .F. ) ;
#107 = VECTOR ( 'NONE', #73, 1000.000000000000000 ) ;
#108 = VECTOR ( 'NONE', #340, 1000.000000000000000 ) ;
#109 = COORDINATED_UNIVERSAL_TIME_OFFSET ( 1, 0, .AHEAD. ) ;
#110 = DIRECTION ( 'NONE',  ( 0.000000000000000000, 0.000000000000000000, -1.000000000000000000 ) ) ;
#111 = PERSON_AND_ORGANIZATION ( #243, #261 ) ;
#112 = AXIS2_PLACEMENT_3D ( 'NONE', #90, #325, #276 ) ;
#113 = DATE_AND_TIME ( #360, #248 ) ;
#114 = DIRECTION ( 'NONE',  ( 0.000000000000000000, 0.000000000000000000, 1.000000000000000000 ) ) ;
#115 = DIRECTION ( 'NONE',  ( 0.000000000000000000, 0.000000000000000000, 1.000000000000000000 ) ) ;
#116 = FACE_OUTER_BOUND ( 'NONE', #65, .T. ) ;
#117 = EDGE_CURVE ( 'NONE', #93, #147, #198, .T. ) ;
#118 = DIRECTION ( 'NONE',  ( 0.000000000000000000, 0.000000000000000000, -1.000000000000000000 ) ) ;
#119 = PLANE ( 'NONE',  #82 ) ;
#120 = VERTEX_POINT ( 'NONE', #172 ) ;
#121 = DIRECTION ( 'NONE',  ( 1.000000000000000000, 0.000000000000000000, -0.000000000000000000 ) ) ;
#122 = APPROVAL_ROLE ( '' ) ;
#123 = CC_DESIGN_PERSON_AND_ORGANIZATION_ASSIGNMENT ( #133, #193, ( #308 ) ) ;
#124 = ORIENTED_EDGE ( 'NONE', *, *, #146, .T. ) ;
#125 =( LENGTH_UNIT ( ) NAMED_UNIT ( * ) SI_UNIT ( .MILLI., .METRE. ) );
#126 = ORIENTED_EDGE ( 'NONE', *, *, #252, .T. ) ;
#127 = CARTESIAN_POINT ( 'NONE',  ( 6.000000000000000888, 7.347880794884120722E-16, 7.699999999999998401 ) ) ;
#128 = ORIENTED_EDGE ( 'NONE', *, *, #236, .F. ) ;
#129 = EDGE_CURVE ( 'NONE', #27, #351, #103, .T. ) ;
#130 = ORIENTED_EDGE ( 'NONE', *, *, #84, .F. ) ;
#131 = DIRECTION ( 'NONE',  ( 1.000000000000000000, 0.000000000000000000, 0.000000000000000000 ) ) ;
#132 = ORIENTED_EDGE ( 'NONE', *, *, #69, .F. ) ;
#133 = PERSON_AND_ORGANIZATION ( #243, #261 ) ;
#134 = ORIENTED_EDGE ( 'NONE', *, *, #54, .T. ) ;
#135 = APPROVAL_STATUS ( 'not_yet_approved' ) ;
#136 = CARTESIAN_POINT ( 'NONE',  ( -6.700000000000001066, 8.205133554287267548E-16, 6.999999999999999112 ) ) ;
#137 = VERTEX_POINT ( 'NONE', #306 ) ;
#138 = VECTOR ( 'NONE', #255, 1000.000000000000000 ) ;
#139 = DATE_AND_TIME ( #230, #354 ) ;
#140 = DIRECTION ( 'NONE',  ( -1.000000000000000000, 0.000000000000000000, 0.000000000000000000 ) ) ;
#141 = EDGE_CURVE ( 'NONE', #147, #351, #319, .T. ) ;
#142 = AXIS2_PLACEMENT_3D ( 'NONE', #300, #30, #131 ) ;
#143 = DIRECTION ( 'NONE',  ( -1.000000000000000000, 0.000000000000000000, 0.000000000000000000 ) ) ;
#144 = DIRECTION ( 'NONE',  ( 1.000000000000000000, 0.000000000000000000, 0.000000000000000000 ) ) ;
#145 = DIRECTION ( 'NONE',  ( 1.000000000000000000, 0.000000000000000000, 0.000000000000000000 ) ) ;
#146 = EDGE_CURVE ( 'NONE', #327, #31, #362, .T. ) ;
#147 = VERTEX_POINT ( 'NONE', #370 ) ;
#148 = CARTESIAN_POINT ( 'NONE',  ( 0.000000000000000000, 0.000000000000000000, 0.000000000000000000 ) ) ;
#149 = AXIS2_PLACEMENT_3D ( 'NONE', #356, #185, #296 ) ;
#150 = SECURITY_CLASSIFICATION ( '', '', #284 ) ;
#151 = DIRECTION ( 'NONE',  ( 0.000000000000000000, 0.000000000000000000, 1.000000000000000000 ) ) ;
#152 = CIRCLE ( 'NONE', #361, 10.00000000000000000 ) ;
#153 = DIRECTION ( 'NONE',  ( -1.000000000000000000, 0.000000000000000000, 0.000000000000000000 ) ) ;
#154 = CC_DESIGN_PERSON_AND_ORGANIZATION_ASSIGNMENT ( #188, #40, ( #150 ) ) ;
#155 = PERSON_AND_ORGANIZATION ( #243, #261 ) ;
#156 = CARTESIAN_POINT ( 'NONE',  ( -6.000000000000000888, 0.000000000000000000, 132.0000000000000000 ) ) ;
#157 =( NAMED_UNIT ( * ) SI_UNIT ( $, .STERADIAN. ) SOLID_ANGLE_UNIT ( ) );
#158 = AXIS2_PLACEMENT_3D ( 'NONE', #192, #281, #269 ) ;
#159 = EDGE_CURVE ( 'NONE', #31, #38, #2, .T. ) ;
#160 = ORIENTED_EDGE ( 'NONE', *, *, #15, .T. ) ;
#161 = AXIS2_PLACEMENT_3D ( 'NONE', #242, #288, #144 ) ;
#162 = ORIENTED_EDGE ( 'NONE', *, *, #159, .F. ) ;
#163 = COORDINATED_UNIVERSAL_TIME_OFFSET ( 1, 0, .AHEAD. ) ;
#164 = CARTESIAN_POINT ( 'NONE',  ( -4.500000000000000000, 0.000000000000000000, 132.0000000000000000 ) ) ;
#165 = COORDINATED_UNIVERSAL_TIME_OFFSET ( 1, 0, .AHEAD. ) ;
#166 = CARTESIAN_POINT ( 'NONE',  ( 0.000000000000000000, 0.000000000000000000, 132.0000000000000000 ) ) ;
#167 = COORDINATED_UNIVERSAL_TIME_OFFSET ( 1, 0, .AHEAD. ) ;
#168 = DIRECTION ( 'NONE',  ( -0.000000000000000000, -0.000000000000000000, -1.000000000000000000 ) ) ;
#169 = EDGE_CURVE ( 'NONE', #137, #249, #152, .T. ) ;
#170 = APPROVAL ( #135, 'NEURÈENÝ' ) ;
#171 = EDGE_LOOP ( 'NONE', ( #375, #130, #134, #162 ) ) ;
#172 = CARTESIAN_POINT ( 'NONE',  ( -6.000000000000000888, 0.000000000000000000, 132.0000000000000000 ) ) ;
#173 = CC_DESIGN_APPROVAL ( #11, ( #150 ) ) ;
#174 = DIRECTION ( 'NONE',  ( 1.000000000000000000, 0.000000000000000000, -0.000000000000000000 ) ) ;
#175 = DIRECTION ( 'NONE',  ( 1.000000000000000000, 0.000000000000000000, -0.000000000000000000 ) ) ;
#176 = FACE_BOUND ( 'NONE', #197, .T. ) ;
#177 = AXIS2_PLACEMENT_3D ( 'NONE', #21, #20, #342 ) ;
#178 = CARTESIAN_POINT ( 'NONE',  ( 0.000000000000000000, 0.000000000000000000, 7.699999999999998401 ) ) ;
#179 = APPLICATION_PROTOCOL_DEFINITION ( 'international standard', 'config_control_design', 1994, #229 ) ;
#180 = ORIENTED_EDGE ( 'NONE', *, *, #312, .T. ) ;
#181 = DIRECTION ( 'NONE',  ( 0.000000000000000000, 0.000000000000000000, 1.000000000000000000 ) ) ;
#182 = CARTESIAN_POINT ( 'NONE',  ( 0.000000000000000000, 0.000000000000000000, 132.0000000000000000 ) ) ;
#183 = EDGE_LOOP ( 'NONE', ( #273, #62 ) ) ;
#184 = CIRCLE ( 'NONE', #99, 0.7000000000000000666 ) ;
#185 = DIRECTION ( 'NONE',  ( 0.000000000000000000, 0.000000000000000000, 1.000000000000000000 ) ) ;
#186 = ORIENTED_EDGE ( 'NONE', *, *, #329, .F. ) ;
#187 = AXIS2_PLACEMENT_3D ( 'NONE', #92, #28, #278 ) ;
#188 = PERSON_AND_ORGANIZATION ( #243, #261 ) ;
#189 = ORIENTED_EDGE ( 'NONE', *, *, #313, .T. ) ;
#190 = EDGE_CURVE ( 'NONE', #327, #366, #202, .T. ) ;
#191 = DATE_TIME_ROLE ( 'classification_date' ) ;
#192 = CARTESIAN_POINT ( 'NONE',  ( 0.000000000000000000, 0.000000000000000000, 0.000000000000000000 ) ) ;
#193 = PERSON_AND_ORGANIZATION_ROLE ( 'creator' ) ;
#194 = CARTESIAN_POINT ( 'NONE',  ( -10.00000000000000000, 0.000000000000000000, 7.000000000000000000 ) ) ;
#195 = PERSON_AND_ORGANIZATION_ROLE ( 'design_supplier' ) ;
#196 = ADVANCED_FACE ( 'NONE', ( #293 ), #374, .T. ) ;
#197 = EDGE_LOOP ( 'NONE', ( #128, #91 ) ) ;
#198 = LINE ( 'NONE', #259, #108 ) ;
#199 = CARTESIAN_POINT ( 'NONE',  ( 0.000000000000000000, 0.000000000000000000, 7.000000000000000000 ) ) ;
#200 = CARTESIAN_POINT ( 'NONE',  ( 0.000000000000000000, 0.000000000000000000, 132.0000000000000000 ) ) ;
#201 = AXIS2_PLACEMENT_3D ( 'NONE', #238, #115, #174 ) ;
#202 = CIRCLE ( 'NONE', #32, 6.000000000000000888 ) ;
#203 = DIRECTION ( 'NONE',  ( 1.000000000000000000, 0.000000000000000000, 0.000000000000000000 ) ) ;
#204 = DIRECTION ( 'NONE',  ( -1.000000000000000000, 0.000000000000000000, 0.000000000000000000 ) ) ;
#205 = CYLINDRICAL_SURFACE ( 'NONE', #94, 10.00000000000000000 ) ;
#206 = EDGE_CURVE ( 'NONE', #47, #120, #355, .T. ) ;
#207 = ORIENTED_EDGE ( 'NONE', *, *, #69, .T. ) ;
#208 = CC_DESIGN_APPROVAL ( #170, ( #308 ) ) ;
#209 = PLANE ( 'NONE',  #29 ) ;
#210 = PRODUCT ( 'ec64', 'ec64', '', ( #34 ) ) ;
#211 = CARTESIAN_POINT ( 'NONE',  ( 0.000000000000000000, 0.000000000000000000, 7.000000000000000000 ) ) ;
#212 = ORIENTED_EDGE ( 'NONE', *, *, #190, .T. ) ;
#213 = ADVANCED_FACE ( 'NONE', ( #57, #341 ), #343, .T. ) ;
#214 = FACE_OUTER_BOUND ( 'NONE', #285, .T. ) ;
#215 = VECTOR ( 'NONE', #346, 1000.000000000000000 ) ;
#216 = DIRECTION ( 'NONE',  ( 0.000000000000000000, 0.000000000000000000, 1.000000000000000000 ) ) ;
#217 = EDGE_LOOP ( 'NONE', ( #307, #379, #101, #212 ) ) ;
#218 = DIRECTION ( 'NONE',  ( 1.000000000000000000, 0.000000000000000000, 0.000000000000000000 ) ) ;
#219 = ORIENTED_EDGE ( 'NONE', *, *, #252, .F. ) ;
#220 = PERSON_AND_ORGANIZATION ( #243, #261 ) ;
#221 = ORIENTED_EDGE ( 'NONE', *, *, #129, .T. ) ;
#222 = CC_DESIGN_PERSON_AND_ORGANIZATION_ASSIGNMENT ( #102, #195, ( #308 ) ) ;
#223 = AXIS2_PLACEMENT_3D ( 'NONE', #182, #272, #100 ) ;
#224 = APPROVAL_ROLE ( '' ) ;
#225 = CARTESIAN_POINT ( 'NONE',  ( -4.500000000000000000, 0.000000000000000000, 132.0000000000000000 ) ) ;
#226 = DIRECTION ( 'NONE',  ( 0.000000000000000000, 0.000000000000000000, -1.000000000000000000 ) ) ;
#227 = EDGE_CURVE ( 'NONE', #47, #366, #290, .T. ) ;
#228 = CYLINDRICAL_SURFACE ( 'NONE', #274, 10.00000000000000000 ) ;
#229 = APPLICATION_CONTEXT ( 'configuration controlled 3d designs of mechanical parts and assemblies' ) ;
#230 = CALENDAR_DATE ( 2022, 8, 7 ) ;
#231 = ORIENTED_EDGE ( 'NONE', *, *, #267, .T. ) ;
#232 = AXIS2_PLACEMENT_3D ( 'NONE', #88, #266, #145 ) ;
#233 = DATE_AND_TIME ( #365, #87 ) ;
#234 = FACE_OUTER_BOUND ( 'NONE', #33, .T. ) ;
#235 = CARTESIAN_POINT ( 'NONE',  ( -6.700000000000001066, 8.205133554287267548E-16, 7.699999999999998401 ) ) ;
#236 = EDGE_CURVE ( 'NONE', #351, #147, #337, .T. ) ;
#237 = DIRECTION ( 'NONE',  ( -1.000000000000000000, 1.224646799147353454E-16, 0.000000000000000000 ) ) ;
#238 = CARTESIAN_POINT ( 'NONE',  ( 0.000000000000000000, 0.000000000000000000, 7.000000000000000000 ) ) ;
#239 = ADVANCED_FACE ( 'NONE', ( #323, #86 ), #119, .T. ) ;
#240 = DIRECTION ( 'NONE',  ( -0.000000000000000000, -0.000000000000000000, -1.000000000000000000 ) ) ;
#241 = ORIENTED_EDGE ( 'NONE', *, *, #159, .T. ) ;
#242 = CARTESIAN_POINT ( 'NONE',  ( 0.000000000000000000, 0.000000000000000000, 7.000000000000000000 ) ) ;
#243 = PERSON ( 'NEURÈENÝ', 'NEURÈENÝ', 'NEURÈENÝ', ('NEURÈENÝ'), ('NEURÈENÝ'), ('NEURÈENÝ') ) ;
#244 = VECTOR ( 'NONE', #58, 1000.000000000000000 ) ;
#245 = ORIENTED_EDGE ( 'NONE', *, *, #117, .F. ) ;
#246 = CARTESIAN_POINT ( 'NONE',  ( 0.000000000000000000, 0.000000000000000000, 132.0000000000000000 ) ) ;
#247 = ORIENTED_EDGE ( 'NONE', *, *, #141, .T. ) ;
#248 = LOCAL_TIME ( 16, 28, 3.000000000000000000, #109 ) ;
#249 = VERTEX_POINT ( 'NONE', #83 ) ;
#250 = ADVANCED_FACE ( 'NONE', ( #372 ), #53, .F. ) ;
#251 = UNCERTAINTY_MEASURE_WITH_UNIT (LENGTH_MEASURE( 1.000000000000000082E-05 ), #125, 'distance_accuracy_value', 'NONE');
#252 = EDGE_CURVE ( 'NONE', #277, #137, #270, .T. ) ;
#253 = CALENDAR_DATE ( 2022, 8, 7 ) ;
#254 = DIRECTION ( 'NONE',  ( -0.000000000000000000, -0.000000000000000000, -1.000000000000000000 ) ) ;
#255 = DIRECTION ( 'NONE',  ( -0.000000000000000000, -0.000000000000000000, -1.000000000000000000 ) ) ;
#256 = ADVANCED_FACE ( 'NONE', ( #116 ), #205, .T. ) ;
#257 = DATE_AND_TIME ( #253, #297 ) ;
#258 = CYLINDRICAL_SURFACE ( 'NONE', #22, 4.500000000000000000 ) ;
#259 = CARTESIAN_POINT ( 'NONE',  ( 4.500000000000000000, 5.510910596163088569E-16, 132.0000000000000000 ) ) ;
#260 = CARTESIAN_POINT ( 'NONE',  ( 0.000000000000000000, 0.000000000000000000, 7.699999999999998401 ) ) ;
#261 = ORGANIZATION ( 'NEURÈENÝ', 'NEURÈENÝ', '' ) ;
#262 = ADVANCED_FACE ( 'NONE', ( #176, #24 ), #209, .F. ) ;
#263 = CARTESIAN_POINT ( 'NONE',  ( 10.00000000000000000, 1.224646799147353256E-15, 7.000000000000000000 ) ) ;
#264 = AXIS2_PLACEMENT_3D ( 'NONE', #199, #254, #369 ) ;
#265 = CARTESIAN_POINT ( 'NONE',  ( 0.000000000000000000, 0.000000000000000000, 132.0000000000000000 ) ) ;
#266 = DIRECTION ( 'NONE',  ( 0.000000000000000000, 0.000000000000000000, 1.000000000000000000 ) ) ;
#267 = EDGE_CURVE ( 'NONE', #277, #75, #37, .T. ) ;
#268 = AXIS2_PLACEMENT_3D ( 'NONE', #371, #318, #320 ) ;
#269 = DIRECTION ( 'NONE',  ( 1.000000000000000000, 0.000000000000000000, 0.000000000000000000 ) ) ;
#270 = LINE ( 'NONE', #291, #215 ) ;
#271 = EDGE_LOOP ( 'NONE', ( #207, #241 ) ) ;
#272 = DIRECTION ( 'NONE',  ( 0.000000000000000000, 0.000000000000000000, 1.000000000000000000 ) ) ;
#273 = ORIENTED_EDGE ( 'NONE', *, *, #378, .T. ) ;
#274 = AXIS2_PLACEMENT_3D ( 'NONE', #46, #168, #140 ) ;
#275 = CLOSED_SHELL ( 'NONE', ( #74, #4, #295, #256, #98, #213, #262, #196, #239, #317, #250 ) ) ;
#276 = DIRECTION ( 'NONE',  ( -1.000000000000000000, 0.000000000000000000, 0.000000000000000000 ) ) ;
#277 = VERTEX_POINT ( 'NONE', #263 ) ;
#278 = DIRECTION ( 'NONE',  ( 1.000000000000000000, 0.000000000000000000, 0.000000000000000000 ) ) ;
#279 = ORIENTED_EDGE ( 'NONE', *, *, #364, .F. ) ;
#280 = AXIS2_PLACEMENT_3D ( 'NONE', #235, #324, #237 ) ;
#281 = DIRECTION ( 'NONE',  ( -0.000000000000000000, -0.000000000000000000, -1.000000000000000000 ) ) ;
#282 = CC_DESIGN_SECURITY_CLASSIFICATION ( #150, ( #308 ) ) ;
#283 = CARTESIAN_POINT ( 'NONE',  ( -10.00000000000000000, 0.000000000000000000, 7.000000000000000000 ) ) ;
#284 = SECURITY_CLASSIFICATION_LEVEL ( 'unclassified' ) ;
#285 = EDGE_LOOP ( 'NONE', ( #311, #8, #68, #59 ) ) ;
#286 = DIRECTION ( 'NONE',  ( 1.000000000000000000, 0.000000000000000000, 0.000000000000000000 ) ) ;
#287 = PRODUCT_DEFINITION ( 'NEZNÁMÝ', '', #308, #338 ) ;
#288 = DIRECTION ( 'NONE',  ( 0.000000000000000000, 0.000000000000000000, 1.000000000000000000 ) ) ;
#289 = APPROVAL_PERSON_ORGANIZATION ( #76, #170, #368 ) ;
#290 = LINE ( 'NONE', #51, #322 ) ;
#291 = CARTESIAN_POINT ( 'NONE',  ( 10.00000000000000000, 1.224646799147353256E-15, 7.000000000000000000 ) ) ;
#292 = DIRECTION ( 'NONE',  ( 0.000000000000000000, 0.000000000000000000, 1.000000000000000000 ) ) ;
#293 = FACE_OUTER_BOUND ( 'NONE', #217, .T. ) ;
#294 = CARTESIAN_POINT ( 'NONE',  ( 0.000000000000000000, 0.000000000000000000, 0.000000000000000000 ) ) ;
#295 = ADVANCED_FACE ( 'NONE', ( #214 ), #66, .T. ) ;
#296 = DIRECTION ( 'NONE',  ( 1.000000000000000000, 0.000000000000000000, 0.000000000000000000 ) ) ;
#297 = LOCAL_TIME ( 16, 28, 3.000000000000000000, #167 ) ;
#298 = EDGE_LOOP ( 'NONE', ( #245, #180, #221, #353 ) ) ;
#299 = APPLICATION_PROTOCOL_DEFINITION ( 'international standard', 'config_control_design', 1994, #315 ) ;
#300 = CARTESIAN_POINT ( 'NONE',  ( 0.000000000000000000, 0.000000000000000000, 7.699999999999998401 ) ) ;
#301 = ORIENTED_EDGE ( 'NONE', *, *, #129, .F. ) ;
#302 = TOROIDAL_SURFACE ( 'NONE', #142, 6.700000000000001066, 0.6999999999999999556 ) ;
#303 = EDGE_LOOP ( 'NONE', ( #186, #7 ) ) ;
#304 = PERSON_AND_ORGANIZATION_ROLE ( 'creator' ) ;
#305 = AXIS2_PLACEMENT_3D ( 'NONE', #260, #114, #78 ) ;
#306 = CARTESIAN_POINT ( 'NONE',  ( 10.00000000000000000, 1.224646799147353256E-15, 0.000000000000000000 ) ) ;
#307 = ORIENTED_EDGE ( 'NONE', *, *, #227, .F. ) ;
#308 = PRODUCT_DEFINITION_FORMATION_WITH_SPECIFIED_SOURCE ( 'LIBOVOLNÝ', '', #210, .NOT_KNOWN. ) ;
#309 = CARTESIAN_POINT ( 'NONE',  ( 6.700000000000001066, 0.000000000000000000, 7.699999999999998401 ) ) ;
#310 = COORDINATED_UNIVERSAL_TIME_OFFSET ( 1, 0, .AHEAD. ) ;
#311 = ORIENTED_EDGE ( 'NONE', *, *, #206, .F. ) ;
#312 = EDGE_CURVE ( 'NONE', #93, #27, #12, .T. ) ;
#313 = EDGE_CURVE ( 'NONE', #75, #277, #352, .T. ) ;
#314 = DIRECTION ( 'NONE',  ( 0.000000000000000000, 0.000000000000000000, 1.000000000000000000 ) ) ;
#315 = APPLICATION_CONTEXT ( 'configuration controlled 3d designs of mechanical parts and assemblies' ) ;
#316 =( GEOMETRIC_REPRESENTATION_CONTEXT ( 3 ) GLOBAL_UNCERTAINTY_ASSIGNED_CONTEXT ( ( #251 ) ) GLOBAL_UNIT_ASSIGNED_CONTEXT ( ( #125, #331, #157 ) ) REPRESENTATION_CONTEXT ( 'NONE', 'WORKASPACE' ) );
#317 = ADVANCED_FACE ( 'NONE', ( #9 ), #302, .F. ) ;
#318 = DIRECTION ( 'NONE',  ( -0.000000000000000000, -0.000000000000000000, -1.000000000000000000 ) ) ;
#319 = CIRCLE ( 'NONE', #158, 4.500000000000000000 ) ;
#320 = DIRECTION ( 'NONE',  ( -1.000000000000000000, 0.000000000000000000, 0.000000000000000000 ) ) ;
#321 = EDGE_LOOP ( 'NONE', ( #106, #124, #132, #373 ) ) ;
#322 = VECTOR ( 'NONE', #240, 1000.000000000000000 ) ;
#323 = FACE_BOUND ( 'NONE', #333, .T. ) ;
#324 = DIRECTION ( 'NONE',  ( 1.224646799147353207E-16, 1.000000000000000000, -0.000000000000000000 ) ) ;
#325 = DIRECTION ( 'NONE',  ( -0.000000000000000000, -0.000000000000000000, -1.000000000000000000 ) ) ;
#326 = CARTESIAN_POINT ( 'NONE',  ( -4.500000000000000000, 0.000000000000000000, 0.000000000000000000 ) ) ;
#327 = VERTEX_POINT ( 'NONE', #61 ) ;
#328 = DIRECTION ( 'NONE',  ( 1.000000000000000000, 0.000000000000000000, 0.000000000000000000 ) ) ;
#329 = EDGE_CURVE ( 'NONE', #249, #137, #348, .T. ) ;
#330 = ORIENTED_EDGE ( 'NONE', *, *, #117, .T. ) ;
#331 =( NAMED_UNIT ( * ) PLANE_ANGLE_UNIT ( ) SI_UNIT ( $, .RADIAN. ) );
#332 = PERSON_AND_ORGANIZATION_ROLE ( 'design_owner' ) ;
#333 = EDGE_LOOP ( 'NONE', ( #279, #335 ) ) ;
#334 = APPROVAL_STATUS ( 'not_yet_approved' ) ;
#335 = ORIENTED_EDGE ( 'NONE', *, *, #312, .F. ) ;
#336 = FACE_OUTER_BOUND ( 'NONE', #95, .T. ) ;
#337 = CIRCLE ( 'NONE', #177, 4.500000000000000000 ) ;
#338 = DESIGN_CONTEXT ( 'detailed design', #229, 'design' ) ;
#339 = LINE ( 'NONE', #194, #138 ) ;
#340 = DIRECTION ( 'NONE',  ( 0.000000000000000000, 0.000000000000000000, -1.000000000000000000 ) ) ;
#341 = FACE_OUTER_BOUND ( 'NONE', #3, .T. ) ;
#342 = DIRECTION ( 'NONE',  ( 1.000000000000000000, 0.000000000000000000, 0.000000000000000000 ) ) ;
#343 = PLANE ( 'NONE',  #201 ) ;
#344 = ORIENTED_EDGE ( 'NONE', *, *, #313, .F. ) ;
#345 = TOROIDAL_SURFACE ( 'NONE', #357, 6.700000000000001066, 0.6999999999999999556 ) ;
#346 = DIRECTION ( 'NONE',  ( -0.000000000000000000, -0.000000000000000000, -1.000000000000000000 ) ) ;
#347 = ORIENTED_EDGE ( 'NONE', *, *, #364, .T. ) ;
#348 = CIRCLE ( 'NONE', #187, 10.00000000000000000 ) ;
#349 = CARTESIAN_POINT ( 'NONE',  ( 0.000000000000000000, 0.000000000000000000, 7.000000000000000000 ) ) ;
#350 = CC_DESIGN_DATE_AND_TIME_ASSIGNMENT ( #113, #45, ( #287 ) ) ;
#351 = VERTEX_POINT ( 'NONE', #326 ) ;
#352 = CIRCLE ( 'NONE', #367, 10.00000000000000000 ) ;
#353 = ORIENTED_EDGE ( 'NONE', *, *, #236, .T. ) ;
#354 = LOCAL_TIME ( 16, 28, 3.000000000000000000, #310 ) ;
#355 = CIRCLE ( 'NONE', #232, 6.000000000000000888 ) ;
#356 = CARTESIAN_POINT ( 'NONE',  ( 0.000000000000000000, 0.000000000000000000, 132.0000000000000000 ) ) ;
#357 = AXIS2_PLACEMENT_3D ( 'NONE', #363, #77, #286 ) ;
#358 = DIRECTION ( 'NONE',  ( 1.000000000000000000, 0.000000000000000000, 0.000000000000000000 ) ) ;
#359 = CARTESIAN_POINT ( 'NONE',  ( 6.000000000000000888, 7.347880794884120722E-16, 132.0000000000000000 ) ) ;
#360 = CALENDAR_DATE ( 2022, 8, 7 ) ;
#361 = AXIS2_PLACEMENT_3D ( 'NONE', #148, #314, #203 ) ;
#362 = CIRCLE ( 'NONE', #280, 0.7000000000000000666 ) ;
#363 = CARTESIAN_POINT ( 'NONE',  ( 0.000000000000000000, 0.000000000000000000, 7.699999999999998401 ) ) ;
#364 = EDGE_CURVE ( 'NONE', #27, #93, #19, .T. ) ;
#365 = CALENDAR_DATE ( 2022, 8, 7 ) ;
#366 = VERTEX_POINT ( 'NONE', #127 ) ;
#367 = AXIS2_PLACEMENT_3D ( 'NONE', #211, #181, #358 ) ;
#368 = APPROVAL_ROLE ( '' ) ;
#369 = DIRECTION ( 'NONE',  ( 1.000000000000000000, 0.000000000000000000, 0.000000000000000000 ) ) ;
#370 = CARTESIAN_POINT ( 'NONE',  ( 4.500000000000000000, 5.510910596163088569E-16, 0.000000000000000000 ) ) ;
#371 = CARTESIAN_POINT ( 'NONE',  ( 0.000000000000000000, 0.000000000000000000, 132.0000000000000000 ) ) ;
#372 = FACE_OUTER_BOUND ( 'NONE', #298, .T. ) ;
#373 = ORIENTED_EDGE ( 'NONE', *, *, #54, .F. ) ;
#374 = CYLINDRICAL_SURFACE ( 'NONE', #268, 6.000000000000000888 ) ;
#375 = ORIENTED_EDGE ( 'NONE', *, *, #146, .F. ) ;
#376 = EDGE_CURVE ( 'NONE', #120, #327, #6, .T. ) ;
#377 = CARTESIAN_POINT ( 'NONE',  ( 0.000000000000000000, 0.000000000000000000, 0.000000000000000000 ) ) ;
#378 = EDGE_CURVE ( 'NONE', #120, #47, #71, .T. ) ;
#379 = ORIENTED_EDGE ( 'NONE', *, *, #378, .F. ) ;
#380 = PRODUCT_DEFINITION_SHAPE ( 'NONE', 'NONE',  #287 ) ;
#381 = AXIS2_PLACEMENT_3D ( 'NONE', #246, #64, #218 ) ;
ENDSEC;
END-ISO-10303-21;
