ISO-10303-21;
HEADER;
FILE_DESCRIPTION (( 'STEP AP203' ),
    '1' );
FILE_NAME ('a54e.STEP',
    '2022-07-08T14:58:29',
    ( '' ),
    ( '' ),
    'SwSTEP 2.0',
    'SolidWorks 2019',
    '' );
FILE_SCHEMA (( 'CONFIG_CONTROL_DESIGN' ));
ENDSEC;

DATA;
#1 = CLOSED_SHELL ( 'NONE', ( #310, #222, #285, #102, #357, #199, #168, #158, #293, #326, #195 ) ) ;
#2 = DIRECTION ( 'NONE',  ( 1.000000000000000000, 0.000000000000000000, 0.000000000000000000 ) ) ;
#3 = ORIENTED_EDGE ( 'NONE', *, *, #65, .F. ) ;
#4 = CARTESIAN_POINT ( 'NONE',  ( 5.500000000000000000, 0.000000000000000000, 5.500000000000005329 ) ) ;
#5 = CARTESIAN_POINT ( 'NONE',  ( 0.000000000000000000, 0.000000000000000000, 0.000000000000000000 ) ) ;
#6 = CIRCLE ( 'NONE', #55, 3.000000000000000444 ) ;
#7 = DIRECTION ( 'NONE',  ( -1.000000000000000000, 0.000000000000000000, 0.000000000000000000 ) ) ;
#8 = VECTOR ( 'NONE', #20, 1000.000000000000000 ) ;
#9 = FACE_BOUND ( 'NONE', #353, .T. ) ;
#10 = DIRECTION ( 'NONE',  ( 1.000000000000000000, 0.000000000000000000, 0.000000000000000000 ) ) ;
#11 = DIRECTION ( 'NONE',  ( 0.000000000000000000, 0.000000000000000000, 1.000000000000000000 ) ) ;
#12 = AXIS2_PLACEMENT_3D ( 'NONE', #296, #363, #295 ) ;
#13 = CARTESIAN_POINT ( 'NONE',  ( -5.500000000000000000, 6.735557395310442023E-16, 5.500000000000005329 ) ) ;
#14 = CC_DESIGN_APPROVAL ( #77, ( #22 ) ) ;
#15 = EDGE_CURVE ( 'NONE', #251, #59, #122, .T. ) ;
#16 = CARTESIAN_POINT ( 'NONE',  ( 0.000000000000000000, 0.000000000000000000, 155.0000000000000000 ) ) ;
#17 = ORIENTED_EDGE ( 'NONE', *, *, #258, .F. ) ;
#18 = DIRECTION ( 'NONE',  ( 1.000000000000000000, 0.000000000000000000, 0.000000000000000000 ) ) ;
#19 = AXIS2_PLACEMENT_3D ( 'NONE', #330, #243, #10 ) ;
#20 = DIRECTION ( 'NONE',  ( -0.000000000000000000, -0.000000000000000000, -1.000000000000000000 ) ) ;
#21 = EDGE_CURVE ( 'NONE', #128, #90, #116, .T. ) ;
#22 = PRODUCT_DEFINITION_FORMATION_WITH_SPECIFIED_SOURCE ( 'LIBOVOLNÝ', '', #172, .NOT_KNOWN. ) ;
#23 = ORIENTED_EDGE ( 'NONE', *, *, #183, .T. ) ;
#24 = CALENDAR_DATE ( 2022, 8, 7 ) ;
#25 = EDGE_LOOP ( 'NONE', ( #83, #204 ) ) ;
#26 = PERSON_AND_ORGANIZATION ( #85, #305 ) ;
#27 = ORIENTED_EDGE ( 'NONE', *, *, #15, .F. ) ;
#28 = LOCAL_TIME ( 16, 58, 29.00000000000000000, #108 ) ;
#29 = PERSON_AND_ORGANIZATION_ROLE ( 'creator' ) ;
#30 = ORIENTED_EDGE ( 'NONE', *, *, #137, .F. ) ;
#31 = COORDINATED_UNIVERSAL_TIME_OFFSET ( 1, 0, .AHEAD. ) ;
#32 = EDGE_LOOP ( 'NONE', ( #376, #210 ) ) ;
#33 = DIRECTION ( 'NONE',  ( 0.000000000000000000, 0.000000000000000000, -1.000000000000000000 ) ) ;
#34 = AXIS2_PLACEMENT_3D ( 'NONE', #123, #327, #71 ) ;
#35 = AXIS2_PLACEMENT_3D ( 'NONE', #286, #51, #78 ) ;
#36 = PERSON_AND_ORGANIZATION ( #85, #305 ) ;
#37 = PLANE ( 'NONE',  #339 ) ;
#38 = CARTESIAN_POINT ( 'NONE',  ( -3.000000000000000444, 0.000000000000000000, 0.000000000000000000 ) ) ;
#39 = PERSON_AND_ORGANIZATION ( #85, #305 ) ;
#40 = VECTOR ( 'NONE', #191, 1000.000000000000000 ) ;
#41 = CARTESIAN_POINT ( 'NONE',  ( 0.000000000000000000, 0.000000000000000000, 5.000000000000000000 ) ) ;
#42 = CC_DESIGN_PERSON_AND_ORGANIZATION_ASSIGNMENT ( #39, #209, ( #99 ) ) ;
#43 = DIRECTION ( 'NONE',  ( 1.000000000000000000, 0.000000000000000000, 0.000000000000000000 ) ) ;
#44 = DIRECTION ( 'NONE',  ( 0.000000000000000000, 0.000000000000000000, 1.000000000000000000 ) ) ;
#45 = EDGE_CURVE ( 'NONE', #179, #262, #6, .T. ) ;
#46 = CYLINDRICAL_SURFACE ( 'NONE', #150, 3.000000000000000444 ) ;
#47 = LINE ( 'NONE', #338, #371 ) ;
#48 = CARTESIAN_POINT ( 'NONE',  ( 5.500000000000000000, 0.000000000000000000, 5.000000000000002665 ) ) ;
#49 = FACE_BOUND ( 'NONE', #233, .T. ) ;
#50 =( NAMED_UNIT ( * ) SI_UNIT ( $, .STERADIAN. ) SOLID_ANGLE_UNIT ( ) );
#51 = DIRECTION ( 'NONE',  ( 0.000000000000000000, 0.000000000000000000, 1.000000000000000000 ) ) ;
#52 = ORIENTED_EDGE ( 'NONE', *, *, #81, .T. ) ;
#53 = CARTESIAN_POINT ( 'NONE',  ( 0.000000000000000000, 0.000000000000000000, 5.500000000000005329 ) ) ;
#54 = VERTEX_POINT ( 'NONE', #159 ) ;
#55 = AXIS2_PLACEMENT_3D ( 'NONE', #239, #69, #43 ) ;
#56 = ORIENTED_EDGE ( 'NONE', *, *, #333, .F. ) ;
#57 = AXIS2_PLACEMENT_3D ( 'NONE', #248, #162, #165 ) ;
#58 = CYLINDRICAL_SURFACE ( 'NONE', #241, 8.000000000000000000 ) ;
#59 = VERTEX_POINT ( 'NONE', #242 ) ;
#60 = EDGE_CURVE ( 'NONE', #368, #208, #167, .T. ) ;
#61 = SHAPE_DEFINITION_REPRESENTATION ( #377, #264 ) ;
#62 = EDGE_LOOP ( 'NONE', ( #184, #299 ) ) ;
#63 = CC_DESIGN_PERSON_AND_ORGANIZATION_ASSIGNMENT ( #291, #29, ( #22 ) ) ;
#64 = CARTESIAN_POINT ( 'NONE',  ( 0.000000000000000000, 0.000000000000000000, 155.0000000000000000 ) ) ;
#65 = EDGE_CURVE ( 'NONE', #256, #230, #325, .T. ) ;
#66 = APPROVAL_DATE_TIME ( #270, #219 ) ;
#67 = DIRECTION ( 'NONE',  ( 0.000000000000000000, -1.000000000000000000, 0.000000000000000000 ) ) ;
#68 = LINE ( 'NONE', #238, #190 ) ;
#69 = DIRECTION ( 'NONE',  ( -0.000000000000000000, -0.000000000000000000, -1.000000000000000000 ) ) ;
#70 = AXIS2_PLACEMENT_3D ( 'NONE', #13, #131, #337 ) ;
#71 = DIRECTION ( 'NONE',  ( 1.000000000000000000, 0.000000000000000000, 0.000000000000000000 ) ) ;
#72 = DIRECTION ( 'NONE',  ( 1.000000000000000000, 0.000000000000000000, 0.000000000000000000 ) ) ;
#73 = UNCERTAINTY_MEASURE_WITH_UNIT (LENGTH_MEASURE( 1.000000000000000082E-05 ), #345, 'distance_accuracy_value', 'NONE');
#74 = LINE ( 'NONE', #370, #354 ) ;
#75 = EDGE_CURVE ( 'NONE', #128, #208, #332, .T. ) ;
#76 = CARTESIAN_POINT ( 'NONE',  ( 3.000000000000000444, 3.673940397442060361E-16, 155.0000000000000000 ) ) ;
#77 = APPROVAL ( #139, 'NEURÈENÝ' ) ;
#78 = DIRECTION ( 'NONE',  ( 1.000000000000000000, 0.000000000000000000, 0.000000000000000000 ) ) ;
#79 = ORIENTED_EDGE ( 'NONE', *, *, #141, .T. ) ;
#80 = CALENDAR_DATE ( 2022, 8, 7 ) ;
#81 = EDGE_CURVE ( 'NONE', #230, #262, #331, .T. ) ;
#82 = VERTEX_POINT ( 'NONE', #220 ) ;
#83 = ORIENTED_EDGE ( 'NONE', *, *, #344, .T. ) ;
#84 = AXIS2_PLACEMENT_3D ( 'NONE', #155, #218, #7 ) ;
#85 = PERSON ( 'NEURÈENÝ', 'NEURÈENÝ', 'NEURÈENÝ', ('NEURÈENÝ'), ('NEURÈENÝ'), ('NEURÈENÝ') ) ;
#86 = APPLICATION_PROTOCOL_DEFINITION ( 'international standard', 'config_control_design', 1994, #261 ) ;
#87 = ORIENTED_EDGE ( 'NONE', *, *, #344, .F. ) ;
#88 = AXIS2_PLACEMENT_3D ( 'NONE', #275, #11, #127 ) ;
#89 = LOCAL_TIME ( 16, 58, 29.00000000000000000, #359 ) ;
#90 = VERTEX_POINT ( 'NONE', #334 ) ;
#91 = CARTESIAN_POINT ( 'NONE',  ( 3.000000000000000444, 3.673940397442060361E-16, 155.0000000000000000 ) ) ;
#92 = DATE_AND_TIME ( #217, #89 ) ;
#93 = DIRECTION ( 'NONE',  ( 1.000000000000000000, 0.000000000000000000, 0.000000000000000000 ) ) ;
#94 = CIRCLE ( 'NONE', #129, 5.500000000000000000 ) ;
#95 = SECURITY_CLASSIFICATION_LEVEL ( 'unclassified' ) ;
#96 = DIRECTION ( 'NONE',  ( -0.000000000000000000, -0.000000000000000000, -1.000000000000000000 ) ) ;
#97 = DIRECTION ( 'NONE',  ( 0.000000000000000000, 0.000000000000000000, 1.000000000000000000 ) ) ;
#98 = CYLINDRICAL_SURFACE ( 'NONE', #207, 5.000000000000000000 ) ;
#99 = SECURITY_CLASSIFICATION ( '', '', #95 ) ;
#100 = CARTESIAN_POINT ( 'NONE',  ( -3.000000000000000444, 0.000000000000000000, 155.0000000000000000 ) ) ;
#101 = CARTESIAN_POINT ( 'NONE',  ( 0.000000000000000000, 0.000000000000000000, 155.0000000000000000 ) ) ;
#102 = ADVANCED_FACE ( 'NONE', ( #300 ), #267, .T. ) ;
#103 = DIRECTION ( 'NONE',  ( 0.000000000000000000, 0.000000000000000000, 1.000000000000000000 ) ) ;
#104 = CYLINDRICAL_SURFACE ( 'NONE', #221, 5.000000000000000000 ) ;
#105 = CC_DESIGN_PERSON_AND_ORGANIZATION_ASSIGNMENT ( #157, #273, ( #22 ) ) ;
#106 = DIRECTION ( 'NONE',  ( 1.000000000000000000, 0.000000000000000000, -0.000000000000000000 ) ) ;
#107 = EDGE_LOOP ( 'NONE', ( #351, #381, #203, #205 ) ) ;
#108 = COORDINATED_UNIVERSAL_TIME_OFFSET ( 1, 0, .AHEAD. ) ;
#109 = CIRCLE ( 'NONE', #70, 0.5000000000000004441 ) ;
#110 = ORIENTED_EDGE ( 'NONE', *, *, #290, .F. ) ;
#111 = DATE_AND_TIME ( #24, #320 ) ;
#112 = VERTEX_POINT ( 'NONE', #360 ) ;
#113 = CARTESIAN_POINT ( 'NONE',  ( 0.000000000000000000, 0.000000000000000000, 5.000000000000000000 ) ) ;
#114 = ORIENTED_EDGE ( 'NONE', *, *, #81, .F. ) ;
#115 = EDGE_CURVE ( 'NONE', #230, #256, #365, .T. ) ;
#116 = CIRCLE ( 'NONE', #175, 5.000000000000000000 ) ;
#117 = ORIENTED_EDGE ( 'NONE', *, *, #252, .F. ) ;
#118 = PRODUCT_RELATED_PRODUCT_CATEGORY ( 'detail', '', ( #172 ) ) ;
#119 = CARTESIAN_POINT ( 'NONE',  ( 0.000000000000000000, 0.000000000000000000, 155.0000000000000000 ) ) ;
#120 = MANIFOLD_SOLID_BREP ( 'Odebrat vysunutím3', #1 ) ;
#121 = DIRECTION ( 'NONE',  ( 1.000000000000000000, 0.000000000000000000, -0.000000000000000000 ) ) ;
#122 = CIRCLE ( 'NONE', #315, 8.000000000000000000 ) ;
#123 = CARTESIAN_POINT ( 'NONE',  ( 0.000000000000000000, 0.000000000000000000, 0.000000000000000000 ) ) ;
#124 = FACE_OUTER_BOUND ( 'NONE', #182, .T. ) ;
#125 = DIRECTION ( 'NONE',  ( 1.000000000000000000, 0.000000000000000000, 0.000000000000000000 ) ) ;
#126 = EDGE_CURVE ( 'NONE', #82, #90, #68, .T. ) ;
#127 = DIRECTION ( 'NONE',  ( 1.000000000000000000, 0.000000000000000000, 0.000000000000000000 ) ) ;
#128 = VERTEX_POINT ( 'NONE', #358 ) ;
#129 = AXIS2_PLACEMENT_3D ( 'NONE', #240, #96, #125 ) ;
#130 = CC_DESIGN_SECURITY_CLASSIFICATION ( #99, ( #22 ) ) ;
#131 = DIRECTION ( 'NONE',  ( 1.224646799147353207E-16, 1.000000000000000000, -0.000000000000000000 ) ) ;
#132 = CARTESIAN_POINT ( 'NONE',  ( 0.000000000000000000, 0.000000000000000000, 5.000000000000000000 ) ) ;
#133 = CARTESIAN_POINT ( 'NONE',  ( 8.000000000000000000, 9.797174393178825657E-16, 5.000000000000000000 ) ) ;
#134 = TOROIDAL_SURFACE ( 'NONE', #156, 5.500000000000000000, 0.5000000000000000000 ) ;
#135 = DIRECTION ( 'NONE',  ( -0.000000000000000000, -0.000000000000000000, -1.000000000000000000 ) ) ;
#136 = LOCAL_TIME ( 16, 58, 29.00000000000000000, #352 ) ;
#137 = EDGE_CURVE ( 'NONE', #251, #112, #185, .T. ) ;
#138 = EDGE_LOOP ( 'NONE', ( #146, #379, #284, #374 ) ) ;
#139 = APPROVAL_STATUS ( 'not_yet_approved' ) ;
#140 = VERTEX_POINT ( 'NONE', #272 ) ;
#141 = EDGE_CURVE ( 'NONE', #262, #179, #288, .T. ) ;
#142 = DIRECTION ( 'NONE',  ( 1.000000000000000000, 0.000000000000000000, 0.000000000000000000 ) ) ;
#143 = AXIS2_PLACEMENT_3D ( 'NONE', #206, #145, #142 ) ;
#144 = ORIENTED_EDGE ( 'NONE', *, *, #115, .F. ) ;
#145 = DIRECTION ( 'NONE',  ( 0.000000000000000000, 0.000000000000000000, 1.000000000000000000 ) ) ;
#146 = ORIENTED_EDGE ( 'NONE', *, *, #318, .F. ) ;
#147 = APPROVAL_ROLE ( '' ) ;
#148 = ORIENTED_EDGE ( 'NONE', *, *, #21, .T. ) ;
#149 = ORIENTED_EDGE ( 'NONE', *, *, #115, .T. ) ;
#150 = AXIS2_PLACEMENT_3D ( 'NONE', #16, #225, #244 ) ;
#151 = EDGE_CURVE ( 'NONE', #208, #368, #94, .T. ) ;
#152 = DIRECTION ( 'NONE',  ( 1.000000000000000000, 0.000000000000000000, 0.000000000000000000 ) ) ;
#153 = DIRECTION ( 'NONE',  ( 0.000000000000000000, 0.000000000000000000, 1.000000000000000000 ) ) ;
#154 = AXIS2_PLACEMENT_3D ( 'NONE', #4, #67, #33 ) ;
#155 = CARTESIAN_POINT ( 'NONE',  ( 0.000000000000000000, 0.000000000000000000, 5.000000000000000000 ) ) ;
#156 = AXIS2_PLACEMENT_3D ( 'NONE', #160, #103, #18 ) ;
#157 = PERSON_AND_ORGANIZATION ( #85, #305 ) ;
#158 = ADVANCED_FACE ( 'NONE', ( #364 ), #98, .T. ) ;
#159 = CARTESIAN_POINT ( 'NONE',  ( 5.000000000000000000, 6.123233995736766282E-16, 155.0000000000000000 ) ) ;
#160 = CARTESIAN_POINT ( 'NONE',  ( 0.000000000000000000, 0.000000000000000000, 5.500000000000005329 ) ) ;
#161 = DESIGN_CONTEXT ( 'detailed design', #261, 'design' ) ;
#162 = DIRECTION ( 'NONE',  ( 0.000000000000000000, 0.000000000000000000, 1.000000000000000000 ) ) ;
#163 = CC_DESIGN_APPROVAL ( #180, ( #271 ) ) ;
#164 = FACE_OUTER_BOUND ( 'NONE', #107, .T. ) ;
#165 = DIRECTION ( 'NONE',  ( 1.000000000000000000, 0.000000000000000000, 0.000000000000000000 ) ) ;
#166 = FACE_OUTER_BOUND ( 'NONE', #62, .T. ) ;
#167 = CIRCLE ( 'NONE', #12, 5.500000000000000000 ) ;
#168 = ADVANCED_FACE ( 'NONE', ( #9, #124 ), #37, .F. ) ;
#169 = AXIS2_PLACEMENT_3D ( 'NONE', #193, #303, #276 ) ;
#170 = CARTESIAN_POINT ( 'NONE',  ( -5.500000000000000000, 6.735557395310442023E-16, 5.000000000000002665 ) ) ;
#171 = LOCAL_TIME ( 16, 58, 29.00000000000000000, #213 ) ;
#172 = PRODUCT ( 'a54e', 'a54e', '', ( #316 ) ) ;
#173 = PERSON_AND_ORGANIZATION_ROLE ( 'design_owner' ) ;
#174 = EDGE_LOOP ( 'NONE', ( #187, #52, #79, #17 ) ) ;
#175 = AXIS2_PLACEMENT_3D ( 'NONE', #268, #362, #152 ) ;
#176 = ORIENTED_EDGE ( 'NONE', *, *, #215, .F. ) ;
#177 = DATE_TIME_ROLE ( 'creation_date' ) ;
#178 = AXIS2_PLACEMENT_3D ( 'NONE', #224, #278, #72 ) ;
#179 = VERTEX_POINT ( 'NONE', #38 ) ;
#180 = APPROVAL ( #348, 'NEURÈENÝ' ) ;
#181 = PERSON_AND_ORGANIZATION ( #85, #305 ) ;
#182 = EDGE_LOOP ( 'NONE', ( #117, #176 ) ) ;
#183 = EDGE_CURVE ( 'NONE', #90, #128, #319, .T. ) ;
#184 = ORIENTED_EDGE ( 'NONE', *, *, #290, .T. ) ;
#185 = LINE ( 'NONE', #212, #235 ) ;
#186 = CIRCLE ( 'NONE', #277, 5.000000000000000000 ) ;
#187 = ORIENTED_EDGE ( 'NONE', *, *, #65, .T. ) ;
#188 = APPLICATION_CONTEXT ( 'configuration controlled 3d designs of mechanical parts and assemblies' ) ;
#189 = DIRECTION ( 'NONE',  ( -0.000000000000000000, -0.000000000000000000, -1.000000000000000000 ) ) ;
#190 = VECTOR ( 'NONE', #274, 1000.000000000000000 ) ;
#191 = DIRECTION ( 'NONE',  ( 0.000000000000000000, 0.000000000000000000, -1.000000000000000000 ) ) ;
#192 = AXIS2_PLACEMENT_3D ( 'NONE', #249, #372, #106 ) ;
#193 = CARTESIAN_POINT ( 'NONE',  ( 0.000000000000000000, 0.000000000000000000, 155.0000000000000000 ) ) ;
#194 = DIRECTION ( 'NONE',  ( 1.000000000000000000, 0.000000000000000000, 0.000000000000000000 ) ) ;
#195 = ADVANCED_FACE ( 'NONE', ( #306 ), #46, .F. ) ;
#196 = FACE_OUTER_BOUND ( 'NONE', #138, .T. ) ;
#197 = AXIS2_PLACEMENT_3D ( 'NONE', #53, #257, #282 ) ;
#198 = PLANE ( 'NONE',  #347 ) ;
#199 = ADVANCED_FACE ( 'NONE', ( #200, #246 ), #198, .T. ) ;
#200 = FACE_BOUND ( 'NONE', #32, .T. ) ;
#201 = APPROVAL_ROLE ( '' ) ;
#202 = EDGE_CURVE ( 'NONE', #59, #140, #369, .T. ) ;
#203 = ORIENTED_EDGE ( 'NONE', *, *, #151, .F. ) ;
#204 = ORIENTED_EDGE ( 'NONE', *, *, #15, .T. ) ;
#205 = ORIENTED_EDGE ( 'NONE', *, *, #75, .F. ) ;
#206 = CARTESIAN_POINT ( 'NONE',  ( 0.000000000000000000, 0.000000000000000000, 5.000000000000000000 ) ) ;
#207 = AXIS2_PLACEMENT_3D ( 'NONE', #64, #329, #297 ) ;
#208 = VERTEX_POINT ( 'NONE', #48 ) ;
#209 = PERSON_AND_ORGANIZATION_ROLE ( 'classification_officer' ) ;
#210 = ORIENTED_EDGE ( 'NONE', *, *, #60, .T. ) ;
#211 = CALENDAR_DATE ( 2022, 8, 7 ) ;
#212 = CARTESIAN_POINT ( 'NONE',  ( 8.000000000000000000, 9.797174393178825657E-16, 5.000000000000000000 ) ) ;
#213 = COORDINATED_UNIVERSAL_TIME_OFFSET ( 1, 0, .AHEAD. ) ;
#214 = DIRECTION ( 'NONE',  ( 1.000000000000000000, 0.000000000000000000, 0.000000000000000000 ) ) ;
#215 = EDGE_CURVE ( 'NONE', #112, #140, #227, .T. ) ;
#216 = ORIENTED_EDGE ( 'NONE', *, *, #202, .T. ) ;
#217 = CALENDAR_DATE ( 2022, 8, 7 ) ;
#218 = DIRECTION ( 'NONE',  ( -0.000000000000000000, -0.000000000000000000, -1.000000000000000000 ) ) ;
#219 = APPROVAL ( #263, 'NEURÈENÝ' ) ;
#220 = CARTESIAN_POINT ( 'NONE',  ( -5.000000000000000000, 0.000000000000000000, 155.0000000000000000 ) ) ;
#221 = AXIS2_PLACEMENT_3D ( 'NONE', #336, #135, #302 ) ;
#222 = ADVANCED_FACE ( 'NONE', ( #164 ), #134, .F. ) ;
#223 = FACE_OUTER_BOUND ( 'NONE', #292, .T. ) ;
#224 = CARTESIAN_POINT ( 'NONE',  ( 0.000000000000000000, 0.000000000000000000, 5.500000000000005329 ) ) ;
#225 = DIRECTION ( 'NONE',  ( 0.000000000000000000, 0.000000000000000000, -1.000000000000000000 ) ) ;
#226 = EDGE_CURVE ( 'NONE', #54, #128, #47, .T. ) ;
#227 = CIRCLE ( 'NONE', #57, 8.000000000000000000 ) ;
#228 = DIRECTION ( 'NONE',  ( -0.000000000000000000, -0.000000000000000000, -1.000000000000000000 ) ) ;
#229 = FACE_OUTER_BOUND ( 'NONE', #174, .T. ) ;
#230 = VERTEX_POINT ( 'NONE', #76 ) ;
#231 = ORIENTED_EDGE ( 'NONE', *, *, #126, .F. ) ;
#232 = APPROVAL_DATE_TIME ( #313, #77 ) ;
#233 = EDGE_LOOP ( 'NONE', ( #3, #144 ) ) ;
#234 = PERSON_AND_ORGANIZATION ( #85, #305 ) ;
#235 = VECTOR ( 'NONE', #189, 1000.000000000000000 ) ;
#236 = ORIENTED_EDGE ( 'NONE', *, *, #226, .T. ) ;
#237 = ORIENTED_EDGE ( 'NONE', *, *, #137, .T. ) ;
#238 = CARTESIAN_POINT ( 'NONE',  ( -5.000000000000000000, 0.000000000000000000, 155.0000000000000000 ) ) ;
#239 = CARTESIAN_POINT ( 'NONE',  ( 0.000000000000000000, 0.000000000000000000, 0.000000000000000000 ) ) ;
#240 = CARTESIAN_POINT ( 'NONE',  ( 0.000000000000000000, 0.000000000000000000, 5.000000000000000000 ) ) ;
#241 = AXIS2_PLACEMENT_3D ( 'NONE', #113, #350, #260 ) ;
#242 = CARTESIAN_POINT ( 'NONE',  ( -8.000000000000000000, 0.000000000000000000, 5.000000000000000000 ) ) ;
#243 = DIRECTION ( 'NONE',  ( 0.000000000000000000, 0.000000000000000000, 1.000000000000000000 ) ) ;
#244 = DIRECTION ( 'NONE',  ( -1.000000000000000000, 0.000000000000000000, 0.000000000000000000 ) ) ;
#245 = CIRCLE ( 'NONE', #88, 8.000000000000000000 ) ;
#246 = FACE_OUTER_BOUND ( 'NONE', #25, .T. ) ;
#247 = DIRECTION ( 'NONE',  ( 1.000000000000000000, 0.000000000000000000, -0.000000000000000000 ) ) ;
#248 = CARTESIAN_POINT ( 'NONE',  ( 0.000000000000000000, 0.000000000000000000, 0.000000000000000000 ) ) ;
#249 = CARTESIAN_POINT ( 'NONE',  ( 0.000000000000000000, 0.000000000000000000, 155.0000000000000000 ) ) ;
#250 = CC_DESIGN_PERSON_AND_ORGANIZATION_ASSIGNMENT ( #181, #283, ( #271 ) ) ;
#251 = VERTEX_POINT ( 'NONE', #133 ) ;
#252 = EDGE_CURVE ( 'NONE', #140, #112, #245, .T. ) ;
#253 = APPLICATION_PROTOCOL_DEFINITION ( 'international standard', 'config_control_design', 1994, #188 ) ;
#254 = EDGE_LOOP ( 'NONE', ( #114, #149, #346, #312 ) ) ;
#255 = CALENDAR_DATE ( 2022, 8, 7 ) ;
#256 = VERTEX_POINT ( 'NONE', #100 ) ;
#257 = DIRECTION ( 'NONE',  ( 0.000000000000000000, 0.000000000000000000, 1.000000000000000000 ) ) ;
#258 = EDGE_CURVE ( 'NONE', #256, #179, #74, .T. ) ;
#259 = ORIENTED_EDGE ( 'NONE', *, *, #45, .F. ) ;
#260 = DIRECTION ( 'NONE',  ( -1.000000000000000000, 0.000000000000000000, 0.000000000000000000 ) ) ;
#261 = APPLICATION_CONTEXT ( 'configuration controlled 3d designs of mechanical parts and assemblies' ) ;
#262 = VERTEX_POINT ( 'NONE', #366 ) ;
#263 = APPROVAL_STATUS ( 'not_yet_approved' ) ;
#264 = ADVANCED_BREP_SHAPE_REPRESENTATION ( 'a54e', ( #120, #35 ), #355 ) ;
#265 = CIRCLE ( 'NONE', #335, 5.000000000000000000 ) ;
#266 = DIRECTION ( 'NONE',  ( 0.000000000000000000, 0.000000000000000000, 1.000000000000000000 ) ) ;
#267 = CYLINDRICAL_SURFACE ( 'NONE', #84, 8.000000000000000000 ) ;
#268 = CARTESIAN_POINT ( 'NONE',  ( 0.000000000000000000, 0.000000000000000000, 5.500000000000005329 ) ) ;
#269 = AXIS2_PLACEMENT_3D ( 'NONE', #119, #266, #214 ) ;
#270 = DATE_AND_TIME ( #211, #171 ) ;
#271 = PRODUCT_DEFINITION ( 'NEZNÁMÝ', '', #22, #161 ) ;
#272 = CARTESIAN_POINT ( 'NONE',  ( -8.000000000000000000, 0.000000000000000000, 0.000000000000000000 ) ) ;
#273 = PERSON_AND_ORGANIZATION_ROLE ( 'design_supplier' ) ;
#274 = DIRECTION ( 'NONE',  ( -0.000000000000000000, -0.000000000000000000, -1.000000000000000000 ) ) ;
#275 = CARTESIAN_POINT ( 'NONE',  ( 0.000000000000000000, 0.000000000000000000, 0.000000000000000000 ) ) ;
#276 = DIRECTION ( 'NONE',  ( -1.000000000000000000, 0.000000000000000000, 0.000000000000000000 ) ) ;
#277 = AXIS2_PLACEMENT_3D ( 'NONE', #101, #342, #194 ) ;
#278 = DIRECTION ( 'NONE',  ( 0.000000000000000000, 0.000000000000000000, 1.000000000000000000 ) ) ;
#279 = CARTESIAN_POINT ( 'NONE',  ( -8.000000000000000000, 0.000000000000000000, 5.000000000000000000 ) ) ;
#280 = CC_DESIGN_DATE_AND_TIME_ASSIGNMENT ( #92, #323, ( #99 ) ) ;
#281 = PLANE ( 'NONE',  #192 ) ;
#282 = DIRECTION ( 'NONE',  ( 1.000000000000000000, 0.000000000000000000, 0.000000000000000000 ) ) ;
#283 = PERSON_AND_ORGANIZATION_ROLE ( 'creator' ) ;
#284 = ORIENTED_EDGE ( 'NONE', *, *, #75, .T. ) ;
#285 = ADVANCED_FACE ( 'NONE', ( #223 ), #104, .T. ) ;
#286 = CARTESIAN_POINT ( 'NONE',  ( 0.000000000000000000, 0.000000000000000000, 0.000000000000000000 ) ) ;
#287 = ORIENTED_EDGE ( 'NONE', *, *, #202, .F. ) ;
#288 = CIRCLE ( 'NONE', #34, 3.000000000000000444 ) ;
#289 = APPROVAL_PERSON_ORGANIZATION ( #234, #180, #201 ) ;
#290 = EDGE_CURVE ( 'NONE', #82, #54, #186, .T. ) ;
#291 = PERSON_AND_ORGANIZATION ( #85, #305 ) ;
#292 = EDGE_LOOP ( 'NONE', ( #56, #236, #148, #231 ) ) ;
#293 = ADVANCED_FACE ( 'NONE', ( #49, #166 ), #281, .T. ) ;
#294 = ORIENTED_EDGE ( 'NONE', *, *, #141, .F. ) ;
#295 = DIRECTION ( 'NONE',  ( 1.000000000000000000, 0.000000000000000000, 0.000000000000000000 ) ) ;
#296 = CARTESIAN_POINT ( 'NONE',  ( 0.000000000000000000, 0.000000000000000000, 5.000000000000000000 ) ) ;
#297 = DIRECTION ( 'NONE',  ( -1.000000000000000000, 0.000000000000000000, 0.000000000000000000 ) ) ;
#298 = APPROVAL_ROLE ( '' ) ;
#299 = ORIENTED_EDGE ( 'NONE', *, *, #333, .T. ) ;
#300 = FACE_OUTER_BOUND ( 'NONE', #304, .T. ) ;
#301 = CC_DESIGN_APPROVAL ( #219, ( #99 ) ) ;
#302 = DIRECTION ( 'NONE',  ( -1.000000000000000000, 0.000000000000000000, 0.000000000000000000 ) ) ;
#303 = DIRECTION ( 'NONE',  ( 0.000000000000000000, 0.000000000000000000, -1.000000000000000000 ) ) ;
#304 = EDGE_LOOP ( 'NONE', ( #27, #237, #314, #287 ) ) ;
#305 = ORGANIZATION ( 'NEURÈENÝ', 'NEURÈENÝ', '' ) ;
#306 = FACE_OUTER_BOUND ( 'NONE', #254, .T. ) ;
#307 = CC_DESIGN_DATE_AND_TIME_ASSIGNMENT ( #111, #177, ( #271 ) ) ;
#308 = DIRECTION ( 'NONE',  ( 0.000000000000000000, 0.000000000000000000, -1.000000000000000000 ) ) ;
#309 =( NAMED_UNIT ( * ) PLANE_ANGLE_UNIT ( ) SI_UNIT ( $, .RADIAN. ) );
#310 = ADVANCED_FACE ( 'NONE', ( #229 ), #343, .F. ) ;
#311 = CARTESIAN_POINT ( 'NONE',  ( 0.000000000000000000, 0.000000000000000000, 155.0000000000000000 ) ) ;
#312 = ORIENTED_EDGE ( 'NONE', *, *, #45, .T. ) ;
#313 = DATE_AND_TIME ( #80, #28 ) ;
#314 = ORIENTED_EDGE ( 'NONE', *, *, #215, .T. ) ;
#315 = AXIS2_PLACEMENT_3D ( 'NONE', #41, #153, #93 ) ;
#316 = MECHANICAL_CONTEXT ( 'NONE', #188, 'mechanical' ) ;
#317 = EDGE_LOOP ( 'NONE', ( #349, #110, #324, #23 ) ) ;
#318 = EDGE_CURVE ( 'NONE', #90, #368, #109, .T. ) ;
#319 = CIRCLE ( 'NONE', #178, 5.000000000000000000 ) ;
#320 = LOCAL_TIME ( 16, 58, 29.00000000000000000, #31 ) ;
#321 = DIRECTION ( 'NONE',  ( 0.000000000000000000, 0.000000000000000000, 1.000000000000000000 ) ) ;
#322 = ORIENTED_EDGE ( 'NONE', *, *, #252, .T. ) ;
#323 = DATE_TIME_ROLE ( 'classification_date' ) ;
#324 = ORIENTED_EDGE ( 'NONE', *, *, #126, .T. ) ;
#325 = CIRCLE ( 'NONE', #269, 3.000000000000000444 ) ;
#326 = ADVANCED_FACE ( 'NONE', ( #196 ), #328, .F. ) ;
#327 = DIRECTION ( 'NONE',  ( -0.000000000000000000, -0.000000000000000000, -1.000000000000000000 ) ) ;
#328 = TOROIDAL_SURFACE ( 'NONE', #197, 5.500000000000000000, 0.5000000000000000000 ) ;
#329 = DIRECTION ( 'NONE',  ( -0.000000000000000000, -0.000000000000000000, -1.000000000000000000 ) ) ;
#330 = CARTESIAN_POINT ( 'NONE',  ( 0.000000000000000000, 0.000000000000000000, 155.0000000000000000 ) ) ;
#331 = LINE ( 'NONE', #91, #40 ) ;
#332 = CIRCLE ( 'NONE', #154, 0.5000000000000004441 ) ;
#333 = EDGE_CURVE ( 'NONE', #54, #82, #265, .T. ) ;
#334 = CARTESIAN_POINT ( 'NONE',  ( -5.000000000000000000, 0.000000000000000000, 5.500000000000005329 ) ) ;
#335 = AXIS2_PLACEMENT_3D ( 'NONE', #311, #321, #2 ) ;
#336 = CARTESIAN_POINT ( 'NONE',  ( 0.000000000000000000, 0.000000000000000000, 155.0000000000000000 ) ) ;
#337 = DIRECTION ( 'NONE',  ( -1.000000000000000000, 1.224646799147351482E-16, 0.000000000000000000 ) ) ;
#338 = CARTESIAN_POINT ( 'NONE',  ( 5.000000000000000000, 6.123233995736766282E-16, 155.0000000000000000 ) ) ;
#339 = AXIS2_PLACEMENT_3D ( 'NONE', #5, #97, #121 ) ;
#340 = CC_DESIGN_PERSON_AND_ORGANIZATION_ASSIGNMENT ( #26, #173, ( #172 ) ) ;
#341 = APPROVAL_PERSON_ORGANIZATION ( #36, #219, #298 ) ;
#342 = DIRECTION ( 'NONE',  ( 0.000000000000000000, 0.000000000000000000, 1.000000000000000000 ) ) ;
#343 = CYLINDRICAL_SURFACE ( 'NONE', #169, 3.000000000000000444 ) ;
#344 = EDGE_CURVE ( 'NONE', #59, #251, #367, .T. ) ;
#345 =( LENGTH_UNIT ( ) NAMED_UNIT ( * ) SI_UNIT ( .MILLI., .METRE. ) );
#346 = ORIENTED_EDGE ( 'NONE', *, *, #258, .T. ) ;
#347 = AXIS2_PLACEMENT_3D ( 'NONE', #132, #44, #247 ) ;
#348 = APPROVAL_STATUS ( 'not_yet_approved' ) ;
#349 = ORIENTED_EDGE ( 'NONE', *, *, #226, .F. ) ;
#350 = DIRECTION ( 'NONE',  ( -0.000000000000000000, -0.000000000000000000, -1.000000000000000000 ) ) ;
#351 = ORIENTED_EDGE ( 'NONE', *, *, #183, .F. ) ;
#352 = COORDINATED_UNIVERSAL_TIME_OFFSET ( 1, 0, .AHEAD. ) ;
#353 = EDGE_LOOP ( 'NONE', ( #259, #294 ) ) ;
#354 = VECTOR ( 'NONE', #308, 1000.000000000000000 ) ;
#355 =( GEOMETRIC_REPRESENTATION_CONTEXT ( 3 ) GLOBAL_UNCERTAINTY_ASSIGNED_CONTEXT ( ( #73 ) ) GLOBAL_UNIT_ASSIGNED_CONTEXT ( ( #345, #309, #50 ) ) REPRESENTATION_CONTEXT ( 'NONE', 'WORKASPACE' ) );
#356 = EDGE_LOOP ( 'NONE', ( #30, #87, #216, #322 ) ) ;
#357 = ADVANCED_FACE ( 'NONE', ( #380 ), #58, .T. ) ;
#358 = CARTESIAN_POINT ( 'NONE',  ( 5.000000000000000000, 6.123233995736766282E-16, 5.500000000000005329 ) ) ;
#359 = COORDINATED_UNIVERSAL_TIME_OFFSET ( 1, 0, .AHEAD. ) ;
#360 = CARTESIAN_POINT ( 'NONE',  ( 8.000000000000000000, 9.797174393178825657E-16, 0.000000000000000000 ) ) ;
#361 = APPROVAL_PERSON_ORGANIZATION ( #375, #77, #147 ) ;
#362 = DIRECTION ( 'NONE',  ( 0.000000000000000000, 0.000000000000000000, 1.000000000000000000 ) ) ;
#363 = DIRECTION ( 'NONE',  ( -0.000000000000000000, -0.000000000000000000, -1.000000000000000000 ) ) ;
#364 = FACE_OUTER_BOUND ( 'NONE', #317, .T. ) ;
#365 = CIRCLE ( 'NONE', #19, 3.000000000000000444 ) ;
#366 = CARTESIAN_POINT ( 'NONE',  ( 3.000000000000000444, 3.673940397442060361E-16, 0.000000000000000000 ) ) ;
#367 = CIRCLE ( 'NONE', #143, 8.000000000000000000 ) ;
#368 = VERTEX_POINT ( 'NONE', #170 ) ;
#369 = LINE ( 'NONE', #279, #8 ) ;
#370 = CARTESIAN_POINT ( 'NONE',  ( -3.000000000000000444, 0.000000000000000000, 155.0000000000000000 ) ) ;
#371 = VECTOR ( 'NONE', #228, 1000.000000000000000 ) ;
#372 = DIRECTION ( 'NONE',  ( 0.000000000000000000, 0.000000000000000000, 1.000000000000000000 ) ) ;
#373 = DATE_AND_TIME ( #255, #136 ) ;
#374 = ORIENTED_EDGE ( 'NONE', *, *, #60, .F. ) ;
#375 = PERSON_AND_ORGANIZATION ( #85, #305 ) ;
#376 = ORIENTED_EDGE ( 'NONE', *, *, #151, .T. ) ;
#377 = PRODUCT_DEFINITION_SHAPE ( 'NONE', 'NONE',  #271 ) ;
#378 = APPROVAL_DATE_TIME ( #373, #180 ) ;
#379 = ORIENTED_EDGE ( 'NONE', *, *, #21, .F. ) ;
#380 = FACE_OUTER_BOUND ( 'NONE', #356, .T. ) ;
#381 = ORIENTED_EDGE ( 'NONE', *, *, #318, .T. ) ;
ENDSEC;
END-ISO-10303-21;
