ISO-10303-21;
HEADER;
FILE_DESCRIPTION (( 'STEP AP203' ),
    '1' );
FILE_NAME ('99bd.STEP',
    '2022-07-08T14:52:45',
    ( '' ),
    ( '' ),
    'SwSTEP 2.0',
    'SolidWorks 2019',
    '' );
FILE_SCHEMA (( 'CONFIG_CONTROL_DESIGN' ));
ENDSEC;

DATA;
#1 = DIRECTION ( 'NONE',  ( 1.000000000000000000, 0.000000000000000000, 0.000000000000000000 ) ) ;
#2 = ADVANCED_FACE ( 'NONE', ( #302 ), #9, .F. ) ;
#3 = CC_DESIGN_PERSON_AND_ORGANIZATION_ASSIGNMENT ( #263, #265, ( #187 ) ) ;
#4 = ADVANCED_FACE ( 'NONE', ( #42 ), #344, .F. ) ;
#5 = APPLICATION_PROTOCOL_DEFINITION ( 'international standard', 'config_control_design', 1994, #180 ) ;
#6 = DIRECTION ( 'NONE',  ( 0.000000000000000000, 0.000000000000000000, 1.000000000000000000 ) ) ;
#7 = ADVANCED_BREP_SHAPE_REPRESENTATION ( '99bd', ( #123, #44 ), #28 ) ;
#8 = CYLINDRICAL_SURFACE ( 'NONE', #355, 6.000000000000000888 ) ;
#9 = CYLINDRICAL_SURFACE ( 'NONE', #15, 3.000000000000000444 ) ;
#10 = ORIENTED_EDGE ( 'NONE', *, *, #192, .F. ) ;
#11 = DIRECTION ( 'NONE',  ( -1.000000000000000000, 0.000000000000000000, 0.000000000000000000 ) ) ;
#12 = ORIENTED_EDGE ( 'NONE', *, *, #69, .F. ) ;
#13 = UNCERTAINTY_MEASURE_WITH_UNIT (LENGTH_MEASURE( 1.000000000000000082E-05 ), #172, 'distance_accuracy_value', 'NONE');
#14 = PERSON_AND_ORGANIZATION ( #275, #320 ) ;
#15 = AXIS2_PLACEMENT_3D ( 'NONE', #154, #181, #247 ) ;
#16 = EDGE_LOOP ( 'NONE', ( #299, #102, #276, #59 ) ) ;
#17 = SECURITY_CLASSIFICATION ( '', '', #162 ) ;
#18 = DIRECTION ( 'NONE',  ( -0.000000000000000000, -0.000000000000000000, -1.000000000000000000 ) ) ;
#19 = EDGE_CURVE ( 'NONE', #253, #285, #125, .T. ) ;
#20 = ORIENTED_EDGE ( 'NONE', *, *, #375, .F. ) ;
#21 = EDGE_CURVE ( 'NONE', #334, #260, #345, .T. ) ;
#22 = PERSON_AND_ORGANIZATION_ROLE ( 'classification_officer' ) ;
#23 = DIRECTION ( 'NONE',  ( 1.000000000000000000, 0.000000000000000000, 0.000000000000000000 ) ) ;
#24 = ORIENTED_EDGE ( 'NONE', *, *, #124, .T. ) ;
#25 = DATE_AND_TIME ( #151, #217 ) ;
#26 = CARTESIAN_POINT ( 'NONE',  ( 0.000000000000000000, 0.000000000000000000, 557.0000000000000000 ) ) ;
#27 = CARTESIAN_POINT ( 'NONE',  ( 0.000000000000000000, 0.000000000000000000, 7.499999999999951150 ) ) ;
#28 =( GEOMETRIC_REPRESENTATION_CONTEXT ( 3 ) GLOBAL_UNCERTAINTY_ASSIGNED_CONTEXT ( ( #13 ) ) GLOBAL_UNIT_ASSIGNED_CONTEXT ( ( #172, #148, #235 ) ) REPRESENTATION_CONTEXT ( 'NONE', 'WORKASPACE' ) );
#29 = EDGE_LOOP ( 'NONE', ( #183, #72 ) ) ;
#30 = CARTESIAN_POINT ( 'NONE',  ( 0.000000000000000000, 0.000000000000000000, 0.000000000000000000 ) ) ;
#31 = CARTESIAN_POINT ( 'NONE',  ( 10.00000000000000000, 1.224646799147353256E-15, 0.000000000000000000 ) ) ;
#32 = VERTEX_POINT ( 'NONE', #297 ) ;
#33 = DIRECTION ( 'NONE',  ( 1.000000000000000000, 0.000000000000000000, 0.000000000000000000 ) ) ;
#34 = LOCAL_TIME ( 16, 52, 45.00000000000000000, #220 ) ;
#35 = CARTESIAN_POINT ( 'NONE',  ( 0.000000000000000000, 0.000000000000000000, 0.000000000000000000 ) ) ;
#36 = ADVANCED_FACE ( 'NONE', ( #211 ), #339, .T. ) ;
#37 = FACE_OUTER_BOUND ( 'NONE', #226, .T. ) ;
#38 = AXIS2_PLACEMENT_3D ( 'NONE', #367, #18, #331 ) ;
#39 = ADVANCED_FACE ( 'NONE', ( #274 ), #8, .T. ) ;
#40 = DIRECTION ( 'NONE',  ( 1.000000000000000000, 0.000000000000000000, 0.000000000000000000 ) ) ;
#41 = PERSON_AND_ORGANIZATION_ROLE ( 'design_supplier' ) ;
#42 = FACE_OUTER_BOUND ( 'NONE', #16, .T. ) ;
#43 = CARTESIAN_POINT ( 'NONE',  ( 0.000000000000000000, 0.000000000000000000, 557.0000000000000000 ) ) ;
#44 = AXIS2_PLACEMENT_3D ( 'NONE', #67, #6, #204 ) ;
#45 = ORIENTED_EDGE ( 'NONE', *, *, #21, .T. ) ;
#46 = DIRECTION ( 'NONE',  ( 1.000000000000000000, 0.000000000000000000, 0.000000000000000000 ) ) ;
#47 = ORIENTED_EDGE ( 'NONE', *, *, #69, .T. ) ;
#48 = APPROVAL_STATUS ( 'not_yet_approved' ) ;
#49 = FACE_OUTER_BOUND ( 'NONE', #201, .T. ) ;
#50 = AXIS2_PLACEMENT_3D ( 'NONE', #30, #259, #1 ) ;
#51 = CARTESIAN_POINT ( 'NONE',  ( 0.000000000000000000, 0.000000000000000000, 7.000000000000000000 ) ) ;
#52 = APPROVAL ( #186, 'NEURÈENÝ' ) ;
#53 = DIRECTION ( 'NONE',  ( -0.000000000000000000, -0.000000000000000000, -1.000000000000000000 ) ) ;
#54 = DIRECTION ( 'NONE',  ( 0.000000000000000000, 0.000000000000000000, 1.000000000000000000 ) ) ;
#55 = ORIENTED_EDGE ( 'NONE', *, *, #118, .F. ) ;
#56 = AXIS2_PLACEMENT_3D ( 'NONE', #73, #243, #99 ) ;
#57 = EDGE_CURVE ( 'NONE', #303, #156, #266, .T. ) ;
#58 = CARTESIAN_POINT ( 'NONE',  ( 6.000000000000000888, 7.347880794884120722E-16, 557.0000000000000000 ) ) ;
#59 = ORIENTED_EDGE ( 'NONE', *, *, #301, .F. ) ;
#60 = DIRECTION ( 'NONE',  ( -1.000000000000000000, 1.224646799147351482E-16, 0.000000000000000000 ) ) ;
#61 = DIRECTION ( 'NONE',  ( 0.000000000000000000, 0.000000000000000000, 1.000000000000000000 ) ) ;
#62 = DIRECTION ( 'NONE',  ( -0.000000000000000000, -0.000000000000000000, -1.000000000000000000 ) ) ;
#63 = AXIS2_PLACEMENT_3D ( 'NONE', #314, #252, #199 ) ;
#64 = LOCAL_TIME ( 16, 52, 45.00000000000000000, #330 ) ;
#65 = PLANE ( 'NONE',  #182 ) ;
#66 = ADVANCED_FACE ( 'NONE', ( #49 ), #159, .T. ) ;
#67 = CARTESIAN_POINT ( 'NONE',  ( 0.000000000000000000, 0.000000000000000000, 0.000000000000000000 ) ) ;
#68 = CIRCLE ( 'NONE', #50, 3.000000000000000444 ) ;
#69 = EDGE_CURVE ( 'NONE', #260, #213, #70, .T. ) ;
#70 = LINE ( 'NONE', #178, #200 ) ;
#71 = ORIENTED_EDGE ( 'NONE', *, *, #145, .T. ) ;
#72 = ORIENTED_EDGE ( 'NONE', *, *, #238, .F. ) ;
#73 = CARTESIAN_POINT ( 'NONE',  ( 0.000000000000000000, 0.000000000000000000, 7.000000000000000000 ) ) ;
#74 = EDGE_LOOP ( 'NONE', ( #139, #45 ) ) ;
#75 = EDGE_LOOP ( 'NONE', ( #222, #10 ) ) ;
#76 = CARTESIAN_POINT ( 'NONE',  ( 0.000000000000000000, 0.000000000000000000, 7.000000000000000000 ) ) ;
#77 = CARTESIAN_POINT ( 'NONE',  ( -10.00000000000000000, 0.000000000000000000, 7.000000000000000000 ) ) ;
#78 = PRODUCT_DEFINITION_SHAPE ( 'NONE', 'NONE',  #196 ) ;
#79 = CIRCLE ( 'NONE', #325, 6.500000000000000888 ) ;
#80 = DIRECTION ( 'NONE',  ( 1.000000000000000000, 0.000000000000000000, 0.000000000000000000 ) ) ;
#81 = PERSON_AND_ORGANIZATION_ROLE ( 'creator' ) ;
#82 = LINE ( 'NONE', #198, #193 ) ;
#83 = DIRECTION ( 'NONE',  ( 0.000000000000000000, 0.000000000000000000, -1.000000000000000000 ) ) ;
#84 = ORIENTED_EDGE ( 'NONE', *, *, #192, .T. ) ;
#85 = VECTOR ( 'NONE', #53, 1000.000000000000000 ) ;
#86 = CARTESIAN_POINT ( 'NONE',  ( -3.000000000000000444, 0.000000000000000000, 557.0000000000000000 ) ) ;
#87 = DIRECTION ( 'NONE',  ( -0.000000000000000000, -0.000000000000000000, -1.000000000000000000 ) ) ;
#88 = CARTESIAN_POINT ( 'NONE',  ( 3.000000000000000444, 3.673940397442060361E-16, 557.0000000000000000 ) ) ;
#89 = APPROVAL ( #48, 'NEURÈENÝ' ) ;
#90 = DIRECTION ( 'NONE',  ( 0.000000000000000000, 0.000000000000000000, 1.000000000000000000 ) ) ;
#91 = CC_DESIGN_APPROVAL ( #359, ( #196 ) ) ;
#92 = MECHANICAL_CONTEXT ( 'NONE', #166, 'mechanical' ) ;
#93 = ADVANCED_FACE ( 'NONE', ( #295, #152 ), #270, .T. ) ;
#94 = COORDINATED_UNIVERSAL_TIME_OFFSET ( 1, 0, .AHEAD. ) ;
#95 = CARTESIAN_POINT ( 'NONE',  ( 0.000000000000000000, 0.000000000000000000, 557.0000000000000000 ) ) ;
#96 = VECTOR ( 'NONE', #202, 1000.000000000000000 ) ;
#97 = VERTEX_POINT ( 'NONE', #169 ) ;
#98 = ORIENTED_EDGE ( 'NONE', *, *, #238, .T. ) ;
#99 = DIRECTION ( 'NONE',  ( -1.000000000000000000, 0.000000000000000000, 0.000000000000000000 ) ) ;
#100 = CC_DESIGN_PERSON_AND_ORGANIZATION_ASSIGNMENT ( #157, #41, ( #248 ) ) ;
#101 = ORIENTED_EDGE ( 'NONE', *, *, #324, .F. ) ;
#102 = ORIENTED_EDGE ( 'NONE', *, *, #244, .T. ) ;
#103 = CALENDAR_DATE ( 2022, 8, 7 ) ;
#104 = ORIENTED_EDGE ( 'NONE', *, *, #236, .T. ) ;
#105 = DATE_TIME_ROLE ( 'creation_date' ) ;
#106 = EDGE_CURVE ( 'NONE', #143, #218, #158, .T. ) ;
#107 = DIRECTION ( 'NONE',  ( -0.000000000000000000, -0.000000000000000000, -1.000000000000000000 ) ) ;
#108 = DIRECTION ( 'NONE',  ( 0.000000000000000000, 0.000000000000000000, 1.000000000000000000 ) ) ;
#109 = ORIENTED_EDGE ( 'NONE', *, *, #244, .F. ) ;
#110 = CALENDAR_DATE ( 2022, 8, 7 ) ;
#111 = CARTESIAN_POINT ( 'NONE',  ( -6.000000000000000888, 0.000000000000000000, 7.499999999999951150 ) ) ;
#112 = VERTEX_POINT ( 'NONE', #86 ) ;
#113 = CARTESIAN_POINT ( 'NONE',  ( 0.000000000000000000, 0.000000000000000000, 557.0000000000000000 ) ) ;
#114 = ORIENTED_EDGE ( 'NONE', *, *, #57, .T. ) ;
#115 = CC_DESIGN_DATE_AND_TIME_ASSIGNMENT ( #250, #105, ( #196 ) ) ;
#116 = CARTESIAN_POINT ( 'NONE',  ( -6.500000000000000888, 7.960204194457796463E-16, 7.499999999999951150 ) ) ;
#117 = VECTOR ( 'NONE', #173, 1000.000000000000000 ) ;
#118 = EDGE_CURVE ( 'NONE', #136, #213, #237, .T. ) ;
#119 = CARTESIAN_POINT ( 'NONE',  ( 0.000000000000000000, 0.000000000000000000, 557.0000000000000000 ) ) ;
#120 = PERSON_AND_ORGANIZATION ( #275, #320 ) ;
#121 = FACE_BOUND ( 'NONE', #29, .T. ) ;
#122 = LOCAL_TIME ( 16, 52, 45.00000000000000000, #280 ) ;
#123 = MANIFOLD_SOLID_BREP ( 'Odebrat vysunutím3', #208 ) ;
#124 = EDGE_CURVE ( 'NONE', #156, #253, #356, .T. ) ;
#125 = CIRCLE ( 'NONE', #328, 10.00000000000000000 ) ;
#126 = ORIENTED_EDGE ( 'NONE', *, *, #324, .T. ) ;
#127 = AXIS2_PLACEMENT_3D ( 'NONE', #254, #108, #167 ) ;
#128 = CIRCLE ( 'NONE', #283, 3.000000000000000444 ) ;
#129 = ORIENTED_EDGE ( 'NONE', *, *, #106, .T. ) ;
#130 = DIRECTION ( 'NONE',  ( -0.000000000000000000, -0.000000000000000000, -1.000000000000000000 ) ) ;
#131 = ORIENTED_EDGE ( 'NONE', *, *, #21, .F. ) ;
#132 = DIRECTION ( 'NONE',  ( 0.000000000000000000, 0.000000000000000000, 1.000000000000000000 ) ) ;
#133 = ORIENTED_EDGE ( 'NONE', *, *, #375, .T. ) ;
#134 = ADVANCED_FACE ( 'NONE', ( #348, #142 ), #164, .T. ) ;
#135 = APPROVAL_PERSON_ORGANIZATION ( #120, #359, #240 ) ;
#136 = VERTEX_POINT ( 'NONE', #163 ) ;
#137 = APPROVAL_DATE_TIME ( #197, #359 ) ;
#138 = DIRECTION ( 'NONE',  ( 0.000000000000000000, 0.000000000000000000, 1.000000000000000000 ) ) ;
#139 = ORIENTED_EDGE ( 'NONE', *, *, #327, .T. ) ;
#140 = DIRECTION ( 'NONE',  ( -1.000000000000000000, 0.000000000000000000, 0.000000000000000000 ) ) ;
#141 = CIRCLE ( 'NONE', #277, 6.000000000000000888 ) ;
#142 = FACE_OUTER_BOUND ( 'NONE', #74, .T. ) ;
#143 = VERTEX_POINT ( 'NONE', #281 ) ;
#144 = CARTESIAN_POINT ( 'NONE',  ( 10.00000000000000000, 1.224646799147353256E-15, 7.000000000000000000 ) ) ;
#145 = EDGE_CURVE ( 'NONE', #303, #285, #231, .T. ) ;
#146 = AXIS2_PLACEMENT_3D ( 'NONE', #176, #62, #287 ) ;
#147 = DIRECTION ( 'NONE',  ( 1.000000000000000000, 0.000000000000000000, 0.000000000000000000 ) ) ;
#148 =( NAMED_UNIT ( * ) PLANE_ANGLE_UNIT ( ) SI_UNIT ( $, .RADIAN. ) );
#149 = DIRECTION ( 'NONE',  ( 0.000000000000000000, 0.000000000000000000, 1.000000000000000000 ) ) ;
#150 = DIRECTION ( 'NONE',  ( 0.000000000000000000, 0.000000000000000000, 1.000000000000000000 ) ) ;
#151 = CALENDAR_DATE ( 2022, 8, 7 ) ;
#152 = FACE_OUTER_BOUND ( 'NONE', #368, .T. ) ;
#153 = EDGE_LOOP ( 'NONE', ( #133, #126, #98, #319 ) ) ;
#154 = CARTESIAN_POINT ( 'NONE',  ( 0.000000000000000000, 0.000000000000000000, 557.0000000000000000 ) ) ;
#155 = ORIENTED_EDGE ( 'NONE', *, *, #215, .F. ) ;
#156 = VERTEX_POINT ( 'NONE', #257 ) ;
#157 = PERSON_AND_ORGANIZATION ( #275, #320 ) ;
#158 = CIRCLE ( 'NONE', #63, 6.500000000000000888 ) ;
#159 = CYLINDRICAL_SURFACE ( 'NONE', #38, 6.000000000000000888 ) ;
#160 = ORIENTED_EDGE ( 'NONE', *, *, #215, .T. ) ;
#161 = AXIS2_PLACEMENT_3D ( 'NONE', #113, #138, #317 ) ;
#162 = SECURITY_CLASSIFICATION_LEVEL ( 'unclassified' ) ;
#163 = CARTESIAN_POINT ( 'NONE',  ( 6.000000000000000888, 7.347880794884120722E-16, 7.499999999999951150 ) ) ;
#164 = PLANE ( 'NONE',  #161 ) ;
#165 = EDGE_CURVE ( 'NONE', #340, #112, #309, .T. ) ;
#166 = APPLICATION_CONTEXT ( 'configuration controlled 3d designs of mechanical parts and assemblies' ) ;
#167 = DIRECTION ( 'NONE',  ( 1.000000000000000000, 0.000000000000000000, 0.000000000000000000 ) ) ;
#168 = DIRECTION ( 'NONE',  ( 0.000000000000000000, 0.000000000000000000, -1.000000000000000000 ) ) ;
#169 = CARTESIAN_POINT ( 'NONE',  ( 3.000000000000000444, 3.673940397442060361E-16, 0.000000000000000000 ) ) ;
#170 = AXIS2_PLACEMENT_3D ( 'NONE', #195, #318, #379 ) ;
#171 = AXIS2_PLACEMENT_3D ( 'NONE', #116, #321, #60 ) ;
#172 =( LENGTH_UNIT ( ) NAMED_UNIT ( * ) SI_UNIT ( .MILLI., .METRE. ) );
#173 = DIRECTION ( 'NONE',  ( 0.000000000000000000, 0.000000000000000000, -1.000000000000000000 ) ) ;
#174 = ADVANCED_FACE ( 'NONE', ( #376 ), #230, .F. ) ;
#175 = AXIS2_PLACEMENT_3D ( 'NONE', #43, #336, #179 ) ;
#176 = CARTESIAN_POINT ( 'NONE',  ( 0.000000000000000000, 0.000000000000000000, 7.000000000000000000 ) ) ;
#177 = APPROVAL_PERSON_ORGANIZATION ( #14, #52, #190 ) ;
#178 = CARTESIAN_POINT ( 'NONE',  ( -6.000000000000000888, 0.000000000000000000, 557.0000000000000000 ) ) ;
#179 = DIRECTION ( 'NONE',  ( 1.000000000000000000, 0.000000000000000000, 0.000000000000000000 ) ) ;
#180 = APPLICATION_CONTEXT ( 'configuration controlled 3d designs of mechanical parts and assemblies' ) ;
#181 = DIRECTION ( 'NONE',  ( 0.000000000000000000, 0.000000000000000000, -1.000000000000000000 ) ) ;
#182 = AXIS2_PLACEMENT_3D ( 'NONE', #362, #150, #207 ) ;
#183 = ORIENTED_EDGE ( 'NONE', *, *, #342, .F. ) ;
#184 = DIRECTION ( 'NONE',  ( 0.000000000000000000, 0.000000000000000000, 1.000000000000000000 ) ) ;
#185 = EDGE_LOOP ( 'NONE', ( #109, #55, #271, #372 ) ) ;
#186 = APPROVAL_STATUS ( 'not_yet_approved' ) ;
#187 = PRODUCT ( '99bd', '99bd', '', ( #92 ) ) ;
#188 = DIRECTION ( 'NONE',  ( 0.000000000000000000, 0.000000000000000000, 1.000000000000000000 ) ) ;
#189 = ORIENTED_EDGE ( 'NONE', *, *, #315, .T. ) ;
#190 = APPROVAL_ROLE ( '' ) ;
#191 = CARTESIAN_POINT ( 'NONE',  ( 0.000000000000000000, 0.000000000000000000, 7.499999999999951150 ) ) ;
#192 = EDGE_CURVE ( 'NONE', #285, #253, #241, .T. ) ;
#193 = VECTOR ( 'NONE', #168, 1000.000000000000000 ) ;
#194 = DATE_TIME_ROLE ( 'classification_date' ) ;
#195 = CARTESIAN_POINT ( 'NONE',  ( 0.000000000000000000, 0.000000000000000000, 7.000000000000000000 ) ) ;
#196 = PRODUCT_DEFINITION ( 'NEZNÁMÝ', '', #248, #329 ) ;
#197 = DATE_AND_TIME ( #110, #357 ) ;
#198 = CARTESIAN_POINT ( 'NONE',  ( -3.000000000000000444, 0.000000000000000000, 557.0000000000000000 ) ) ;
#199 = DIRECTION ( 'NONE',  ( 1.000000000000000000, 0.000000000000000000, 0.000000000000000000 ) ) ;
#200 = VECTOR ( 'NONE', #212, 1000.000000000000000 ) ;
#201 = EDGE_LOOP ( 'NONE', ( #131, #160, #312, #12 ) ) ;
#202 = DIRECTION ( 'NONE',  ( -0.000000000000000000, -0.000000000000000000, -1.000000000000000000 ) ) ;
#203 = ORIENTED_EDGE ( 'NONE', *, *, #57, .F. ) ;
#204 = DIRECTION ( 'NONE',  ( 1.000000000000000000, 0.000000000000000000, 0.000000000000000000 ) ) ;
#205 = CARTESIAN_POINT ( 'NONE',  ( 3.000000000000000444, 3.673940397442060361E-16, 557.0000000000000000 ) ) ;
#206 = CARTESIAN_POINT ( 'NONE',  ( 0.000000000000000000, 0.000000000000000000, 7.000000000000000000 ) ) ;
#207 = DIRECTION ( 'NONE',  ( 1.000000000000000000, 0.000000000000000000, -0.000000000000000000 ) ) ;
#208 = CLOSED_SHELL ( 'NONE', ( #2, #4, #66, #36, #326, #93, #350, #39, #134, #311, #174 ) ) ;
#209 = EDGE_CURVE ( 'NONE', #156, #303, #347, .T. ) ;
#210 = PERSON_AND_ORGANIZATION ( #275, #320 ) ;
#211 = FACE_OUTER_BOUND ( 'NONE', #307, .T. ) ;
#212 = DIRECTION ( 'NONE',  ( -0.000000000000000000, -0.000000000000000000, -1.000000000000000000 ) ) ;
#213 = VERTEX_POINT ( 'NONE', #111 ) ;
#214 = ORIENTED_EDGE ( 'NONE', *, *, #305, .T. ) ;
#215 = EDGE_CURVE ( 'NONE', #334, #136, #354, .T. ) ;
#216 = CARTESIAN_POINT ( 'NONE',  ( 0.000000000000000000, 0.000000000000000000, 7.499999999999951150 ) ) ;
#217 = LOCAL_TIME ( 16, 52, 45.00000000000000000, #94 ) ;
#218 = VERTEX_POINT ( 'NONE', #353 ) ;
#219 = CC_DESIGN_PERSON_AND_ORGANIZATION_ASSIGNMENT ( #300, #22, ( #17 ) ) ;
#220 = COORDINATED_UNIVERSAL_TIME_OFFSET ( 1, 0, .AHEAD. ) ;
#221 = DIRECTION ( 'NONE',  ( 1.000000000000000000, 0.000000000000000000, 0.000000000000000000 ) ) ;
#222 = ORIENTED_EDGE ( 'NONE', *, *, #19, .F. ) ;
#223 = DIRECTION ( 'NONE',  ( 0.000000000000000000, 0.000000000000000000, -1.000000000000000000 ) ) ;
#224 = PRODUCT_RELATED_PRODUCT_CATEGORY ( 'detail', '', ( #187 ) ) ;
#225 = DIRECTION ( 'NONE',  ( 0.000000000000000000, 0.000000000000000000, 1.000000000000000000 ) ) ;
#226 = EDGE_LOOP ( 'NONE', ( #363, #337, #24, #377 ) ) ;
#227 = VECTOR ( 'NONE', #107, 1000.000000000000000 ) ;
#228 = APPROVAL_PERSON_ORGANIZATION ( #210, #89, #346 ) ;
#229 = PERSON_AND_ORGANIZATION ( #275, #320 ) ;
#230 = CYLINDRICAL_SURFACE ( 'NONE', #289, 3.000000000000000444 ) ;
#231 = LINE ( 'NONE', #144, #96 ) ;
#232 = DIRECTION ( 'NONE',  ( 0.000000000000000000, 0.000000000000000000, 1.000000000000000000 ) ) ;
#233 = AXIS2_PLACEMENT_3D ( 'NONE', #216, #184, #221 ) ;
#234 = DIRECTION ( 'NONE',  ( 1.000000000000000000, 0.000000000000000000, 0.000000000000000000 ) ) ;
#235 =( NAMED_UNIT ( * ) SI_UNIT ( $, .STERADIAN. ) SOLID_ANGLE_UNIT ( ) );
#236 = EDGE_CURVE ( 'NONE', #112, #32, #82, .T. ) ;
#237 = CIRCLE ( 'NONE', #246, 6.000000000000000888 ) ;
#238 = EDGE_CURVE ( 'NONE', #97, #32, #68, .T. ) ;
#239 = DIRECTION ( 'NONE',  ( -0.000000000000000000, -0.000000000000000000, -1.000000000000000000 ) ) ;
#240 = APPROVAL_ROLE ( '' ) ;
#241 = CIRCLE ( 'NONE', #127, 10.00000000000000000 ) ;
#242 = CC_DESIGN_APPROVAL ( #52, ( #248 ) ) ;
#243 = DIRECTION ( 'NONE',  ( -0.000000000000000000, -0.000000000000000000, -1.000000000000000000 ) ) ;
#244 = EDGE_CURVE ( 'NONE', #213, #143, #335, .T. ) ;
#245 = AXIS2_PLACEMENT_3D ( 'NONE', #51, #232, #381 ) ;
#246 = AXIS2_PLACEMENT_3D ( 'NONE', #27, #225, #282 ) ;
#247 = DIRECTION ( 'NONE',  ( -1.000000000000000000, 0.000000000000000000, 0.000000000000000000 ) ) ;
#248 = PRODUCT_DEFINITION_FORMATION_WITH_SPECIFIED_SOURCE ( 'LIBOVOLNÝ', '', #187, .NOT_KNOWN. ) ;
#249 = ORIENTED_EDGE ( 'NONE', *, *, #342, .T. ) ;
#250 = DATE_AND_TIME ( #373, #34 ) ;
#251 = CARTESIAN_POINT ( 'NONE',  ( 6.500000000000000888, 0.000000000000000000, 7.499999999999951150 ) ) ;
#252 = DIRECTION ( 'NONE',  ( -0.000000000000000000, -0.000000000000000000, -1.000000000000000000 ) ) ;
#253 = VERTEX_POINT ( 'NONE', #279 ) ;
#254 = CARTESIAN_POINT ( 'NONE',  ( 0.000000000000000000, 0.000000000000000000, 0.000000000000000000 ) ) ;
#255 = ORIENTED_EDGE ( 'NONE', *, *, #165, .F. ) ;
#256 = CC_DESIGN_APPROVAL ( #89, ( #17 ) ) ;
#257 = CARTESIAN_POINT ( 'NONE',  ( -10.00000000000000000, 0.000000000000000000, 7.000000000000000000 ) ) ;
#258 = EDGE_LOOP ( 'NONE', ( #189, #129 ) ) ;
#259 = DIRECTION ( 'NONE',  ( -0.000000000000000000, -0.000000000000000000, -1.000000000000000000 ) ) ;
#260 = VERTEX_POINT ( 'NONE', #286 ) ;
#261 = FACE_OUTER_BOUND ( 'NONE', #185, .T. ) ;
#262 = AXIS2_PLACEMENT_3D ( 'NONE', #268, #61, #234 ) ;
#263 = PERSON_AND_ORGANIZATION ( #275, #320 ) ;
#264 = CC_DESIGN_PERSON_AND_ORGANIZATION_ASSIGNMENT ( #304, #81, ( #196 ) ) ;
#265 = PERSON_AND_ORGANIZATION_ROLE ( 'design_owner' ) ;
#266 = CIRCLE ( 'NONE', #370, 10.00000000000000000 ) ;
#267 = AXIS2_PLACEMENT_3D ( 'NONE', #358, #90, #33 ) ;
#268 = CARTESIAN_POINT ( 'NONE',  ( 0.000000000000000000, 0.000000000000000000, 7.499999999999951150 ) ) ;
#269 = DATE_AND_TIME ( #103, #122 ) ;
#270 = PLANE ( 'NONE',  #245 ) ;
#271 = ORIENTED_EDGE ( 'NONE', *, *, #301, .T. ) ;
#272 = CIRCLE ( 'NONE', #361, 0.5000000000000004441 ) ;
#273 = ORIENTED_EDGE ( 'NONE', *, *, #165, .T. ) ;
#274 = FACE_OUTER_BOUND ( 'NONE', #296, .T. ) ;
#275 = PERSON ( 'NEURÈENÝ', 'NEURÈENÝ', 'NEURÈENÝ', ('NEURÈENÝ'), ('NEURÈENÝ'), ('NEURÈENÝ') ) ;
#276 = ORIENTED_EDGE ( 'NONE', *, *, #315, .F. ) ;
#277 = AXIS2_PLACEMENT_3D ( 'NONE', #191, #310, #23 ) ;
#278 = PERSON_AND_ORGANIZATION_ROLE ( 'creator' ) ;
#279 = CARTESIAN_POINT ( 'NONE',  ( -10.00000000000000000, 0.000000000000000000, 0.000000000000000000 ) ) ;
#280 = COORDINATED_UNIVERSAL_TIME_OFFSET ( 1, 0, .AHEAD. ) ;
#281 = CARTESIAN_POINT ( 'NONE',  ( -6.500000000000000888, 7.960204194457796463E-16, 6.999999999999975131 ) ) ;
#282 = DIRECTION ( 'NONE',  ( 1.000000000000000000, 0.000000000000000000, 0.000000000000000000 ) ) ;
#283 = AXIS2_PLACEMENT_3D ( 'NONE', #35, #87, #294 ) ;
#284 = CARTESIAN_POINT ( 'NONE',  ( 0.000000000000000000, 0.000000000000000000, 557.0000000000000000 ) ) ;
#285 = VERTEX_POINT ( 'NONE', #31 ) ;
#286 = CARTESIAN_POINT ( 'NONE',  ( -6.000000000000000888, 0.000000000000000000, 557.0000000000000000 ) ) ;
#287 = DIRECTION ( 'NONE',  ( -1.000000000000000000, 0.000000000000000000, 0.000000000000000000 ) ) ;
#288 = CC_DESIGN_DATE_AND_TIME_ASSIGNMENT ( #269, #194, ( #17 ) ) ;
#289 = AXIS2_PLACEMENT_3D ( 'NONE', #26, #83, #140 ) ;
#290 = TOROIDAL_SURFACE ( 'NONE', #262, 6.500000000000000888, 0.5000000000000000000 ) ;
#291 = LINE ( 'NONE', #88, #117 ) ;
#292 = CYLINDRICAL_SURFACE ( 'NONE', #146, 10.00000000000000000 ) ;
#293 = AXIS2_PLACEMENT_3D ( 'NONE', #119, #149, #147 ) ;
#294 = DIRECTION ( 'NONE',  ( 1.000000000000000000, 0.000000000000000000, 0.000000000000000000 ) ) ;
#295 = FACE_BOUND ( 'NONE', #258, .T. ) ;
#296 = EDGE_LOOP ( 'NONE', ( #155, #351, #47, #214 ) ) ;
#297 = CARTESIAN_POINT ( 'NONE',  ( -3.000000000000000444, 0.000000000000000000, 0.000000000000000000 ) ) ;
#298 = EDGE_LOOP ( 'NONE', ( #20, #255 ) ) ;
#299 = ORIENTED_EDGE ( 'NONE', *, *, #305, .F. ) ;
#300 = PERSON_AND_ORGANIZATION ( #275, #320 ) ;
#301 = EDGE_CURVE ( 'NONE', #136, #218, #272, .T. ) ;
#302 = FACE_OUTER_BOUND ( 'NONE', #153, .T. ) ;
#303 = VERTEX_POINT ( 'NONE', #343 ) ;
#304 = PERSON_AND_ORGANIZATION ( #275, #320 ) ;
#305 = EDGE_CURVE ( 'NONE', #213, #136, #141, .T. ) ;
#306 = DIRECTION ( 'NONE',  ( 1.000000000000000000, 0.000000000000000000, 0.000000000000000000 ) ) ;
#307 = EDGE_LOOP ( 'NONE', ( #203, #71, #84, #369 ) ) ;
#308 = CALENDAR_DATE ( 2022, 8, 7 ) ;
#309 = CIRCLE ( 'NONE', #364, 3.000000000000000444 ) ;
#310 = DIRECTION ( 'NONE',  ( 0.000000000000000000, 0.000000000000000000, 1.000000000000000000 ) ) ;
#311 = ADVANCED_FACE ( 'NONE', ( #261 ), #290, .F. ) ;
#312 = ORIENTED_EDGE ( 'NONE', *, *, #118, .T. ) ;
#313 = DATE_AND_TIME ( #308, #64 ) ;
#314 = CARTESIAN_POINT ( 'NONE',  ( 0.000000000000000000, 0.000000000000000000, 7.000000000000000000 ) ) ;
#315 = EDGE_CURVE ( 'NONE', #218, #143, #79, .T. ) ;
#316 = ORIENTED_EDGE ( 'NONE', *, *, #209, .T. ) ;
#317 = DIRECTION ( 'NONE',  ( 1.000000000000000000, 0.000000000000000000, -0.000000000000000000 ) ) ;
#318 = DIRECTION ( 'NONE',  ( 0.000000000000000000, 0.000000000000000000, 1.000000000000000000 ) ) ;
#319 = ORIENTED_EDGE ( 'NONE', *, *, #236, .F. ) ;
#320 = ORGANIZATION ( 'NEURÈENÝ', 'NEURÈENÝ', '' ) ;
#321 = DIRECTION ( 'NONE',  ( 1.224646799147353207E-16, 1.000000000000000000, -0.000000000000000000 ) ) ;
#322 = FACE_OUTER_BOUND ( 'NONE', #75, .T. ) ;
#323 = APPLICATION_PROTOCOL_DEFINITION ( 'international standard', 'config_control_design', 1994, #166 ) ;
#324 = EDGE_CURVE ( 'NONE', #340, #97, #291, .T. ) ;
#325 = AXIS2_PLACEMENT_3D ( 'NONE', #206, #239, #40 ) ;
#326 = ADVANCED_FACE ( 'NONE', ( #37 ), #292, .T. ) ;
#327 = EDGE_CURVE ( 'NONE', #260, #334, #380, .T. ) ;
#328 = AXIS2_PLACEMENT_3D ( 'NONE', #333, #132, #46 ) ;
#329 = DESIGN_CONTEXT ( 'detailed design', #180, 'design' ) ;
#330 = COORDINATED_UNIVERSAL_TIME_OFFSET ( 1, 0, .AHEAD. ) ;
#331 = DIRECTION ( 'NONE',  ( -1.000000000000000000, 0.000000000000000000, 0.000000000000000000 ) ) ;
#332 = EDGE_LOOP ( 'NONE', ( #101, #273, #104, #249 ) ) ;
#333 = CARTESIAN_POINT ( 'NONE',  ( 0.000000000000000000, 0.000000000000000000, 0.000000000000000000 ) ) ;
#334 = VERTEX_POINT ( 'NONE', #360 ) ;
#335 = CIRCLE ( 'NONE', #171, 0.5000000000000004441 ) ;
#336 = DIRECTION ( 'NONE',  ( 0.000000000000000000, 0.000000000000000000, 1.000000000000000000 ) ) ;
#337 = ORIENTED_EDGE ( 'NONE', *, *, #209, .F. ) ;
#338 = APPROVAL_DATE_TIME ( #313, #89 ) ;
#339 = CYLINDRICAL_SURFACE ( 'NONE', #56, 10.00000000000000000 ) ;
#340 = VERTEX_POINT ( 'NONE', #205 ) ;
#341 = APPROVAL_DATE_TIME ( #25, #52 ) ;
#342 = EDGE_CURVE ( 'NONE', #32, #97, #128, .T. ) ;
#343 = CARTESIAN_POINT ( 'NONE',  ( 10.00000000000000000, 1.224646799147353256E-15, 7.000000000000000000 ) ) ;
#344 = TOROIDAL_SURFACE ( 'NONE', #233, 6.500000000000000888, 0.5000000000000000000 ) ;
#345 = CIRCLE ( 'NONE', #175, 6.000000000000000888 ) ;
#346 = APPROVAL_ROLE ( '' ) ;
#347 = CIRCLE ( 'NONE', #170, 10.00000000000000000 ) ;
#348 = FACE_BOUND ( 'NONE', #298, .T. ) ;
#349 = CC_DESIGN_SECURITY_CLASSIFICATION ( #17, ( #248 ) ) ;
#350 = ADVANCED_FACE ( 'NONE', ( #121, #322 ), #65, .F. ) ;
#351 = ORIENTED_EDGE ( 'NONE', *, *, #327, .F. ) ;
#352 = SHAPE_DEFINITION_REPRESENTATION ( #78, #7 ) ;
#353 = CARTESIAN_POINT ( 'NONE',  ( 6.500000000000000888, 0.000000000000000000, 6.999999999999975131 ) ) ;
#354 = LINE ( 'NONE', #58, #227 ) ;
#355 = AXIS2_PLACEMENT_3D ( 'NONE', #95, #130, #11 ) ;
#356 = LINE ( 'NONE', #77, #85 ) ;
#357 = LOCAL_TIME ( 16, 52, 45.00000000000000000, #378 ) ;
#358 = CARTESIAN_POINT ( 'NONE',  ( 0.000000000000000000, 0.000000000000000000, 557.0000000000000000 ) ) ;
#359 = APPROVAL ( #371, 'NEURÈENÝ' ) ;
#360 = CARTESIAN_POINT ( 'NONE',  ( 6.000000000000000888, 7.347880794884120722E-16, 557.0000000000000000 ) ) ;
#361 = AXIS2_PLACEMENT_3D ( 'NONE', #251, #374, #223 ) ;
#362 = CARTESIAN_POINT ( 'NONE',  ( 0.000000000000000000, 0.000000000000000000, 0.000000000000000000 ) ) ;
#363 = ORIENTED_EDGE ( 'NONE', *, *, #145, .F. ) ;
#364 = AXIS2_PLACEMENT_3D ( 'NONE', #284, #54, #80 ) ;
#365 = CIRCLE ( 'NONE', #293, 3.000000000000000444 ) ;
#366 = CC_DESIGN_PERSON_AND_ORGANIZATION_ASSIGNMENT ( #229, #278, ( #248 ) ) ;
#367 = CARTESIAN_POINT ( 'NONE',  ( 0.000000000000000000, 0.000000000000000000, 557.0000000000000000 ) ) ;
#368 = EDGE_LOOP ( 'NONE', ( #316, #114 ) ) ;
#369 = ORIENTED_EDGE ( 'NONE', *, *, #124, .F. ) ;
#370 = AXIS2_PLACEMENT_3D ( 'NONE', #76, #188, #306 ) ;
#371 = APPROVAL_STATUS ( 'not_yet_approved' ) ;
#372 = ORIENTED_EDGE ( 'NONE', *, *, #106, .F. ) ;
#373 = CALENDAR_DATE ( 2022, 8, 7 ) ;
#374 = DIRECTION ( 'NONE',  ( 0.000000000000000000, -1.000000000000000000, 0.000000000000000000 ) ) ;
#375 = EDGE_CURVE ( 'NONE', #112, #340, #365, .T. ) ;
#376 = FACE_OUTER_BOUND ( 'NONE', #332, .T. ) ;
#377 = ORIENTED_EDGE ( 'NONE', *, *, #19, .T. ) ;
#378 = COORDINATED_UNIVERSAL_TIME_OFFSET ( 1, 0, .AHEAD. ) ;
#379 = DIRECTION ( 'NONE',  ( 1.000000000000000000, 0.000000000000000000, 0.000000000000000000 ) ) ;
#380 = CIRCLE ( 'NONE', #267, 6.000000000000000888 ) ;
#381 = DIRECTION ( 'NONE',  ( 1.000000000000000000, 0.000000000000000000, -0.000000000000000000 ) ) ;
ENDSEC;
END-ISO-10303-21;
