ISO-10303-21;
HEADER;
FILE_DESCRIPTION (( 'STEP AP203' ),
    '1' );
FILE_NAME ('bd31.STEP',
    '2022-07-08T14:54:46',
    ( '' ),
    ( '' ),
    'SwSTEP 2.0',
    'SolidWorks 2019',
    '' );
FILE_SCHEMA (( 'CONFIG_CONTROL_DESIGN' ));
ENDSEC;

DATA;
#1 = CYLINDRICAL_SURFACE ( 'NONE', #221, 3.000000000000000444 ) ;
#2 = APPROVAL ( #93, 'NEURÈENÝ' ) ;
#3 = LINE ( 'NONE', #123, #283 ) ;
#4 = EDGE_CURVE ( 'NONE', #325, #18, #212, .T. ) ;
#5 = DIRECTION ( 'NONE',  ( -1.000000000000000000, 0.000000000000000000, 0.000000000000000000 ) ) ;
#6 = ADVANCED_FACE ( 'NONE', ( #321 ), #200, .T. ) ;
#7 = DATE_AND_TIME ( #40, #34 ) ;
#8 = AXIS2_PLACEMENT_3D ( 'NONE', #208, #69, #206 ) ;
#9 = EDGE_CURVE ( 'NONE', #88, #20, #261, .T. ) ;
#10 = DIRECTION ( 'NONE',  ( 0.000000000000000000, 0.000000000000000000, -1.000000000000000000 ) ) ;
#11 = DIRECTION ( 'NONE',  ( 1.000000000000000000, 0.000000000000000000, -0.000000000000000000 ) ) ;
#12 = DIRECTION ( 'NONE',  ( 0.000000000000000000, 0.000000000000000000, 1.000000000000000000 ) ) ;
#13 = UNCERTAINTY_MEASURE_WITH_UNIT (LENGTH_MEASURE( 1.000000000000000082E-05 ), #170, 'distance_accuracy_value', 'NONE');
#14 = AXIS2_PLACEMENT_3D ( 'NONE', #72, #177, #290 ) ;
#15 = PERSON_AND_ORGANIZATION_ROLE ( 'design_owner' ) ;
#16 = AXIS2_PLACEMENT_3D ( 'NONE', #254, #62, #230 ) ;
#17 = APPROVAL_PERSON_ORGANIZATION ( #71, #135, #324 ) ;
#18 = VERTEX_POINT ( 'NONE', #90 ) ;
#19 = VERTEX_POINT ( 'NONE', #149 ) ;
#20 = VERTEX_POINT ( 'NONE', #41 ) ;
#21 = DIRECTION ( 'NONE',  ( -0.000000000000000000, -0.000000000000000000, -1.000000000000000000 ) ) ;
#22 = AXIS2_PLACEMENT_3D ( 'NONE', #130, #172, #285 ) ;
#23 = PERSON_AND_ORGANIZATION_ROLE ( 'design_supplier' ) ;
#24 = EDGE_CURVE ( 'NONE', #112, #344, #293, .T. ) ;
#25 = EDGE_LOOP ( 'NONE', ( #84, #42, #86, #166 ) ) ;
#26 = EDGE_CURVE ( 'NONE', #340, #277, #184, .T. ) ;
#27 = CC_DESIGN_PERSON_AND_ORGANIZATION_ASSIGNMENT ( #371, #15, ( #60 ) ) ;
#28 = APPLICATION_PROTOCOL_DEFINITION ( 'international standard', 'config_control_design', 1994, #265 ) ;
#29 = LINE ( 'NONE', #259, #207 ) ;
#30 = AXIS2_PLACEMENT_3D ( 'NONE', #61, #94, #346 ) ;
#31 = DIRECTION ( 'NONE',  ( 1.000000000000000000, 0.000000000000000000, 0.000000000000000000 ) ) ;
#32 = CIRCLE ( 'NONE', #376, 0.5000000000000004441 ) ;
#33 = DIRECTION ( 'NONE',  ( 0.000000000000000000, 0.000000000000000000, 1.000000000000000000 ) ) ;
#34 = LOCAL_TIME ( 16, 54, 46.00000000000000000, #289 ) ;
#35 = ADVANCED_FACE ( 'NONE', ( #115 ), #118, .T. ) ;
#36 = CALENDAR_DATE ( 2022, 8, 7 ) ;
#37 = CARTESIAN_POINT ( 'NONE',  ( -10.00000000000000000, 0.000000000000000000, 7.000000000000000000 ) ) ;
#38 = DIRECTION ( 'NONE',  ( 1.000000000000000000, 0.000000000000000000, 0.000000000000000000 ) ) ;
#39 = TOROIDAL_SURFACE ( 'NONE', #327, 6.500000000000000888, 0.5000000000000000000 ) ;
#40 = CALENDAR_DATE ( 2022, 8, 7 ) ;
#41 = CARTESIAN_POINT ( 'NONE',  ( 10.00000000000000000, 1.224646799147353256E-15, 7.000000000000000000 ) ) ;
#42 = ORIENTED_EDGE ( 'NONE', *, *, #201, .T. ) ;
#43 = AXIS2_PLACEMENT_3D ( 'NONE', #153, #101, #239 ) ;
#44 = DIRECTION ( 'NONE',  ( 1.000000000000000000, 0.000000000000000000, 0.000000000000000000 ) ) ;
#45 = CARTESIAN_POINT ( 'NONE',  ( 10.00000000000000000, 1.224646799147353256E-15, 0.000000000000000000 ) ) ;
#46 = CIRCLE ( 'NONE', #8, 10.00000000000000000 ) ;
#47 = CARTESIAN_POINT ( 'NONE',  ( -3.000000000000000444, 0.000000000000000000, 157.0000000000000000 ) ) ;
#48 = AXIS2_PLACEMENT_3D ( 'NONE', #64, #33, #38 ) ;
#49 = ADVANCED_FACE ( 'NONE', ( #352 ), #354, .T. ) ;
#50 = COORDINATED_UNIVERSAL_TIME_OFFSET ( 1, 0, .AHEAD. ) ;
#51 = DESIGN_CONTEXT ( 'detailed design', #265, 'design' ) ;
#52 = ORIENTED_EDGE ( 'NONE', *, *, #9, .T. ) ;
#53 = EDGE_LOOP ( 'NONE', ( #56, #292 ) ) ;
#54 = ORIENTED_EDGE ( 'NONE', *, *, #280, .F. ) ;
#55 = CALENDAR_DATE ( 2022, 8, 7 ) ;
#56 = ORIENTED_EDGE ( 'NONE', *, *, #249, .T. ) ;
#57 = CYLINDRICAL_SURFACE ( 'NONE', #22, 3.000000000000000444 ) ;
#58 = EDGE_LOOP ( 'NONE', ( #226, #282, #164, #54 ) ) ;
#59 = CARTESIAN_POINT ( 'NONE',  ( 3.000000000000000444, 3.673940397442060361E-16, 0.000000000000000000 ) ) ;
#60 = PRODUCT ( 'bd31', 'bd31', '', ( #232 ) ) ;
#61 = CARTESIAN_POINT ( 'NONE',  ( 0.000000000000000000, 0.000000000000000000, 7.000000000000000000 ) ) ;
#62 = DIRECTION ( 'NONE',  ( 0.000000000000000000, 0.000000000000000000, 1.000000000000000000 ) ) ;
#63 = EDGE_CURVE ( 'NONE', #20, #88, #46, .T. ) ;
#64 = CARTESIAN_POINT ( 'NONE',  ( 0.000000000000000000, 0.000000000000000000, 7.500000000000007105 ) ) ;
#65 = PERSON ( 'NEURÈENÝ', 'NEURÈENÝ', 'NEURÈENÝ', ('NEURÈENÝ'), ('NEURÈENÝ'), ('NEURÈENÝ') ) ;
#66 = CARTESIAN_POINT ( 'NONE',  ( 0.000000000000000000, 0.000000000000000000, 0.000000000000000000 ) ) ;
#67 = EDGE_LOOP ( 'NONE', ( #229, #305 ) ) ;
#68 = PRODUCT_DEFINITION ( 'NEZNÁMÝ', '', #76, #51 ) ;
#69 = DIRECTION ( 'NONE',  ( 0.000000000000000000, 0.000000000000000000, 1.000000000000000000 ) ) ;
#70 = EDGE_LOOP ( 'NONE', ( #192, #121, #312, #225 ) ) ;
#71 = PERSON_AND_ORGANIZATION ( #65, #180 ) ;
#72 = CARTESIAN_POINT ( 'NONE',  ( 0.000000000000000000, 0.000000000000000000, 157.0000000000000000 ) ) ;
#73 = AXIS2_PLACEMENT_3D ( 'NONE', #173, #253, #237 ) ;
#74 = DIRECTION ( 'NONE',  ( 0.000000000000000000, 0.000000000000000000, 1.000000000000000000 ) ) ;
#75 = AXIS2_PLACEMENT_3D ( 'NONE', #274, #81, #98 ) ;
#76 = PRODUCT_DEFINITION_FORMATION_WITH_SPECIFIED_SOURCE ( 'LIBOVOLNÝ', '', #60, .NOT_KNOWN. ) ;
#77 = CARTESIAN_POINT ( 'NONE',  ( 0.000000000000000000, 0.000000000000000000, 0.000000000000000000 ) ) ;
#78 = CARTESIAN_POINT ( 'NONE',  ( -10.00000000000000000, 0.000000000000000000, 0.000000000000000000 ) ) ;
#79 = EDGE_CURVE ( 'NONE', #260, #19, #150, .T. ) ;
#80 = ADVANCED_FACE ( 'NONE', ( #315 ), #39, .F. ) ;
#81 = DIRECTION ( 'NONE',  ( 0.000000000000000000, 0.000000000000000000, 1.000000000000000000 ) ) ;
#82 = DIRECTION ( 'NONE',  ( 1.000000000000000000, 0.000000000000000000, -0.000000000000000000 ) ) ;
#83 = DIRECTION ( 'NONE',  ( 0.000000000000000000, 0.000000000000000000, 1.000000000000000000 ) ) ;
#84 = ORIENTED_EDGE ( 'NONE', *, *, #4, .F. ) ;
#85 = EDGE_LOOP ( 'NONE', ( #341, #231 ) ) ;
#86 = ORIENTED_EDGE ( 'NONE', *, *, #188, .T. ) ;
#87 = APPLICATION_PROTOCOL_DEFINITION ( 'international standard', 'config_control_design', 1994, #273 ) ;
#88 = VERTEX_POINT ( 'NONE', #37 ) ;
#89 = APPROVAL_ROLE ( '' ) ;
#90 = CARTESIAN_POINT ( 'NONE',  ( -6.000000000000000888, 0.000000000000000000, 157.0000000000000000 ) ) ;
#91 = APPROVAL_DATE_TIME ( #313, #350 ) ;
#92 = CARTESIAN_POINT ( 'NONE',  ( 6.500000000000000888, 0.000000000000000000, 7.500000000000007105 ) ) ;
#93 = APPROVAL_STATUS ( 'not_yet_approved' ) ;
#94 = DIRECTION ( 'NONE',  ( 0.000000000000000000, 0.000000000000000000, 1.000000000000000000 ) ) ;
#95 = DIRECTION ( 'NONE',  ( -0.000000000000000000, -0.000000000000000000, -1.000000000000000000 ) ) ;
#96 = DIRECTION ( 'NONE',  ( 0.000000000000000000, 0.000000000000000000, -1.000000000000000000 ) ) ;
#97 = CARTESIAN_POINT ( 'NONE',  ( 0.000000000000000000, 0.000000000000000000, 7.000000000000000000 ) ) ;
#98 = DIRECTION ( 'NONE',  ( 1.000000000000000000, 0.000000000000000000, 0.000000000000000000 ) ) ;
#99 = AXIS2_PLACEMENT_3D ( 'NONE', #182, #300, #11 ) ;
#100 = DIRECTION ( 'NONE',  ( 0.000000000000000000, 0.000000000000000000, 1.000000000000000000 ) ) ;
#101 = DIRECTION ( 'NONE',  ( -0.000000000000000000, -0.000000000000000000, -1.000000000000000000 ) ) ;
#102 = CYLINDRICAL_SURFACE ( 'NONE', #295, 6.000000000000000888 ) ;
#103 = PRODUCT_RELATED_PRODUCT_CATEGORY ( 'detail', '', ( #60 ) ) ;
#104 = CARTESIAN_POINT ( 'NONE',  ( 0.000000000000000000, 0.000000000000000000, 0.000000000000000000 ) ) ;
#105 = EDGE_LOOP ( 'NONE', ( #197, #137 ) ) ;
#106 = ORIENTED_EDGE ( 'NONE', *, *, #280, .T. ) ;
#107 = EDGE_LOOP ( 'NONE', ( #367, #251, #106, #378 ) ) ;
#108 = CIRCLE ( 'NONE', #131, 6.000000000000000888 ) ;
#109 = ORIENTED_EDGE ( 'NONE', *, *, #63, .T. ) ;
#110 = EDGE_CURVE ( 'NONE', #20, #340, #29, .T. ) ;
#111 = CALENDAR_DATE ( 2022, 8, 7 ) ;
#112 = VERTEX_POINT ( 'NONE', #255 ) ;
#113 = PERSON_AND_ORGANIZATION ( #65, #180 ) ;
#114 = CC_DESIGN_DATE_AND_TIME_ASSIGNMENT ( #162, #245, ( #68 ) ) ;
#115 = FACE_OUTER_BOUND ( 'NONE', #58, .T. ) ;
#116 = CIRCLE ( 'NONE', #165, 10.00000000000000000 ) ;
#117 = CIRCLE ( 'NONE', #138, 6.500000000000000888 ) ;
#118 = CYLINDRICAL_SURFACE ( 'NONE', #309, 10.00000000000000000 ) ;
#119 = DIRECTION ( 'NONE',  ( -0.000000000000000000, -0.000000000000000000, -1.000000000000000000 ) ) ;
#120 = CARTESIAN_POINT ( 'NONE',  ( 0.000000000000000000, 0.000000000000000000, 157.0000000000000000 ) ) ;
#121 = ORIENTED_EDGE ( 'NONE', *, *, #79, .T. ) ;
#122 = CARTESIAN_POINT ( 'NONE',  ( 0.000000000000000000, 0.000000000000000000, 7.000000000000000000 ) ) ;
#123 = CARTESIAN_POINT ( 'NONE',  ( 3.000000000000000444, 3.673940397442060361E-16, 157.0000000000000000 ) ) ;
#124 = CARTESIAN_POINT ( 'NONE',  ( 0.000000000000000000, 0.000000000000000000, 157.0000000000000000 ) ) ;
#125 = FACE_BOUND ( 'NONE', #247, .T. ) ;
#126 = CC_DESIGN_APPROVAL ( #2, ( #68 ) ) ;
#127 = CARTESIAN_POINT ( 'NONE',  ( -10.00000000000000000, 0.000000000000000000, 7.000000000000000000 ) ) ;
#128 = DIRECTION ( 'NONE',  ( 1.000000000000000000, 0.000000000000000000, 0.000000000000000000 ) ) ;
#129 = ADVANCED_BREP_SHAPE_REPRESENTATION ( 'bd31', ( #252, #296 ), #278 ) ;
#130 = CARTESIAN_POINT ( 'NONE',  ( 0.000000000000000000, 0.000000000000000000, 157.0000000000000000 ) ) ;
#131 = AXIS2_PLACEMENT_3D ( 'NONE', #360, #100, #189 ) ;
#132 = APPROVAL_PERSON_ORGANIZATION ( #345, #350, #89 ) ;
#133 = CC_DESIGN_PERSON_AND_ORGANIZATION_ASSIGNMENT ( #140, #374, ( #68 ) ) ;
#134 = ORIENTED_EDGE ( 'NONE', *, *, #24, .T. ) ;
#135 = APPROVAL ( #263, 'NEURÈENÝ' ) ;
#136 = VERTEX_POINT ( 'NONE', #176 ) ;
#137 = ORIENTED_EDGE ( 'NONE', *, *, #26, .F. ) ;
#138 = AXIS2_PLACEMENT_3D ( 'NONE', #97, #213, #326 ) ;
#139 = CC_DESIGN_PERSON_AND_ORGANIZATION_ASSIGNMENT ( #310, #23, ( #76 ) ) ;
#140 = PERSON_AND_ORGANIZATION ( #65, #180 ) ;
#141 = DIRECTION ( 'NONE',  ( -0.000000000000000000, -0.000000000000000000, -1.000000000000000000 ) ) ;
#142 =( NAMED_UNIT ( * ) SI_UNIT ( $, .STERADIAN. ) SOLID_ANGLE_UNIT ( ) );
#143 = CIRCLE ( 'NONE', #152, 3.000000000000000444 ) ;
#144 = CARTESIAN_POINT ( 'NONE',  ( 6.000000000000000888, 7.347880794884120722E-16, 157.0000000000000000 ) ) ;
#145 = DIRECTION ( 'NONE',  ( 1.224646799147353207E-16, 1.000000000000000000, -0.000000000000000000 ) ) ;
#146 = ORIENTED_EDGE ( 'NONE', *, *, #331, .F. ) ;
#147 = SHAPE_DEFINITION_REPRESENTATION ( #373, #129 ) ;
#148 = EDGE_CURVE ( 'NONE', #260, #227, #264, .T. ) ;
#149 = CARTESIAN_POINT ( 'NONE',  ( -6.500000000000000888, 7.960204194457796463E-16, 7.000000000000002665 ) ) ;
#150 = CIRCLE ( 'NONE', #196, 0.5000000000000004441 ) ;
#151 = COORDINATED_UNIVERSAL_TIME_OFFSET ( 1, 0, .AHEAD. ) ;
#152 = AXIS2_PLACEMENT_3D ( 'NONE', #242, #179, #128 ) ;
#153 = CARTESIAN_POINT ( 'NONE',  ( 0.000000000000000000, 0.000000000000000000, 0.000000000000000000 ) ) ;
#154 = CC_DESIGN_PERSON_AND_ORGANIZATION_ASSIGNMENT ( #214, #156, ( #364 ) ) ;
#155 = LINE ( 'NONE', #298, #178 ) ;
#156 = PERSON_AND_ORGANIZATION_ROLE ( 'classification_officer' ) ;
#157 = DIRECTION ( 'NONE',  ( 1.000000000000000000, 0.000000000000000000, 0.000000000000000000 ) ) ;
#158 = CARTESIAN_POINT ( 'NONE',  ( 6.000000000000000888, 7.347880794884120722E-16, 7.500000000000007105 ) ) ;
#159 = AXIS2_PLACEMENT_3D ( 'NONE', #240, #301, #157 ) ;
#160 = CC_DESIGN_SECURITY_CLASSIFICATION ( #364, ( #76 ) ) ;
#161 = CARTESIAN_POINT ( 'NONE',  ( 3.000000000000000444, 3.673940397442060361E-16, 157.0000000000000000 ) ) ;
#162 = DATE_AND_TIME ( #111, #222 ) ;
#163 = EDGE_CURVE ( 'NONE', #227, #136, #32, .T. ) ;
#164 = ORIENTED_EDGE ( 'NONE', *, *, #26, .T. ) ;
#165 = AXIS2_PLACEMENT_3D ( 'NONE', #77, #74, #44 ) ;
#166 = ORIENTED_EDGE ( 'NONE', *, *, #380, .F. ) ;
#167 = PLANE ( 'NONE',  #16 ) ;
#168 = ORIENTED_EDGE ( 'NONE', *, *, #248, .F. ) ;
#169 = ORIENTED_EDGE ( 'NONE', *, *, #338, .T. ) ;
#170 =( LENGTH_UNIT ( ) NAMED_UNIT ( * ) SI_UNIT ( .MILLI., .METRE. ) );
#171 = CARTESIAN_POINT ( 'NONE',  ( -6.500000000000000888, 7.960204194457796463E-16, 7.500000000000007105 ) ) ;
#172 = DIRECTION ( 'NONE',  ( 0.000000000000000000, 0.000000000000000000, -1.000000000000000000 ) ) ;
#173 = CARTESIAN_POINT ( 'NONE',  ( 0.000000000000000000, 0.000000000000000000, 0.000000000000000000 ) ) ;
#174 = VECTOR ( 'NONE', #119, 1000.000000000000000 ) ;
#175 = CARTESIAN_POINT ( 'NONE',  ( 0.000000000000000000, 0.000000000000000000, 7.500000000000007105 ) ) ;
#176 = CARTESIAN_POINT ( 'NONE',  ( 6.500000000000000888, 0.000000000000000000, 7.000000000000002665 ) ) ;
#177 = DIRECTION ( 'NONE',  ( 0.000000000000000000, 0.000000000000000000, 1.000000000000000000 ) ) ;
#178 = VECTOR ( 'NONE', #10, 1000.000000000000000 ) ;
#179 = DIRECTION ( 'NONE',  ( 0.000000000000000000, 0.000000000000000000, 1.000000000000000000 ) ) ;
#180 = ORGANIZATION ( 'NEURÈENÝ', 'NEURÈENÝ', '' ) ;
#181 = SECURITY_CLASSIFICATION_LEVEL ( 'unclassified' ) ;
#182 = CARTESIAN_POINT ( 'NONE',  ( 0.000000000000000000, 0.000000000000000000, 7.000000000000000000 ) ) ;
#183 = FACE_OUTER_BOUND ( 'NONE', #53, .T. ) ;
#184 = CIRCLE ( 'NONE', #286, 10.00000000000000000 ) ;
#185 = DIRECTION ( 'NONE',  ( 1.000000000000000000, 0.000000000000000000, 0.000000000000000000 ) ) ;
#186 = VECTOR ( 'NONE', #21, 1000.000000000000000 ) ;
#187 = LOCAL_TIME ( 16, 54, 46.00000000000000000, #284 ) ;
#188 = EDGE_CURVE ( 'NONE', #227, #260, #288, .T. ) ;
#189 = DIRECTION ( 'NONE',  ( 1.000000000000000000, 0.000000000000000000, 0.000000000000000000 ) ) ;
#190 = ORIENTED_EDGE ( 'NONE', *, *, #79, .F. ) ;
#191 = ORIENTED_EDGE ( 'NONE', *, *, #188, .F. ) ;
#192 = ORIENTED_EDGE ( 'NONE', *, *, #148, .F. ) ;
#193 = ORIENTED_EDGE ( 'NONE', *, *, #250, .T. ) ;
#194 = AXIS2_PLACEMENT_3D ( 'NONE', #120, #294, #314 ) ;
#195 = APPROVAL_ROLE ( '' ) ;
#196 = AXIS2_PLACEMENT_3D ( 'NONE', #171, #145, #210 ) ;
#197 = ORIENTED_EDGE ( 'NONE', *, *, #332, .F. ) ;
#198 = COORDINATED_UNIVERSAL_TIME_OFFSET ( 1, 0, .AHEAD. ) ;
#199 = LOCAL_TIME ( 16, 54, 46.00000000000000000, #198 ) ;
#200 = CYLINDRICAL_SURFACE ( 'NONE', #194, 6.000000000000000888 ) ;
#201 = EDGE_CURVE ( 'NONE', #325, #227, #262, .T. ) ;
#202 = PERSON_AND_ORGANIZATION_ROLE ( 'creator' ) ;
#203 = DIRECTION ( 'NONE',  ( 0.000000000000000000, -1.000000000000000000, 0.000000000000000000 ) ) ;
#204 = APPROVAL_DATE_TIME ( #348, #2 ) ;
#205 = AXIS2_PLACEMENT_3D ( 'NONE', #233, #95, #287 ) ;
#206 = DIRECTION ( 'NONE',  ( 1.000000000000000000, 0.000000000000000000, 0.000000000000000000 ) ) ;
#207 = VECTOR ( 'NONE', #141, 1000.000000000000000 ) ;
#208 = CARTESIAN_POINT ( 'NONE',  ( 0.000000000000000000, 0.000000000000000000, 7.000000000000000000 ) ) ;
#209 = EDGE_LOOP ( 'NONE', ( #256, #368, #211, #304 ) ) ;
#210 = DIRECTION ( 'NONE',  ( -1.000000000000000000, 1.224646799147351482E-16, 0.000000000000000000 ) ) ;
#211 = ORIENTED_EDGE ( 'NONE', *, *, #248, .T. ) ;
#212 = CIRCLE ( 'NONE', #14, 6.000000000000000888 ) ;
#213 = DIRECTION ( 'NONE',  ( -0.000000000000000000, -0.000000000000000000, -1.000000000000000000 ) ) ;
#214 = PERSON_AND_ORGANIZATION ( #65, #180 ) ;
#215 = APPROVAL_PERSON_ORGANIZATION ( #113, #2, #195 ) ;
#216 = FACE_BOUND ( 'NONE', #67, .T. ) ;
#217 = FACE_BOUND ( 'NONE', #85, .T. ) ;
#218 = FACE_OUTER_BOUND ( 'NONE', #337, .T. ) ;
#219 = ADVANCED_FACE ( 'NONE', ( #236 ), #1, .F. ) ;
#220 = FACE_OUTER_BOUND ( 'NONE', #322, .T. ) ;
#221 = AXIS2_PLACEMENT_3D ( 'NONE', #356, #96, #5 ) ;
#222 = LOCAL_TIME ( 16, 54, 46.00000000000000000, #50 ) ;
#223 = EDGE_CURVE ( 'NONE', #279, #308, #143, .T. ) ;
#224 = APPROVAL_STATUS ( 'not_yet_approved' ) ;
#225 = ORIENTED_EDGE ( 'NONE', *, *, #163, .F. ) ;
#226 = ORIENTED_EDGE ( 'NONE', *, *, #63, .F. ) ;
#227 = VERTEX_POINT ( 'NONE', #158 ) ;
#228 = CC_DESIGN_PERSON_AND_ORGANIZATION_ASSIGNMENT ( #281, #202, ( #76 ) ) ;
#229 = ORIENTED_EDGE ( 'NONE', *, *, #307, .T. ) ;
#230 = DIRECTION ( 'NONE',  ( 1.000000000000000000, 0.000000000000000000, -0.000000000000000000 ) ) ;
#231 = ORIENTED_EDGE ( 'NONE', *, *, #250, .F. ) ;
#232 = MECHANICAL_CONTEXT ( 'NONE', #273, 'mechanical' ) ;
#233 = CARTESIAN_POINT ( 'NONE',  ( 0.000000000000000000, 0.000000000000000000, 7.000000000000000000 ) ) ;
#234 = DIRECTION ( 'NONE',  ( 0.000000000000000000, 0.000000000000000000, 1.000000000000000000 ) ) ;
#235 = ORIENTED_EDGE ( 'NONE', *, *, #148, .T. ) ;
#236 = FACE_OUTER_BOUND ( 'NONE', #365, .T. ) ;
#237 = DIRECTION ( 'NONE',  ( 1.000000000000000000, 0.000000000000000000, 0.000000000000000000 ) ) ;
#238 = DIRECTION ( 'NONE',  ( -0.000000000000000000, -0.000000000000000000, -1.000000000000000000 ) ) ;
#239 = DIRECTION ( 'NONE',  ( 1.000000000000000000, 0.000000000000000000, 0.000000000000000000 ) ) ;
#240 = CARTESIAN_POINT ( 'NONE',  ( 0.000000000000000000, 0.000000000000000000, 7.000000000000000000 ) ) ;
#241 = VECTOR ( 'NONE', #297, 1000.000000000000000 ) ;
#242 = CARTESIAN_POINT ( 'NONE',  ( 0.000000000000000000, 0.000000000000000000, 157.0000000000000000 ) ) ;
#243 = ADVANCED_FACE ( 'NONE', ( #217, #183 ), #362, .T. ) ;
#244 = FACE_OUTER_BOUND ( 'NONE', #366, .T. ) ;
#245 = DATE_TIME_ROLE ( 'creation_date' ) ;
#246 = CIRCLE ( 'NONE', #75, 3.000000000000000444 ) ;
#247 = EDGE_LOOP ( 'NONE', ( #303, #168 ) ) ;
#248 = EDGE_CURVE ( 'NONE', #344, #112, #363, .T. ) ;
#249 = EDGE_CURVE ( 'NONE', #18, #325, #108, .T. ) ;
#250 = EDGE_CURVE ( 'NONE', #308, #279, #246, .T. ) ;
#251 = ORIENTED_EDGE ( 'NONE', *, *, #9, .F. ) ;
#252 = MANIFOLD_SOLID_BREP ( 'Odebrat vysunutím3', #353 ) ;
#253 = DIRECTION ( 'NONE',  ( -0.000000000000000000, -0.000000000000000000, -1.000000000000000000 ) ) ;
#254 = CARTESIAN_POINT ( 'NONE',  ( 0.000000000000000000, 0.000000000000000000, 0.000000000000000000 ) ) ;
#255 = CARTESIAN_POINT ( 'NONE',  ( -3.000000000000000444, 0.000000000000000000, 0.000000000000000000 ) ) ;
#256 = ORIENTED_EDGE ( 'NONE', *, *, #223, .T. ) ;
#257 = DIRECTION ( 'NONE',  ( -1.000000000000000000, 0.000000000000000000, 0.000000000000000000 ) ) ;
#258 = ORIENTED_EDGE ( 'NONE', *, *, #323, .F. ) ;
#259 = CARTESIAN_POINT ( 'NONE',  ( 10.00000000000000000, 1.224646799147353256E-15, 7.000000000000000000 ) ) ;
#260 = VERTEX_POINT ( 'NONE', #361 ) ;
#261 = CIRCLE ( 'NONE', #30, 10.00000000000000000 ) ;
#262 = LINE ( 'NONE', #144, #174 ) ;
#263 = APPROVAL_STATUS ( 'not_yet_approved' ) ;
#264 = CIRCLE ( 'NONE', #339, 6.000000000000000888 ) ;
#265 = APPLICATION_CONTEXT ( 'configuration controlled 3d designs of mechanical parts and assemblies' ) ;
#266 = DIRECTION ( 'NONE',  ( -1.000000000000000000, 0.000000000000000000, 0.000000000000000000 ) ) ;
#267 = APPROVAL_DATE_TIME ( #7, #135 ) ;
#268 = CARTESIAN_POINT ( 'NONE',  ( 0.000000000000000000, 0.000000000000000000, 7.500000000000007105 ) ) ;
#269 = FACE_OUTER_BOUND ( 'NONE', #105, .T. ) ;
#270 = ADVANCED_FACE ( 'NONE', ( #216, #218 ), #333, .T. ) ;
#271 = CC_DESIGN_APPROVAL ( #135, ( #364 ) ) ;
#272 = LINE ( 'NONE', #127, #241 ) ;
#273 = APPLICATION_CONTEXT ( 'configuration controlled 3d designs of mechanical parts and assemblies' ) ;
#274 = CARTESIAN_POINT ( 'NONE',  ( 0.000000000000000000, 0.000000000000000000, 157.0000000000000000 ) ) ;
#275 = CARTESIAN_POINT ( 'NONE',  ( -6.000000000000000888, 0.000000000000000000, 157.0000000000000000 ) ) ;
#276 = TOROIDAL_SURFACE ( 'NONE', #328, 6.500000000000000888, 0.5000000000000000000 ) ;
#277 = VERTEX_POINT ( 'NONE', #78 ) ;
#278 =( GEOMETRIC_REPRESENTATION_CONTEXT ( 3 ) GLOBAL_UNCERTAINTY_ASSIGNED_CONTEXT ( ( #13 ) ) GLOBAL_UNIT_ASSIGNED_CONTEXT ( ( #170, #306, #142 ) ) REPRESENTATION_CONTEXT ( 'NONE', 'WORKASPACE' ) );
#279 = VERTEX_POINT ( 'NONE', #47 ) ;
#280 = EDGE_CURVE ( 'NONE', #88, #277, #272, .T. ) ;
#281 = PERSON_AND_ORGANIZATION ( #65, #180 ) ;
#282 = ORIENTED_EDGE ( 'NONE', *, *, #110, .T. ) ;
#283 = VECTOR ( 'NONE', #358, 1000.000000000000000 ) ;
#284 = COORDINATED_UNIVERSAL_TIME_OFFSET ( 1, 0, .AHEAD. ) ;
#285 = DIRECTION ( 'NONE',  ( -1.000000000000000000, 0.000000000000000000, 0.000000000000000000 ) ) ;
#286 = AXIS2_PLACEMENT_3D ( 'NONE', #66, #372, #377 ) ;
#287 = DIRECTION ( 'NONE',  ( -1.000000000000000000, 0.000000000000000000, 0.000000000000000000 ) ) ;
#288 = CIRCLE ( 'NONE', #48, 6.000000000000000888 ) ;
#289 = COORDINATED_UNIVERSAL_TIME_OFFSET ( 1, 0, .AHEAD. ) ;
#290 = DIRECTION ( 'NONE',  ( 1.000000000000000000, 0.000000000000000000, 0.000000000000000000 ) ) ;
#291 = DIRECTION ( 'NONE',  ( 0.000000000000000000, 0.000000000000000000, -1.000000000000000000 ) ) ;
#292 = ORIENTED_EDGE ( 'NONE', *, *, #4, .T. ) ;
#293 = CIRCLE ( 'NONE', #73, 3.000000000000000444 ) ;
#294 = DIRECTION ( 'NONE',  ( -0.000000000000000000, -0.000000000000000000, -1.000000000000000000 ) ) ;
#295 = AXIS2_PLACEMENT_3D ( 'NONE', #359, #302, #266 ) ;
#296 = AXIS2_PLACEMENT_3D ( 'NONE', #104, #83, #31 ) ;
#297 = DIRECTION ( 'NONE',  ( -0.000000000000000000, -0.000000000000000000, -1.000000000000000000 ) ) ;
#298 = CARTESIAN_POINT ( 'NONE',  ( -3.000000000000000444, 0.000000000000000000, 157.0000000000000000 ) ) ;
#299 = ADVANCED_FACE ( 'NONE', ( #220 ), #276, .F. ) ;
#300 = DIRECTION ( 'NONE',  ( 0.000000000000000000, 0.000000000000000000, 1.000000000000000000 ) ) ;
#301 = DIRECTION ( 'NONE',  ( -0.000000000000000000, -0.000000000000000000, -1.000000000000000000 ) ) ;
#302 = DIRECTION ( 'NONE',  ( -0.000000000000000000, -0.000000000000000000, -1.000000000000000000 ) ) ;
#303 = ORIENTED_EDGE ( 'NONE', *, *, #24, .F. ) ;
#304 = ORIENTED_EDGE ( 'NONE', *, *, #338, .F. ) ;
#305 = ORIENTED_EDGE ( 'NONE', *, *, #331, .T. ) ;
#306 =( NAMED_UNIT ( * ) PLANE_ANGLE_UNIT ( ) SI_UNIT ( $, .RADIAN. ) );
#307 = EDGE_CURVE ( 'NONE', #136, #19, #320, .T. ) ;
#308 = VERTEX_POINT ( 'NONE', #161 ) ;
#309 = AXIS2_PLACEMENT_3D ( 'NONE', #122, #238, #257 ) ;
#310 = PERSON_AND_ORGANIZATION ( #65, #180 ) ;
#311 = CC_DESIGN_DATE_AND_TIME_ASSIGNMENT ( #357, #318, ( #364 ) ) ;
#312 = ORIENTED_EDGE ( 'NONE', *, *, #307, .F. ) ;
#313 = DATE_AND_TIME ( #55, #199 ) ;
#314 = DIRECTION ( 'NONE',  ( -1.000000000000000000, 0.000000000000000000, 0.000000000000000000 ) ) ;
#315 = FACE_OUTER_BOUND ( 'NONE', #70, .T. ) ;
#316 = ADVANCED_FACE ( 'NONE', ( #244 ), #102, .T. ) ;
#317 = ORIENTED_EDGE ( 'NONE', *, *, #249, .F. ) ;
#318 = DATE_TIME_ROLE ( 'classification_date' ) ;
#319 = DIRECTION ( 'NONE',  ( 0.000000000000000000, 0.000000000000000000, 1.000000000000000000 ) ) ;
#320 = CIRCLE ( 'NONE', #159, 6.500000000000000888 ) ;
#321 = FACE_OUTER_BOUND ( 'NONE', #25, .T. ) ;
#322 = EDGE_LOOP ( 'NONE', ( #190, #191, #370, #146 ) ) ;
#323 = EDGE_CURVE ( 'NONE', #308, #344, #3, .T. ) ;
#324 = APPROVAL_ROLE ( '' ) ;
#325 = VERTEX_POINT ( 'NONE', #330 ) ;
#326 = DIRECTION ( 'NONE',  ( 1.000000000000000000, 0.000000000000000000, 0.000000000000000000 ) ) ;
#327 = AXIS2_PLACEMENT_3D ( 'NONE', #175, #319, #379 ) ;
#328 = AXIS2_PLACEMENT_3D ( 'NONE', #268, #12, #185 ) ;
#329 = LOCAL_TIME ( 16, 54, 46.00000000000000000, #151 ) ;
#330 = CARTESIAN_POINT ( 'NONE',  ( 6.000000000000000888, 7.347880794884120722E-16, 157.0000000000000000 ) ) ;
#331 = EDGE_CURVE ( 'NONE', #19, #136, #117, .T. ) ;
#332 = EDGE_CURVE ( 'NONE', #277, #340, #116, .T. ) ;
#333 = PLANE ( 'NONE',  #99 ) ;
#334 = DIRECTION ( 'NONE',  ( 0.000000000000000000, 0.000000000000000000, 1.000000000000000000 ) ) ;
#335 = FACE_OUTER_BOUND ( 'NONE', #209, .T. ) ;
#336 = ORIENTED_EDGE ( 'NONE', *, *, #380, .T. ) ;
#337 = EDGE_LOOP ( 'NONE', ( #52, #109 ) ) ;
#338 = EDGE_CURVE ( 'NONE', #279, #112, #155, .T. ) ;
#339 = AXIS2_PLACEMENT_3D ( 'NONE', #381, #234, #349 ) ;
#340 = VERTEX_POINT ( 'NONE', #45 ) ;
#341 = ORIENTED_EDGE ( 'NONE', *, *, #223, .F. ) ;
#342 = LINE ( 'NONE', #275, #186 ) ;
#343 = ADVANCED_FACE ( 'NONE', ( #125, #269 ), #167, .F. ) ;
#344 = VERTEX_POINT ( 'NONE', #59 ) ;
#345 = PERSON_AND_ORGANIZATION ( #65, #180 ) ;
#346 = DIRECTION ( 'NONE',  ( 1.000000000000000000, 0.000000000000000000, 0.000000000000000000 ) ) ;
#347 = AXIS2_PLACEMENT_3D ( 'NONE', #124, #334, #82 ) ;
#348 = DATE_AND_TIME ( #369, #187 ) ;
#349 = DIRECTION ( 'NONE',  ( 1.000000000000000000, 0.000000000000000000, 0.000000000000000000 ) ) ;
#350 = APPROVAL ( #224, 'NEURÈENÝ' ) ;
#351 = ORIENTED_EDGE ( 'NONE', *, *, #201, .F. ) ;
#352 = FACE_OUTER_BOUND ( 'NONE', #107, .T. ) ;
#353 = CLOSED_SHELL ( 'NONE', ( #375, #80, #6, #35, #49, #270, #343, #316, #243, #299, #219 ) ) ;
#354 = CYLINDRICAL_SURFACE ( 'NONE', #205, 10.00000000000000000 ) ;
#355 = CC_DESIGN_APPROVAL ( #350, ( #76 ) ) ;
#356 = CARTESIAN_POINT ( 'NONE',  ( 0.000000000000000000, 0.000000000000000000, 157.0000000000000000 ) ) ;
#357 = DATE_AND_TIME ( #36, #329 ) ;
#358 = DIRECTION ( 'NONE',  ( 0.000000000000000000, 0.000000000000000000, -1.000000000000000000 ) ) ;
#359 = CARTESIAN_POINT ( 'NONE',  ( 0.000000000000000000, 0.000000000000000000, 157.0000000000000000 ) ) ;
#360 = CARTESIAN_POINT ( 'NONE',  ( 0.000000000000000000, 0.000000000000000000, 157.0000000000000000 ) ) ;
#361 = CARTESIAN_POINT ( 'NONE',  ( -6.000000000000000888, 0.000000000000000000, 7.500000000000007105 ) ) ;
#362 = PLANE ( 'NONE',  #347 ) ;
#363 = CIRCLE ( 'NONE', #43, 3.000000000000000444 ) ;
#364 = SECURITY_CLASSIFICATION ( '', '', #181 ) ;
#365 = EDGE_LOOP ( 'NONE', ( #258, #193, #169, #134 ) ) ;
#366 = EDGE_LOOP ( 'NONE', ( #351, #317, #336, #235 ) ) ;
#367 = ORIENTED_EDGE ( 'NONE', *, *, #110, .F. ) ;
#368 = ORIENTED_EDGE ( 'NONE', *, *, #323, .T. ) ;
#369 = CALENDAR_DATE ( 2022, 8, 7 ) ;
#370 = ORIENTED_EDGE ( 'NONE', *, *, #163, .T. ) ;
#371 = PERSON_AND_ORGANIZATION ( #65, #180 ) ;
#372 = DIRECTION ( 'NONE',  ( 0.000000000000000000, 0.000000000000000000, 1.000000000000000000 ) ) ;
#373 = PRODUCT_DEFINITION_SHAPE ( 'NONE', 'NONE',  #68 ) ;
#374 = PERSON_AND_ORGANIZATION_ROLE ( 'creator' ) ;
#375 = ADVANCED_FACE ( 'NONE', ( #335 ), #57, .F. ) ;
#376 = AXIS2_PLACEMENT_3D ( 'NONE', #92, #203, #291 ) ;
#377 = DIRECTION ( 'NONE',  ( 1.000000000000000000, 0.000000000000000000, 0.000000000000000000 ) ) ;
#378 = ORIENTED_EDGE ( 'NONE', *, *, #332, .T. ) ;
#379 = DIRECTION ( 'NONE',  ( 1.000000000000000000, 0.000000000000000000, 0.000000000000000000 ) ) ;
#380 = EDGE_CURVE ( 'NONE', #18, #260, #342, .T. ) ;
#381 = CARTESIAN_POINT ( 'NONE',  ( 0.000000000000000000, 0.000000000000000000, 7.500000000000007105 ) ) ;
ENDSEC;
END-ISO-10303-21;
