ISO-10303-21;
HEADER;
FILE_DESCRIPTION (( 'STEP AP203' ),
    '1' );
FILE_NAME ('f5da.STEP',
    '2022-07-08T15:49:56',
    ( '' ),
    ( '' ),
    'SwSTEP 2.0',
    'SolidWorks 2019',
    '' );
FILE_SCHEMA (( 'CONFIG_CONTROL_DESIGN' ));
ENDSEC;

DATA;
#1 = DIRECTION ( 'NONE',  ( 0.000000000000000000, 0.000000000000000000, 1.000000000000000000 ) ) ;
#2 = LOCAL_TIME ( 17, 49, 56.00000000000000000, #261 ) ;
#3 = FACE_OUTER_BOUND ( 'NONE', #140, .T. ) ;
#4 = PLANE ( 'NONE',  #14 ) ;
#5 = CARTESIAN_POINT ( 'NONE',  ( 2.000000000000000000, 2.449293598294706414E-16, 228.0000000000000000 ) ) ;
#6 = CARTESIAN_POINT ( 'NONE',  ( 0.000000000000000000, 0.000000000000000000, 3.000000000000000000 ) ) ;
#7 = DIRECTION ( 'NONE',  ( 0.000000000000000000, 0.000000000000000000, 1.000000000000000000 ) ) ;
#8 = EDGE_CURVE ( 'NONE', #197, #223, #369, .T. ) ;
#9 = PERSON_AND_ORGANIZATION_ROLE ( 'design_supplier' ) ;
#10 = ADVANCED_BREP_SHAPE_REPRESENTATION ( 'f5da', ( #201, #238 ), #179 ) ;
#11 = CARTESIAN_POINT ( 'NONE',  ( 0.000000000000000000, 0.000000000000000000, 3.000000000000000000 ) ) ;
#12 = ORIENTED_EDGE ( 'NONE', *, *, #86, .F. ) ;
#13 = VERTEX_POINT ( 'NONE', #99 ) ;
#14 = AXIS2_PLACEMENT_3D ( 'NONE', #90, #215, #119 ) ;
#15 = VERTEX_POINT ( 'NONE', #188 ) ;
#16 = APPROVAL_DATE_TIME ( #251, #320 ) ;
#17 = DIRECTION ( 'NONE',  ( -1.000000000000000000, 0.000000000000000000, 0.000000000000000000 ) ) ;
#18 = ORIENTED_EDGE ( 'NONE', *, *, #49, .T. ) ;
#19 = CC_DESIGN_PERSON_AND_ORGANIZATION_ASSIGNMENT ( #227, #198, ( #50 ) ) ;
#20 = CALENDAR_DATE ( 2022, 8, 7 ) ;
#21 = PLANE ( 'NONE',  #164 ) ;
#22 = EDGE_LOOP ( 'NONE', ( #75, #344 ) ) ;
#23 = PERSON_AND_ORGANIZATION ( #98, #300 ) ;
#24 = AXIS2_PLACEMENT_3D ( 'NONE', #11, #67, #17 ) ;
#25 = AXIS2_PLACEMENT_3D ( 'NONE', #299, #149, #181 ) ;
#26 = CARTESIAN_POINT ( 'NONE',  ( -2.000000000000000000, 0.000000000000000000, 228.0000000000000000 ) ) ;
#27 = CARTESIAN_POINT ( 'NONE',  ( 0.000000000000000000, 0.000000000000000000, 228.0000000000000000 ) ) ;
#28 = ORIENTED_EDGE ( 'NONE', *, *, #49, .F. ) ;
#29 = LINE ( 'NONE', #380, #63 ) ;
#30 = AXIS2_PLACEMENT_3D ( 'NONE', #359, #296, #303 ) ;
#31 = CARTESIAN_POINT ( 'NONE',  ( -1.100000000000000089, 0.000000000000000000, 228.0000000000000000 ) ) ;
#32 = ORIENTED_EDGE ( 'NONE', *, *, #362, .F. ) ;
#33 = CYLINDRICAL_SURFACE ( 'NONE', #25, 1.100000000000000089 ) ;
#34 = FACE_OUTER_BOUND ( 'NONE', #307, .T. ) ;
#35 = CIRCLE ( 'NONE', #328, 2.000000000000000000 ) ;
#36 = EDGE_CURVE ( 'NONE', #113, #233, #267, .T. ) ;
#37 = DIRECTION ( 'NONE',  ( -0.000000000000000000, -0.000000000000000000, -1.000000000000000000 ) ) ;
#38 = DIRECTION ( 'NONE',  ( 1.000000000000000000, 0.000000000000000000, 0.000000000000000000 ) ) ;
#39 = DIRECTION ( 'NONE',  ( 1.224646799147353207E-16, 1.000000000000000000, -0.000000000000000000 ) ) ;
#40 = ORIENTED_EDGE ( 'NONE', *, *, #339, .F. ) ;
#41 = PERSON_AND_ORGANIZATION ( #98, #300 ) ;
#42 = ORIENTED_EDGE ( 'NONE', *, *, #236, .F. ) ;
#43 = EDGE_LOOP ( 'NONE', ( #160, #252, #373, #18 ) ) ;
#44 = EDGE_CURVE ( 'NONE', #309, #219, #35, .T. ) ;
#45 = EDGE_LOOP ( 'NONE', ( #131, #193, #84, #378 ) ) ;
#46 = COORDINATED_UNIVERSAL_TIME_OFFSET ( 1, 0, .AHEAD. ) ;
#47 = CARTESIAN_POINT ( 'NONE',  ( 0.000000000000000000, 0.000000000000000000, 3.000000000000000000 ) ) ;
#48 = CARTESIAN_POINT ( 'NONE',  ( -1.100000000000000089, 0.000000000000000000, 228.0000000000000000 ) ) ;
#49 = EDGE_CURVE ( 'NONE', #15, #13, #245, .T. ) ;
#50 = PRODUCT_DEFINITION_FORMATION_WITH_SPECIFIED_SOURCE ( 'LIBOVOLNÝ', '', #125, .NOT_KNOWN. ) ;
#51 = CARTESIAN_POINT ( 'NONE',  ( 4.000000000000000000, 4.898587196589412829E-16, 3.000000000000000000 ) ) ;
#52 = VERTEX_POINT ( 'NONE', #195 ) ;
#53 = LINE ( 'NONE', #31, #288 ) ;
#54 = ORIENTED_EDGE ( 'NONE', *, *, #36, .F. ) ;
#55 = CARTESIAN_POINT ( 'NONE',  ( -4.000000000000000000, 0.000000000000000000, 3.000000000000000000 ) ) ;
#56 = LOCAL_TIME ( 17, 49, 56.00000000000000000, #284 ) ;
#57 = FACE_OUTER_BOUND ( 'NONE', #43, .T. ) ;
#58 = CC_DESIGN_PERSON_AND_ORGANIZATION_ASSIGNMENT ( #23, #9, ( #50 ) ) ;
#59 = DIRECTION ( 'NONE',  ( 1.000000000000000000, 0.000000000000000000, 0.000000000000000000 ) ) ;
#60 = DIRECTION ( 'NONE',  ( -1.000000000000000000, 0.000000000000000000, 0.000000000000000000 ) ) ;
#61 = ADVANCED_FACE ( 'NONE', ( #168 ), #220, .T. ) ;
#62 = DIRECTION ( 'NONE',  ( -0.000000000000000000, -0.000000000000000000, -1.000000000000000000 ) ) ;
#63 = VECTOR ( 'NONE', #347, 1000.000000000000000 ) ;
#64 = LOCAL_TIME ( 17, 49, 56.00000000000000000, #46 ) ;
#65 = DIRECTION ( 'NONE',  ( 1.000000000000000000, 0.000000000000000000, 0.000000000000000000 ) ) ;
#66 = ORIENTED_EDGE ( 'NONE', *, *, #275, .T. ) ;
#67 = DIRECTION ( 'NONE',  ( -0.000000000000000000, -0.000000000000000000, -1.000000000000000000 ) ) ;
#68 = EDGE_CURVE ( 'NONE', #113, #96, #74, .T. ) ;
#69 = CIRCLE ( 'NONE', #82, 2.299999999999999822 ) ;
#70 = ORIENTED_EDGE ( 'NONE', *, *, #141, .T. ) ;
#71 = DATE_AND_TIME ( #102, #2 ) ;
#72 = ADVANCED_FACE ( 'NONE', ( #323 ), #372, .T. ) ;
#73 = DIRECTION ( 'NONE',  ( 1.000000000000000000, 0.000000000000000000, 0.000000000000000000 ) ) ;
#74 = CIRCLE ( 'NONE', #178, 2.000000000000000000 ) ;
#75 = ORIENTED_EDGE ( 'NONE', *, *, #376, .T. ) ;
#76 = CIRCLE ( 'NONE', #127, 4.000000000000000000 ) ;
#77 = PERSON_AND_ORGANIZATION_ROLE ( 'classification_officer' ) ;
#78 = LINE ( 'NONE', #51, #116 ) ;
#79 = APPROVAL_STATUS ( 'not_yet_approved' ) ;
#80 = CARTESIAN_POINT ( 'NONE',  ( 2.000000000000000000, 2.449293598294706414E-16, 3.299999999999997158 ) ) ;
#81 = AXIS2_PLACEMENT_3D ( 'NONE', #202, #291, #177 ) ;
#82 = AXIS2_PLACEMENT_3D ( 'NONE', #118, #240, #327 ) ;
#83 = DIRECTION ( 'NONE',  ( 0.000000000000000000, 0.000000000000000000, 1.000000000000000000 ) ) ;
#84 = ORIENTED_EDGE ( 'NONE', *, *, #249, .T. ) ;
#85 = FACE_OUTER_BOUND ( 'NONE', #109, .T. ) ;
#86 = EDGE_CURVE ( 'NONE', #129, #15, #53, .T. ) ;
#87 = CARTESIAN_POINT ( 'NONE',  ( 1.100000000000000089, 1.347111479062088257E-16, 228.0000000000000000 ) ) ;
#88 = CIRCLE ( 'NONE', #312, 4.000000000000000000 ) ;
#89 = LINE ( 'NONE', #211, #134 ) ;
#90 = CARTESIAN_POINT ( 'NONE',  ( 0.000000000000000000, 0.000000000000000000, 0.000000000000000000 ) ) ;
#91 = ADVANCED_FACE ( 'NONE', ( #114, #85 ), #143, .T. ) ;
#92 = CALENDAR_DATE ( 2022, 8, 7 ) ;
#93 = ORIENTED_EDGE ( 'NONE', *, *, #362, .T. ) ;
#94 = EDGE_CURVE ( 'NONE', #219, #309, #157, .T. ) ;
#95 = ORIENTED_EDGE ( 'NONE', *, *, #159, .F. ) ;
#96 = VERTEX_POINT ( 'NONE', #80 ) ;
#97 = CIRCLE ( 'NONE', #305, 2.299999999999999822 ) ;
#98 = PERSON ( 'NEURÈENÝ', 'NEURÈENÝ', 'NEURÈENÝ', ('NEURÈENÝ'), ('NEURÈENÝ'), ('NEURÈENÝ') ) ;
#99 = CARTESIAN_POINT ( 'NONE',  ( 1.100000000000000089, 1.347111479062088257E-16, 0.000000000000000000 ) ) ;
#100 = EDGE_LOOP ( 'NONE', ( #42, #248, #166, #191 ) ) ;
#101 = PRODUCT_DEFINITION ( 'NEZNÁMÝ', '', #50, #302 ) ;
#102 = CALENDAR_DATE ( 2022, 8, 7 ) ;
#103 = DIRECTION ( 'NONE',  ( 0.000000000000000000, 0.000000000000000000, 1.000000000000000000 ) ) ;
#104 = FACE_OUTER_BOUND ( 'NONE', #324, .T. ) ;
#105 = ORIENTED_EDGE ( 'NONE', *, *, #132, .F. ) ;
#106 = SECURITY_CLASSIFICATION ( '', '', #234 ) ;
#107 = CALENDAR_DATE ( 2022, 8, 7 ) ;
#108 = DIRECTION ( 'NONE',  ( 0.000000000000000000, -1.000000000000000000, 0.000000000000000000 ) ) ;
#109 = EDGE_LOOP ( 'NONE', ( #280, #292 ) ) ;
#110 = APPROVAL_DATE_TIME ( #71, #282 ) ;
#111 = ADVANCED_FACE ( 'NONE', ( #351 ), #262, .T. ) ;
#112 = DIRECTION ( 'NONE',  ( 0.000000000000000000, 0.000000000000000000, -1.000000000000000000 ) ) ;
#113 = VERTEX_POINT ( 'NONE', #176 ) ;
#114 = FACE_BOUND ( 'NONE', #304, .T. ) ;
#115 = ORIENTED_EDGE ( 'NONE', *, *, #8, .T. ) ;
#116 = VECTOR ( 'NONE', #264, 1000.000000000000000 ) ;
#117 = DIRECTION ( 'NONE',  ( -1.000000000000000000, 0.000000000000000000, 0.000000000000000000 ) ) ;
#118 = CARTESIAN_POINT ( 'NONE',  ( 0.000000000000000000, 0.000000000000000000, 3.000000000000000000 ) ) ;
#119 = DIRECTION ( 'NONE',  ( 1.000000000000000000, 0.000000000000000000, -0.000000000000000000 ) ) ;
#120 = AXIS2_PLACEMENT_3D ( 'NONE', #27, #293, #256 ) ;
#121 = ADVANCED_FACE ( 'NONE', ( #104 ), #221, .F. ) ;
#122 = DIRECTION ( 'NONE',  ( -0.000000000000000000, -0.000000000000000000, -1.000000000000000000 ) ) ;
#123 = DIRECTION ( 'NONE',  ( 1.000000000000000000, 0.000000000000000000, 0.000000000000000000 ) ) ;
#124 = DIRECTION ( 'NONE',  ( 1.000000000000000000, 0.000000000000000000, 0.000000000000000000 ) ) ;
#125 = PRODUCT ( 'f5da', 'f5da', '', ( #194 ) ) ;
#126 = CALENDAR_DATE ( 2022, 8, 7 ) ;
#127 = AXIS2_PLACEMENT_3D ( 'NONE', #6, #7, #59 ) ;
#128 = CC_DESIGN_PERSON_AND_ORGANIZATION_ASSIGNMENT ( #41, #285, ( #125 ) ) ;
#129 = VERTEX_POINT ( 'NONE', #48 ) ;
#130 = APPLICATION_CONTEXT ( 'configuration controlled 3d designs of mechanical parts and assemblies' ) ;
#131 = ORIENTED_EDGE ( 'NONE', *, *, #275, .F. ) ;
#132 = EDGE_CURVE ( 'NONE', #197, #210, #184, .T. ) ;
#133 = VERTEX_POINT ( 'NONE', #290 ) ;
#134 = VECTOR ( 'NONE', #273, 1000.000000000000000 ) ;
#135 = ORIENTED_EDGE ( 'NONE', *, *, #175, .F. ) ;
#136 = PERSON_AND_ORGANIZATION ( #98, #300 ) ;
#137 = ORIENTED_EDGE ( 'NONE', *, *, #376, .F. ) ;
#138 = APPLICATION_PROTOCOL_DEFINITION ( 'international standard', 'config_control_design', 1994, #130 ) ;
#139 = DIRECTION ( 'NONE',  ( 1.000000000000000000, 0.000000000000000000, 0.000000000000000000 ) ) ;
#140 = EDGE_LOOP ( 'NONE', ( #265, #70, #93, #12 ) ) ;
#141 = EDGE_CURVE ( 'NONE', #319, #13, #29, .T. ) ;
#142 = DIRECTION ( 'NONE',  ( -1.000000000000000000, 0.000000000000000000, 0.000000000000000000 ) ) ;
#143 = PLANE ( 'NONE',  #294 ) ;
#144 = EDGE_LOOP ( 'NONE', ( #28, #32 ) ) ;
#145 = CARTESIAN_POINT ( 'NONE',  ( 0.000000000000000000, 0.000000000000000000, 3.299999999999997158 ) ) ;
#146 = ADVANCED_FACE ( 'NONE', ( #321 ), #212, .F. ) ;
#147 = CIRCLE ( 'NONE', #332, 2.000000000000000000 ) ;
#148 = AXIS2_PLACEMENT_3D ( 'NONE', #277, #271, #65 ) ;
#149 = DIRECTION ( 'NONE',  ( 0.000000000000000000, 0.000000000000000000, -1.000000000000000000 ) ) ;
#150 = DIRECTION ( 'NONE',  ( 0.000000000000000000, 0.000000000000000000, -1.000000000000000000 ) ) ;
#151 = APPROVAL_PERSON_ORGANIZATION ( #363, #282, #348 ) ;
#152 = CYLINDRICAL_SURFACE ( 'NONE', #361, 2.000000000000000000 ) ;
#153 = DIRECTION ( 'NONE',  ( 1.000000000000000000, 0.000000000000000000, 0.000000000000000000 ) ) ;
#154 = UNCERTAINTY_MEASURE_WITH_UNIT (LENGTH_MEASURE( 1.000000000000000082E-05 ), #243, 'distance_accuracy_value', 'NONE');
#155 = DATE_AND_TIME ( #107, #242 ) ;
#156 = EDGE_CURVE ( 'NONE', #210, #133, #78, .T. ) ;
#157 = CIRCLE ( 'NONE', #120, 2.000000000000000000 ) ;
#158 = DIRECTION ( 'NONE',  ( 1.000000000000000000, 0.000000000000000000, 0.000000000000000000 ) ) ;
#159 = EDGE_CURVE ( 'NONE', #96, #113, #147, .T. ) ;
#160 = ORIENTED_EDGE ( 'NONE', *, *, #141, .F. ) ;
#161 = ORIENTED_EDGE ( 'NONE', *, *, #199, .F. ) ;
#162 = CARTESIAN_POINT ( 'NONE',  ( 0.000000000000000000, 0.000000000000000000, 0.000000000000000000 ) ) ;
#163 = ORIENTED_EDGE ( 'NONE', *, *, #295, .F. ) ;
#164 = AXIS2_PLACEMENT_3D ( 'NONE', #203, #1, #258 ) ;
#165 = APPROVAL_PERSON_ORGANIZATION ( #136, #320, #247 ) ;
#166 = ORIENTED_EDGE ( 'NONE', *, *, #199, .T. ) ;
#167 = APPROVAL_STATUS ( 'not_yet_approved' ) ;
#168 = FACE_OUTER_BOUND ( 'NONE', #45, .T. ) ;
#169 = DATE_TIME_ROLE ( 'classification_date' ) ;
#170 = DIRECTION ( 'NONE',  ( 0.000000000000000000, 0.000000000000000000, 1.000000000000000000 ) ) ;
#171 = ADVANCED_FACE ( 'NONE', ( #266, #174 ), #21, .T. ) ;
#172 = DIRECTION ( 'NONE',  ( 0.000000000000000000, 0.000000000000000000, 1.000000000000000000 ) ) ;
#173 = CARTESIAN_POINT ( 'NONE',  ( 0.000000000000000000, 0.000000000000000000, 3.299999999999997158 ) ) ;
#174 = FACE_OUTER_BOUND ( 'NONE', #366, .T. ) ;
#175 = EDGE_CURVE ( 'NONE', #96, #52, #353, .T. ) ;
#176 = CARTESIAN_POINT ( 'NONE',  ( -2.000000000000000000, 0.000000000000000000, 3.299999999999997158 ) ) ;
#177 = DIRECTION ( 'NONE',  ( 1.000000000000000000, 0.000000000000000000, 0.000000000000000000 ) ) ;
#178 = AXIS2_PLACEMENT_3D ( 'NONE', #364, #334, #158 ) ;
#179 =( GEOMETRIC_REPRESENTATION_CONTEXT ( 3 ) GLOBAL_UNCERTAINTY_ASSIGNED_CONTEXT ( ( #154 ) ) GLOBAL_UNIT_ASSIGNED_CONTEXT ( ( #243, #301, #217 ) ) REPRESENTATION_CONTEXT ( 'NONE', 'WORKASPACE' ) );
#180 = CARTESIAN_POINT ( 'NONE',  ( -4.000000000000000000, 0.000000000000000000, 0.000000000000000000 ) ) ;
#181 = DIRECTION ( 'NONE',  ( -1.000000000000000000, 0.000000000000000000, 0.000000000000000000 ) ) ;
#182 = EDGE_CURVE ( 'NONE', #223, #133, #88, .T. ) ;
#183 = CARTESIAN_POINT ( 'NONE',  ( 4.000000000000000000, 4.898587196589412829E-16, 3.000000000000000000 ) ) ;
#184 = CIRCLE ( 'NONE', #311, 4.000000000000000000 ) ;
#185 = CIRCLE ( 'NONE', #148, 1.100000000000000089 ) ;
#186 = CARTESIAN_POINT ( 'NONE',  ( -2.299999999999999822, 2.816687638038912056E-16, 2.999999999999998668 ) ) ;
#187 = PRODUCT_RELATED_PRODUCT_CATEGORY ( 'detail', '', ( #125 ) ) ;
#188 = CARTESIAN_POINT ( 'NONE',  ( -1.100000000000000089, 0.000000000000000000, 0.000000000000000000 ) ) ;
#189 = CIRCLE ( 'NONE', #30, 1.100000000000000089 ) ;
#190 = ORIENTED_EDGE ( 'NONE', *, *, #159, .T. ) ;
#191 = ORIENTED_EDGE ( 'NONE', *, *, #68, .T. ) ;
#192 = DATE_TIME_ROLE ( 'creation_date' ) ;
#193 = ORIENTED_EDGE ( 'NONE', *, *, #156, .T. ) ;
#194 = MECHANICAL_CONTEXT ( 'NONE', #317, 'mechanical' ) ;
#195 = CARTESIAN_POINT ( 'NONE',  ( 2.299999999999999822, 0.000000000000000000, 2.999999999999998668 ) ) ;
#196 = AXIS2_PLACEMENT_3D ( 'NONE', #297, #150, #60 ) ;
#197 = VERTEX_POINT ( 'NONE', #55 ) ;
#198 = PERSON_AND_ORGANIZATION_ROLE ( 'creator' ) ;
#199 = EDGE_CURVE ( 'NONE', #309, #113, #349, .T. ) ;
#200 = DIRECTION ( 'NONE',  ( 1.000000000000000000, 0.000000000000000000, -0.000000000000000000 ) ) ;
#201 = MANIFOLD_SOLID_BREP ( 'Odebrat vysunutím3', #204 ) ;
#202 = CARTESIAN_POINT ( 'NONE',  ( 0.000000000000000000, 0.000000000000000000, 3.299999999999997158 ) ) ;
#203 = CARTESIAN_POINT ( 'NONE',  ( 0.000000000000000000, 0.000000000000000000, 3.000000000000000000 ) ) ;
#204 = CLOSED_SHELL ( 'NONE', ( #214, #146, #206, #61, #111, #171, #330, #72, #91, #121, #308 ) ) ;
#205 = AXIS2_PLACEMENT_3D ( 'NONE', #274, #37, #124 ) ;
#206 = ADVANCED_FACE ( 'NONE', ( #358 ), #152, .T. ) ;
#207 = CARTESIAN_POINT ( 'NONE',  ( 0.000000000000000000, 0.000000000000000000, 3.000000000000000000 ) ) ;
#208 = ORIENTED_EDGE ( 'NONE', *, *, #175, .T. ) ;
#209 = DIRECTION ( 'NONE',  ( 1.000000000000000000, 0.000000000000000000, 0.000000000000000000 ) ) ;
#210 = VERTEX_POINT ( 'NONE', #183 ) ;
#211 = CARTESIAN_POINT ( 'NONE',  ( 2.000000000000000000, 2.449293598294706414E-16, 228.0000000000000000 ) ) ;
#212 = TOROIDAL_SURFACE ( 'NONE', #228, 2.299999999999999822, 0.2999999999999999889 ) ;
#213 = CYLINDRICAL_SURFACE ( 'NONE', #196, 1.100000000000000089 ) ;
#214 = ADVANCED_FACE ( 'NONE', ( #3 ), #33, .F. ) ;
#215 = DIRECTION ( 'NONE',  ( 0.000000000000000000, 0.000000000000000000, 1.000000000000000000 ) ) ;
#216 = CC_DESIGN_PERSON_AND_ORGANIZATION_ASSIGNMENT ( #345, #77, ( #106 ) ) ;
#217 =( NAMED_UNIT ( * ) SI_UNIT ( $, .STERADIAN. ) SOLID_ANGLE_UNIT ( ) );
#218 = PERSON_AND_ORGANIZATION ( #98, #300 ) ;
#219 = VERTEX_POINT ( 'NONE', #5 ) ;
#220 = CYLINDRICAL_SURFACE ( 'NONE', #24, 4.000000000000000000 ) ;
#221 = TOROIDAL_SURFACE ( 'NONE', #81, 2.299999999999999822, 0.2999999999999999889 ) ;
#222 = APPROVAL_PERSON_ORGANIZATION ( #257, #254, #379 ) ;
#223 = VERTEX_POINT ( 'NONE', #180 ) ;
#224 = DIRECTION ( 'NONE',  ( -1.000000000000000000, 1.224646799147353207E-16, 0.000000000000000000 ) ) ;
#225 = APPLICATION_PROTOCOL_DEFINITION ( 'international standard', 'config_control_design', 1994, #317 ) ;
#226 = CARTESIAN_POINT ( 'NONE',  ( 0.000000000000000000, 0.000000000000000000, 0.000000000000000000 ) ) ;
#227 = PERSON_AND_ORGANIZATION ( #98, #300 ) ;
#228 = AXIS2_PLACEMENT_3D ( 'NONE', #145, #318, #139 ) ;
#229 = DIRECTION ( 'NONE',  ( 1.000000000000000000, 0.000000000000000000, 0.000000000000000000 ) ) ;
#230 = CC_DESIGN_APPROVAL ( #320, ( #101 ) ) ;
#231 = APPROVAL_STATUS ( 'not_yet_approved' ) ;
#232 = DIRECTION ( 'NONE',  ( 0.000000000000000000, 0.000000000000000000, 1.000000000000000000 ) ) ;
#233 = VERTEX_POINT ( 'NONE', #186 ) ;
#234 = SECURITY_CLASSIFICATION_LEVEL ( 'unclassified' ) ;
#235 = CARTESIAN_POINT ( 'NONE',  ( 0.000000000000000000, 0.000000000000000000, 228.0000000000000000 ) ) ;
#236 = EDGE_CURVE ( 'NONE', #219, #96, #89, .T. ) ;
#237 = DIRECTION ( 'NONE',  ( -0.000000000000000000, -0.000000000000000000, -1.000000000000000000 ) ) ;
#238 = AXIS2_PLACEMENT_3D ( 'NONE', #162, #172, #310 ) ;
#239 = DIRECTION ( 'NONE',  ( 0.000000000000000000, 0.000000000000000000, -1.000000000000000000 ) ) ;
#240 = DIRECTION ( 'NONE',  ( -0.000000000000000000, -0.000000000000000000, -1.000000000000000000 ) ) ;
#241 = FACE_BOUND ( 'NONE', #144, .T. ) ;
#242 = LOCAL_TIME ( 17, 49, 56.00000000000000000, #374 ) ;
#243 =( LENGTH_UNIT ( ) NAMED_UNIT ( * ) SI_UNIT ( .MILLI., .METRE. ) );
#244 = CARTESIAN_POINT ( 'NONE',  ( 0.000000000000000000, 0.000000000000000000, 3.000000000000000000 ) ) ;
#245 = CIRCLE ( 'NONE', #346, 1.100000000000000089 ) ;
#246 = AXIS2_PLACEMENT_3D ( 'NONE', #377, #108, #239 ) ;
#247 = APPROVAL_ROLE ( '' ) ;
#248 = ORIENTED_EDGE ( 'NONE', *, *, #44, .F. ) ;
#249 = EDGE_CURVE ( 'NONE', #133, #223, #268, .T. ) ;
#250 = AXIS2_PLACEMENT_3D ( 'NONE', #326, #314, #142 ) ;
#251 = DATE_AND_TIME ( #92, #56 ) ;
#252 = ORIENTED_EDGE ( 'NONE', *, *, #272, .T. ) ;
#253 = ORIENTED_EDGE ( 'NONE', *, *, #36, .T. ) ;
#254 = APPROVAL ( #79, 'NEURÈENÝ' ) ;
#255 = PERSON_AND_ORGANIZATION_ROLE ( 'creator' ) ;
#256 = DIRECTION ( 'NONE',  ( 1.000000000000000000, 0.000000000000000000, 0.000000000000000000 ) ) ;
#257 = PERSON_AND_ORGANIZATION ( #98, #300 ) ;
#258 = DIRECTION ( 'NONE',  ( 1.000000000000000000, 0.000000000000000000, -0.000000000000000000 ) ) ;
#259 = CC_DESIGN_SECURITY_CLASSIFICATION ( #106, ( #50 ) ) ;
#260 = ORIENTED_EDGE ( 'NONE', *, *, #272, .F. ) ;
#261 = COORDINATED_UNIVERSAL_TIME_OFFSET ( 1, 0, .AHEAD. ) ;
#262 = CYLINDRICAL_SURFACE ( 'NONE', #375, 4.000000000000000000 ) ;
#263 = ORIENTED_EDGE ( 'NONE', *, *, #94, .F. ) ;
#264 = DIRECTION ( 'NONE',  ( -0.000000000000000000, -0.000000000000000000, -1.000000000000000000 ) ) ;
#265 = ORIENTED_EDGE ( 'NONE', *, *, #339, .T. ) ;
#266 = FACE_BOUND ( 'NONE', #22, .T. ) ;
#267 = CIRCLE ( 'NONE', #352, 0.2999999999999999334 ) ;
#268 = CIRCLE ( 'NONE', #367, 4.000000000000000000 ) ;
#269 = ORIENTED_EDGE ( 'NONE', *, *, #132, .T. ) ;
#270 = LOCAL_TIME ( 17, 49, 56.00000000000000000, #342 ) ;
#271 = DIRECTION ( 'NONE',  ( 0.000000000000000000, 0.000000000000000000, 1.000000000000000000 ) ) ;
#272 = EDGE_CURVE ( 'NONE', #319, #129, #185, .T. ) ;
#273 = DIRECTION ( 'NONE',  ( -0.000000000000000000, -0.000000000000000000, -1.000000000000000000 ) ) ;
#274 = CARTESIAN_POINT ( 'NONE',  ( 0.000000000000000000, 0.000000000000000000, 0.000000000000000000 ) ) ;
#275 = EDGE_CURVE ( 'NONE', #210, #197, #76, .T. ) ;
#276 = CARTESIAN_POINT ( 'NONE',  ( 0.000000000000000000, 0.000000000000000000, 0.000000000000000000 ) ) ;
#277 = CARTESIAN_POINT ( 'NONE',  ( 0.000000000000000000, 0.000000000000000000, 228.0000000000000000 ) ) ;
#278 = CC_DESIGN_APPROVAL ( #282, ( #50 ) ) ;
#279 = CARTESIAN_POINT ( 'NONE',  ( -2.299999999999999822, 2.816687638038912056E-16, 3.299999999999997158 ) ) ;
#280 = ORIENTED_EDGE ( 'NONE', *, *, #44, .T. ) ;
#281 = APPROVAL_DATE_TIME ( #155, #254 ) ;
#282 = APPROVAL ( #231, 'NEURÈENÝ' ) ;
#283 = ORIENTED_EDGE ( 'NONE', *, *, #68, .F. ) ;
#284 = COORDINATED_UNIVERSAL_TIME_OFFSET ( 1, 0, .AHEAD. ) ;
#285 = PERSON_AND_ORGANIZATION_ROLE ( 'design_owner' ) ;
#286 = DIRECTION ( 'NONE',  ( 0.000000000000000000, 0.000000000000000000, 1.000000000000000000 ) ) ;
#287 = DATE_AND_TIME ( #126, #64 ) ;
#288 = VECTOR ( 'NONE', #112, 1000.000000000000000 ) ;
#289 = DIRECTION ( 'NONE',  ( -0.000000000000000000, -0.000000000000000000, -1.000000000000000000 ) ) ;
#290 = CARTESIAN_POINT ( 'NONE',  ( 4.000000000000000000, 4.898587196589412829E-16, 0.000000000000000000 ) ) ;
#291 = DIRECTION ( 'NONE',  ( 0.000000000000000000, 0.000000000000000000, 1.000000000000000000 ) ) ;
#292 = ORIENTED_EDGE ( 'NONE', *, *, #94, .T. ) ;
#293 = DIRECTION ( 'NONE',  ( 0.000000000000000000, 0.000000000000000000, 1.000000000000000000 ) ) ;
#294 = AXIS2_PLACEMENT_3D ( 'NONE', #235, #83, #200 ) ;
#295 = EDGE_CURVE ( 'NONE', #233, #52, #69, .T. ) ;
#296 = DIRECTION ( 'NONE',  ( 0.000000000000000000, 0.000000000000000000, 1.000000000000000000 ) ) ;
#297 = CARTESIAN_POINT ( 'NONE',  ( 0.000000000000000000, 0.000000000000000000, 228.0000000000000000 ) ) ;
#298 = CC_DESIGN_PERSON_AND_ORGANIZATION_ASSIGNMENT ( #218, #255, ( #101 ) ) ;
#299 = CARTESIAN_POINT ( 'NONE',  ( 0.000000000000000000, 0.000000000000000000, 228.0000000000000000 ) ) ;
#300 = ORGANIZATION ( 'NEURÈENÝ', 'NEURÈENÝ', '' ) ;
#301 =( NAMED_UNIT ( * ) PLANE_ANGLE_UNIT ( ) SI_UNIT ( $, .RADIAN. ) );
#302 = DESIGN_CONTEXT ( 'detailed design', #130, 'design' ) ;
#303 = DIRECTION ( 'NONE',  ( 1.000000000000000000, 0.000000000000000000, 0.000000000000000000 ) ) ;
#304 = EDGE_LOOP ( 'NONE', ( #40, #260 ) ) ;
#305 = AXIS2_PLACEMENT_3D ( 'NONE', #244, #122, #153 ) ;
#306 = CARTESIAN_POINT ( 'NONE',  ( -4.000000000000000000, 0.000000000000000000, 3.000000000000000000 ) ) ;
#307 = EDGE_LOOP ( 'NONE', ( #315, #365 ) ) ;
#308 = ADVANCED_FACE ( 'NONE', ( #57 ), #213, .F. ) ;
#309 = VERTEX_POINT ( 'NONE', #357 ) ;
#310 = DIRECTION ( 'NONE',  ( 1.000000000000000000, 0.000000000000000000, 0.000000000000000000 ) ) ;
#311 = AXIS2_PLACEMENT_3D ( 'NONE', #207, #170, #229 ) ;
#312 = AXIS2_PLACEMENT_3D ( 'NONE', #356, #232, #209 ) ;
#313 = EDGE_LOOP ( 'NONE', ( #263, #340, #190, #161 ) ) ;
#314 = DIRECTION ( 'NONE',  ( -0.000000000000000000, -0.000000000000000000, -1.000000000000000000 ) ) ;
#315 = ORIENTED_EDGE ( 'NONE', *, *, #182, .F. ) ;
#316 = SHAPE_DEFINITION_REPRESENTATION ( #355, #10 ) ;
#317 = APPLICATION_CONTEXT ( 'configuration controlled 3d designs of mechanical parts and assemblies' ) ;
#318 = DIRECTION ( 'NONE',  ( 0.000000000000000000, 0.000000000000000000, 1.000000000000000000 ) ) ;
#319 = VERTEX_POINT ( 'NONE', #87 ) ;
#320 = APPROVAL ( #167, 'NEURÈENÝ' ) ;
#321 = FACE_OUTER_BOUND ( 'NONE', #341, .T. ) ;
#322 = CC_DESIGN_APPROVAL ( #254, ( #106 ) ) ;
#323 = FACE_OUTER_BOUND ( 'NONE', #100, .T. ) ;
#324 = EDGE_LOOP ( 'NONE', ( #54, #95, #208, #163 ) ) ;
#325 = CC_DESIGN_DATE_AND_TIME_ASSIGNMENT ( #287, #169, ( #106 ) ) ;
#326 = CARTESIAN_POINT ( 'NONE',  ( 0.000000000000000000, 0.000000000000000000, 228.0000000000000000 ) ) ;
#327 = DIRECTION ( 'NONE',  ( 1.000000000000000000, 0.000000000000000000, 0.000000000000000000 ) ) ;
#328 = AXIS2_PLACEMENT_3D ( 'NONE', #335, #103, #38 ) ;
#329 = DIRECTION ( 'NONE',  ( 0.000000000000000000, 0.000000000000000000, 1.000000000000000000 ) ) ;
#330 = ADVANCED_FACE ( 'NONE', ( #241, #34 ), #4, .F. ) ;
#331 = CARTESIAN_POINT ( 'NONE',  ( 0.000000000000000000, 0.000000000000000000, 228.0000000000000000 ) ) ;
#332 = AXIS2_PLACEMENT_3D ( 'NONE', #173, #286, #381 ) ;
#333 = VECTOR ( 'NONE', #289, 1000.000000000000000 ) ;
#334 = DIRECTION ( 'NONE',  ( 0.000000000000000000, 0.000000000000000000, 1.000000000000000000 ) ) ;
#335 = CARTESIAN_POINT ( 'NONE',  ( 0.000000000000000000, 0.000000000000000000, 228.0000000000000000 ) ) ;
#336 = VECTOR ( 'NONE', #368, 1000.000000000000000 ) ;
#337 = CIRCLE ( 'NONE', #205, 1.100000000000000089 ) ;
#338 = ORIENTED_EDGE ( 'NONE', *, *, #182, .T. ) ;
#339 = EDGE_CURVE ( 'NONE', #129, #319, #189, .T. ) ;
#340 = ORIENTED_EDGE ( 'NONE', *, *, #236, .T. ) ;
#341 = EDGE_LOOP ( 'NONE', ( #283, #253, #137, #135 ) ) ;
#342 = COORDINATED_UNIVERSAL_TIME_OFFSET ( 1, 0, .AHEAD. ) ;
#343 = DIRECTION ( 'NONE',  ( -0.000000000000000000, -0.000000000000000000, -1.000000000000000000 ) ) ;
#344 = ORIENTED_EDGE ( 'NONE', *, *, #295, .T. ) ;
#345 = PERSON_AND_ORGANIZATION ( #98, #300 ) ;
#346 = AXIS2_PLACEMENT_3D ( 'NONE', #226, #343, #73 ) ;
#347 = DIRECTION ( 'NONE',  ( 0.000000000000000000, 0.000000000000000000, -1.000000000000000000 ) ) ;
#348 = APPROVAL_ROLE ( '' ) ;
#349 = LINE ( 'NONE', #26, #333 ) ;
#350 = ORIENTED_EDGE ( 'NONE', *, *, #156, .F. ) ;
#351 = FACE_OUTER_BOUND ( 'NONE', #370, .T. ) ;
#352 = AXIS2_PLACEMENT_3D ( 'NONE', #279, #39, #224 ) ;
#353 = CIRCLE ( 'NONE', #246, 0.2999999999999999334 ) ;
#354 = CC_DESIGN_DATE_AND_TIME_ASSIGNMENT ( #371, #192, ( #101 ) ) ;
#355 = PRODUCT_DEFINITION_SHAPE ( 'NONE', 'NONE',  #101 ) ;
#356 = CARTESIAN_POINT ( 'NONE',  ( 0.000000000000000000, 0.000000000000000000, 0.000000000000000000 ) ) ;
#357 = CARTESIAN_POINT ( 'NONE',  ( -2.000000000000000000, 0.000000000000000000, 228.0000000000000000 ) ) ;
#358 = FACE_OUTER_BOUND ( 'NONE', #313, .T. ) ;
#359 = CARTESIAN_POINT ( 'NONE',  ( 0.000000000000000000, 0.000000000000000000, 228.0000000000000000 ) ) ;
#360 = DIRECTION ( 'NONE',  ( -1.000000000000000000, 0.000000000000000000, 0.000000000000000000 ) ) ;
#361 = AXIS2_PLACEMENT_3D ( 'NONE', #331, #62, #360 ) ;
#362 = EDGE_CURVE ( 'NONE', #13, #15, #337, .T. ) ;
#363 = PERSON_AND_ORGANIZATION ( #98, #300 ) ;
#364 = CARTESIAN_POINT ( 'NONE',  ( 0.000000000000000000, 0.000000000000000000, 3.299999999999997158 ) ) ;
#365 = ORIENTED_EDGE ( 'NONE', *, *, #249, .F. ) ;
#366 = EDGE_LOOP ( 'NONE', ( #269, #66 ) ) ;
#367 = AXIS2_PLACEMENT_3D ( 'NONE', #276, #329, #123 ) ;
#368 = DIRECTION ( 'NONE',  ( -0.000000000000000000, -0.000000000000000000, -1.000000000000000000 ) ) ;
#369 = LINE ( 'NONE', #306, #336 ) ;
#370 = EDGE_LOOP ( 'NONE', ( #350, #105, #115, #338 ) ) ;
#371 = DATE_AND_TIME ( #20, #270 ) ;
#372 = CYLINDRICAL_SURFACE ( 'NONE', #250, 2.000000000000000000 ) ;
#373 = ORIENTED_EDGE ( 'NONE', *, *, #86, .T. ) ;
#374 = COORDINATED_UNIVERSAL_TIME_OFFSET ( 1, 0, .AHEAD. ) ;
#375 = AXIS2_PLACEMENT_3D ( 'NONE', #47, #237, #117 ) ;
#376 = EDGE_CURVE ( 'NONE', #52, #233, #97, .T. ) ;
#377 = CARTESIAN_POINT ( 'NONE',  ( 2.299999999999999822, 0.000000000000000000, 3.299999999999997158 ) ) ;
#378 = ORIENTED_EDGE ( 'NONE', *, *, #8, .F. ) ;
#379 = APPROVAL_ROLE ( '' ) ;
#380 = CARTESIAN_POINT ( 'NONE',  ( 1.100000000000000089, 1.347111479062088257E-16, 228.0000000000000000 ) ) ;
#381 = DIRECTION ( 'NONE',  ( 1.000000000000000000, 0.000000000000000000, 0.000000000000000000 ) ) ;
ENDSEC;
END-ISO-10303-21;
