ISO-10303-21;
HEADER;
FILE_DESCRIPTION (( 'STEP AP203' ),
    '1' );
FILE_NAME ('c87f.STEP',
    '2022-07-08T15:13:55',
    ( '' ),
    ( '' ),
    'SwSTEP 2.0',
    'SolidWorks 2019',
    '' );
FILE_SCHEMA (( 'CONFIG_CONTROL_DESIGN' ));
ENDSEC;

DATA;
#1 = EDGE_CURVE ( 'NONE', #187, #210, #364, .T. ) ;
#2 = ORIENTED_EDGE ( 'NONE', *, *, #323, .F. ) ;
#3 = ORIENTED_EDGE ( 'NONE', *, *, #369, .F. ) ;
#4 = AXIS2_PLACEMENT_3D ( 'NONE', #166, #17, #345 ) ;
#5 = VERTEX_POINT ( 'NONE', #95 ) ;
#6 = ADVANCED_FACE ( 'NONE', ( #357, #324 ), #180, .F. ) ;
#7 = VERTEX_POINT ( 'NONE', #162 ) ;
#8 = LOCAL_TIME ( 17, 13, 55.00000000000000000, #81 ) ;
#9 = VERTEX_POINT ( 'NONE', #341 ) ;
#10 = FACE_OUTER_BOUND ( 'NONE', #268, .T. ) ;
#11 = VECTOR ( 'NONE', #361, 1000.000000000000000 ) ;
#12 = CYLINDRICAL_SURFACE ( 'NONE', #356, 2.500000000000000000 ) ;
#13 = CARTESIAN_POINT ( 'NONE',  ( 0.000000000000000000, 0.000000000000000000, 82.00000000000000000 ) ) ;
#14 = CIRCLE ( 'NONE', #374, 10.00000000000000000 ) ;
#15 = CARTESIAN_POINT ( 'NONE',  ( 0.000000000000000000, 0.000000000000000000, 7.000000000000000000 ) ) ;
#16 = FACE_OUTER_BOUND ( 'NONE', #127, .T. ) ;
#17 = DIRECTION ( 'NONE',  ( 0.000000000000000000, 0.000000000000000000, 1.000000000000000000 ) ) ;
#18 = CARTESIAN_POINT ( 'NONE',  ( 0.000000000000000000, 0.000000000000000000, 82.00000000000000000 ) ) ;
#19 = CARTESIAN_POINT ( 'NONE',  ( 6.000000000000000888, 7.347880794884120722E-16, 7.499999999999992895 ) ) ;
#20 = DIRECTION ( 'NONE',  ( 1.000000000000000000, 0.000000000000000000, 0.000000000000000000 ) ) ;
#21 = MANIFOLD_SOLID_BREP ( 'Odebrat vysunutím3', #313 ) ;
#22 = PERSON_AND_ORGANIZATION_ROLE ( 'classification_officer' ) ;
#23 = COORDINATED_UNIVERSAL_TIME_OFFSET ( 1, 0, .AHEAD. ) ;
#24 = FACE_OUTER_BOUND ( 'NONE', #217, .T. ) ;
#25 = CIRCLE ( 'NONE', #212, 10.00000000000000000 ) ;
#26 = CALENDAR_DATE ( 2022, 8, 7 ) ;
#27 = TOROIDAL_SURFACE ( 'NONE', #251, 6.500000000000000888, 0.5000000000000000000 ) ;
#28 = ORIENTED_EDGE ( 'NONE', *, *, #156, .F. ) ;
#29 = DIRECTION ( 'NONE',  ( 0.000000000000000000, 0.000000000000000000, 1.000000000000000000 ) ) ;
#30 = VERTEX_POINT ( 'NONE', #100 ) ;
#31 = EDGE_CURVE ( 'NONE', #236, #93, #336, .T. ) ;
#32 = EDGE_LOOP ( 'NONE', ( #262, #34, #62, #298 ) ) ;
#33 = ORIENTED_EDGE ( 'NONE', *, *, #145, .F. ) ;
#34 = ORIENTED_EDGE ( 'NONE', *, *, #332, .T. ) ;
#35 = EDGE_LOOP ( 'NONE', ( #141, #2 ) ) ;
#36 = CIRCLE ( 'NONE', #343, 6.000000000000000888 ) ;
#37 = EDGE_CURVE ( 'NONE', #358, #52, #130, .T. ) ;
#38 = CARTESIAN_POINT ( 'NONE',  ( 0.000000000000000000, 0.000000000000000000, 82.00000000000000000 ) ) ;
#39 = DIRECTION ( 'NONE',  ( -0.000000000000000000, -0.000000000000000000, -1.000000000000000000 ) ) ;
#40 = CC_DESIGN_PERSON_AND_ORGANIZATION_ASSIGNMENT ( #50, #197, ( #294 ) ) ;
#41 = FACE_OUTER_BOUND ( 'NONE', #88, .T. ) ;
#42 = LINE ( 'NONE', #366, #94 ) ;
#43 = DIRECTION ( 'NONE',  ( 1.000000000000000000, 0.000000000000000000, 0.000000000000000000 ) ) ;
#44 = DIRECTION ( 'NONE',  ( 1.000000000000000000, 0.000000000000000000, -0.000000000000000000 ) ) ;
#45 = CIRCLE ( 'NONE', #4, 6.000000000000000888 ) ;
#46 = CC_DESIGN_APPROVAL ( #339, ( #294 ) ) ;
#47 = DIRECTION ( 'NONE',  ( 0.000000000000000000, 0.000000000000000000, 1.000000000000000000 ) ) ;
#48 = CARTESIAN_POINT ( 'NONE',  ( 0.000000000000000000, 0.000000000000000000, 82.00000000000000000 ) ) ;
#49 = PERSON_AND_ORGANIZATION_ROLE ( 'design_owner' ) ;
#50 = PERSON_AND_ORGANIZATION ( #164, #317 ) ;
#51 = AXIS2_PLACEMENT_3D ( 'NONE', #72, #192, #300 ) ;
#52 = VERTEX_POINT ( 'NONE', #19 ) ;
#53 = APPROVAL_DATE_TIME ( #173, #231 ) ;
#54 = CARTESIAN_POINT ( 'NONE',  ( -2.500000000000000000, 0.000000000000000000, 82.00000000000000000 ) ) ;
#55 = APPROVAL_ROLE ( '' ) ;
#56 = DIRECTION ( 'NONE',  ( 0.000000000000000000, 0.000000000000000000, 1.000000000000000000 ) ) ;
#57 = AXIS2_PLACEMENT_3D ( 'NONE', #13, #39, #193 ) ;
#58 = VECTOR ( 'NONE', #216, 1000.000000000000000 ) ;
#59 = ORIENTED_EDGE ( 'NONE', *, *, #309, .T. ) ;
#60 = ORIENTED_EDGE ( 'NONE', *, *, #314, .T. ) ;
#61 = ADVANCED_FACE ( 'NONE', ( #274 ), #105, .T. ) ;
#62 = ORIENTED_EDGE ( 'NONE', *, *, #31, .T. ) ;
#63 = ADVANCED_FACE ( 'NONE', ( #16 ), #305, .T. ) ;
#64 = ORIENTED_EDGE ( 'NONE', *, *, #78, .T. ) ;
#65 = APPROVAL_PERSON_ORGANIZATION ( #346, #339, #198 ) ;
#66 = EDGE_LOOP ( 'NONE', ( #290, #334 ) ) ;
#67 = ORIENTED_EDGE ( 'NONE', *, *, #37, .T. ) ;
#68 = DIRECTION ( 'NONE',  ( 1.000000000000000000, 0.000000000000000000, -0.000000000000000000 ) ) ;
#69 = LOCAL_TIME ( 17, 13, 55.00000000000000000, #175 ) ;
#70 = DIRECTION ( 'NONE',  ( 0.000000000000000000, 0.000000000000000000, 1.000000000000000000 ) ) ;
#71 = DIRECTION ( 'NONE',  ( -0.000000000000000000, -0.000000000000000000, -1.000000000000000000 ) ) ;
#72 = CARTESIAN_POINT ( 'NONE',  ( 0.000000000000000000, 0.000000000000000000, 0.000000000000000000 ) ) ;
#73 = DIRECTION ( 'NONE',  ( 1.000000000000000000, 0.000000000000000000, 0.000000000000000000 ) ) ;
#74 = DIRECTION ( 'NONE',  ( -0.000000000000000000, -0.000000000000000000, -1.000000000000000000 ) ) ;
#75 = LOCAL_TIME ( 17, 13, 55.00000000000000000, #373 ) ;
#76 = DIRECTION ( 'NONE',  ( 0.000000000000000000, 0.000000000000000000, 1.000000000000000000 ) ) ;
#77 = CARTESIAN_POINT ( 'NONE',  ( 6.000000000000000888, 7.347880794884120722E-16, 82.00000000000000000 ) ) ;
#78 = EDGE_CURVE ( 'NONE', #5, #266, #92, .T. ) ;
#79 = APPLICATION_PROTOCOL_DEFINITION ( 'international standard', 'config_control_design', 1994, #174 ) ;
#80 = DIRECTION ( 'NONE',  ( 0.000000000000000000, 0.000000000000000000, 1.000000000000000000 ) ) ;
#81 = COORDINATED_UNIVERSAL_TIME_OFFSET ( 1, 0, .AHEAD. ) ;
#82 = EDGE_LOOP ( 'NONE', ( #330, #153 ) ) ;
#83 = PRODUCT_DEFINITION_FORMATION_WITH_SPECIFIED_SOURCE ( 'LIBOVOLNÝ', '', #204, .NOT_KNOWN. ) ;
#84 = APPROVAL_STATUS ( 'not_yet_approved' ) ;
#85 = FACE_OUTER_BOUND ( 'NONE', #354, .T. ) ;
#86 = EDGE_CURVE ( 'NONE', #93, #210, #115, .T. ) ;
#87 = AXIS2_PLACEMENT_3D ( 'NONE', #135, #74, #244 ) ;
#88 = EDGE_LOOP ( 'NONE', ( #259, #295, #322, #184 ) ) ;
#89 = AXIS2_PLACEMENT_3D ( 'NONE', #196, #250, #375 ) ;
#90 = CC_DESIGN_PERSON_AND_ORGANIZATION_ASSIGNMENT ( #201, #260, ( #83 ) ) ;
#91 = ORIENTED_EDGE ( 'NONE', *, *, #207, .T. ) ;
#92 = CIRCLE ( 'NONE', #256, 6.500000000000000888 ) ;
#93 = VERTEX_POINT ( 'NONE', #191 ) ;
#94 = VECTOR ( 'NONE', #279, 1000.000000000000000 ) ;
#95 = CARTESIAN_POINT ( 'NONE',  ( -6.500000000000000888, 7.960204194457796463E-16, 6.999999999999995559 ) ) ;
#96 = DIRECTION ( 'NONE',  ( 1.000000000000000000, 0.000000000000000000, 0.000000000000000000 ) ) ;
#97 = ORIENTED_EDGE ( 'NONE', *, *, #348, .T. ) ;
#98 = AXIS2_PLACEMENT_3D ( 'NONE', #136, #221, #310 ) ;
#99 = FACE_OUTER_BOUND ( 'NONE', #66, .T. ) ;
#100 = CARTESIAN_POINT ( 'NONE',  ( 10.00000000000000000, 1.224646799147353256E-15, 0.000000000000000000 ) ) ;
#101 = AXIS2_PLACEMENT_3D ( 'NONE', #176, #280, #380 ) ;
#102 = PLANE ( 'NONE',  #321 ) ;
#103 = DIRECTION ( 'NONE',  ( -0.000000000000000000, -0.000000000000000000, -1.000000000000000000 ) ) ;
#104 = CARTESIAN_POINT ( 'NONE',  ( 0.000000000000000000, 0.000000000000000000, 7.000000000000000000 ) ) ;
#105 = CYLINDRICAL_SURFACE ( 'NONE', #255, 6.000000000000000888 ) ;
#106 = CARTESIAN_POINT ( 'NONE',  ( 0.000000000000000000, 0.000000000000000000, 82.00000000000000000 ) ) ;
#107 = LOCAL_TIME ( 17, 13, 55.00000000000000000, #23 ) ;
#108 = COORDINATED_UNIVERSAL_TIME_OFFSET ( 1, 0, .AHEAD. ) ;
#109 = CARTESIAN_POINT ( 'NONE',  ( 0.000000000000000000, 0.000000000000000000, 7.499999999999992895 ) ) ;
#110 = EDGE_CURVE ( 'NONE', #287, #113, #326, .T. ) ;
#111 =( NAMED_UNIT ( * ) SI_UNIT ( $, .STERADIAN. ) SOLID_ANGLE_UNIT ( ) );
#112 = FACE_OUTER_BOUND ( 'NONE', #292, .T. ) ;
#113 = VERTEX_POINT ( 'NONE', #347 ) ;
#114 = APPROVAL_STATUS ( 'not_yet_approved' ) ;
#115 = CIRCLE ( 'NONE', #98, 2.500000000000000000 ) ;
#116 = FACE_BOUND ( 'NONE', #151, .T. ) ;
#117 = DATE_TIME_ROLE ( 'creation_date' ) ;
#118 = APPROVAL_PERSON_ORGANIZATION ( #352, #189, #55 ) ;
#119 = DIRECTION ( 'NONE',  ( 0.000000000000000000, 0.000000000000000000, 1.000000000000000000 ) ) ;
#120 = APPROVAL_DATE_TIME ( #146, #189 ) ;
#121 = ORIENTED_EDGE ( 'NONE', *, *, #170, .F. ) ;
#122 = ORIENTED_EDGE ( 'NONE', *, *, #314, .F. ) ;
#123 = ORIENTED_EDGE ( 'NONE', *, *, #213, .T. ) ;
#124 = AXIS2_PLACEMENT_3D ( 'NONE', #349, #261, #316 ) ;
#125 = ORIENTED_EDGE ( 'NONE', *, *, #332, .F. ) ;
#126 = AXIS2_PLACEMENT_3D ( 'NONE', #252, #56, #376 ) ;
#127 = EDGE_LOOP ( 'NONE', ( #270, #28, #60, #91 ) ) ;
#128 = CARTESIAN_POINT ( 'NONE',  ( -6.000000000000000888, 0.000000000000000000, 7.499999999999992895 ) ) ;
#129 = CARTESIAN_POINT ( 'NONE',  ( 2.500000000000000000, 3.061616997868383141E-16, 82.00000000000000000 ) ) ;
#130 = CIRCLE ( 'NONE', #379, 6.000000000000000888 ) ;
#131 = CARTESIAN_POINT ( 'NONE',  ( 0.000000000000000000, 0.000000000000000000, 82.00000000000000000 ) ) ;
#132 = LINE ( 'NONE', #77, #194 ) ;
#133 = CC_DESIGN_APPROVAL ( #189, ( #152 ) ) ;
#134 = CARTESIAN_POINT ( 'NONE',  ( 0.000000000000000000, 0.000000000000000000, 7.000000000000000000 ) ) ;
#135 = CARTESIAN_POINT ( 'NONE',  ( 0.000000000000000000, 0.000000000000000000, 7.000000000000000000 ) ) ;
#136 = CARTESIAN_POINT ( 'NONE',  ( 0.000000000000000000, 0.000000000000000000, 0.000000000000000000 ) ) ;
#137 = DIRECTION ( 'NONE',  ( 0.000000000000000000, 0.000000000000000000, 1.000000000000000000 ) ) ;
#138 = AXIS2_PLACEMENT_3D ( 'NONE', #104, #342, #195 ) ;
#139 =( NAMED_UNIT ( * ) PLANE_ANGLE_UNIT ( ) SI_UNIT ( $, .RADIAN. ) );
#140 = PERSON_AND_ORGANIZATION ( #164, #317 ) ;
#141 = ORIENTED_EDGE ( 'NONE', *, *, #207, .F. ) ;
#142 = CALENDAR_DATE ( 2022, 8, 7 ) ;
#143 = PLANE ( 'NONE',  #124 ) ;
#144 = ORIENTED_EDGE ( 'NONE', *, *, #37, .F. ) ;
#145 = EDGE_CURVE ( 'NONE', #113, #358, #42, .T. ) ;
#146 = DATE_AND_TIME ( #26, #69 ) ;
#147 = AXIS2_PLACEMENT_3D ( 'NONE', #106, #70, #43 ) ;
#148 = PRODUCT_DEFINITION_SHAPE ( 'NONE', 'NONE',  #294 ) ;
#149 = ORIENTED_EDGE ( 'NONE', *, *, #277, .T. ) ;
#150 = ADVANCED_FACE ( 'NONE', ( #301 ), #225, .T. ) ;
#151 = EDGE_LOOP ( 'NONE', ( #178, #64 ) ) ;
#152 = SECURITY_CLASSIFICATION ( '', '', #249 ) ;
#153 = ORIENTED_EDGE ( 'NONE', *, *, #363, .F. ) ;
#154 = ORIENTED_EDGE ( 'NONE', *, *, #183, .T. ) ;
#155 = ORIENTED_EDGE ( 'NONE', *, *, #263, .F. ) ;
#156 = EDGE_CURVE ( 'NONE', #7, #206, #25, .T. ) ;
#157 = CIRCLE ( 'NONE', #89, 0.5000000000000004441 ) ;
#158 = CARTESIAN_POINT ( 'NONE',  ( 10.00000000000000000, 1.224646799147353256E-15, 7.000000000000000000 ) ) ;
#159 = CARTESIAN_POINT ( 'NONE',  ( 10.00000000000000000, 1.224646799147353256E-15, 7.000000000000000000 ) ) ;
#160 = CARTESIAN_POINT ( 'NONE',  ( 0.000000000000000000, 0.000000000000000000, 7.000000000000000000 ) ) ;
#161 = CARTESIAN_POINT ( 'NONE',  ( 0.000000000000000000, 0.000000000000000000, 0.000000000000000000 ) ) ;
#162 = CARTESIAN_POINT ( 'NONE',  ( -10.00000000000000000, 0.000000000000000000, 7.000000000000000000 ) ) ;
#163 = CC_DESIGN_DATE_AND_TIME_ASSIGNMENT ( #227, #257, ( #152 ) ) ;
#164 = PERSON ( 'NEURÈENÝ', 'NEURÈENÝ', 'NEURÈENÝ', ('NEURÈENÝ'), ('NEURÈENÝ'), ('NEURÈENÝ') ) ;
#165 = AXIS2_PLACEMENT_3D ( 'NONE', #230, #286, #254 ) ;
#166 = CARTESIAN_POINT ( 'NONE',  ( 0.000000000000000000, 0.000000000000000000, 82.00000000000000000 ) ) ;
#167 = CARTESIAN_POINT ( 'NONE',  ( 0.000000000000000000, 0.000000000000000000, 7.499999999999992895 ) ) ;
#168 = APPLICATION_CONTEXT ( 'configuration controlled 3d designs of mechanical parts and assemblies' ) ;
#169 = DIRECTION ( 'NONE',  ( 1.000000000000000000, 0.000000000000000000, 0.000000000000000000 ) ) ;
#170 = EDGE_CURVE ( 'NONE', #113, #287, #45, .T. ) ;
#171 = PERSON_AND_ORGANIZATION ( #164, #317 ) ;
#172 = AXIS2_PLACEMENT_3D ( 'NONE', #38, #304, #190 ) ;
#173 = DATE_AND_TIME ( #378, #107 ) ;
#174 = APPLICATION_CONTEXT ( 'configuration controlled 3d designs of mechanical parts and assemblies' ) ;
#175 = COORDINATED_UNIVERSAL_TIME_OFFSET ( 1, 0, .AHEAD. ) ;
#176 = CARTESIAN_POINT ( 'NONE',  ( 0.000000000000000000, 0.000000000000000000, 0.000000000000000000 ) ) ;
#177 = EDGE_CURVE ( 'NONE', #287, #52, #132, .T. ) ;
#178 = ORIENTED_EDGE ( 'NONE', *, *, #369, .T. ) ;
#179 = VECTOR ( 'NONE', #275, 1000.000000000000000 ) ;
#180 = PLANE ( 'NONE',  #240 ) ;
#181 = AXIS2_PLACEMENT_3D ( 'NONE', #258, #119, #20 ) ;
#182 = ORIENTED_EDGE ( 'NONE', *, *, #145, .T. ) ;
#183 = EDGE_CURVE ( 'NONE', #52, #266, #157, .T. ) ;
#184 = ORIENTED_EDGE ( 'NONE', *, *, #31, .F. ) ;
#185 = DIRECTION ( 'NONE',  ( 0.000000000000000000, 0.000000000000000000, -1.000000000000000000 ) ) ;
#186 = CIRCLE ( 'NONE', #299, 10.00000000000000000 ) ;
#187 = VERTEX_POINT ( 'NONE', #129 ) ;
#188 = DIRECTION ( 'NONE',  ( 1.000000000000000000, 0.000000000000000000, 0.000000000000000000 ) ) ;
#189 = APPROVAL ( #84, 'NEURÈENÝ' ) ;
#190 = DIRECTION ( 'NONE',  ( -1.000000000000000000, 0.000000000000000000, 0.000000000000000000 ) ) ;
#191 = CARTESIAN_POINT ( 'NONE',  ( -2.500000000000000000, 0.000000000000000000, 0.000000000000000000 ) ) ;
#192 = DIRECTION ( 'NONE',  ( 0.000000000000000000, 0.000000000000000000, 1.000000000000000000 ) ) ;
#193 = DIRECTION ( 'NONE',  ( -1.000000000000000000, 0.000000000000000000, 0.000000000000000000 ) ) ;
#194 = VECTOR ( 'NONE', #103, 1000.000000000000000 ) ;
#195 = DIRECTION ( 'NONE',  ( -1.000000000000000000, 0.000000000000000000, 0.000000000000000000 ) ) ;
#196 = CARTESIAN_POINT ( 'NONE',  ( 6.500000000000000888, 0.000000000000000000, 7.499999999999992895 ) ) ;
#197 = PERSON_AND_ORGANIZATION_ROLE ( 'creator' ) ;
#198 = APPROVAL_ROLE ( '' ) ;
#199 = ORIENTED_EDGE ( 'NONE', *, *, #78, .F. ) ;
#200 = MECHANICAL_CONTEXT ( 'NONE', #168, 'mechanical' ) ;
#201 = PERSON_AND_ORGANIZATION ( #164, #317 ) ;
#202 = CARTESIAN_POINT ( 'NONE',  ( 2.500000000000000000, 3.061616997868383141E-16, 0.000000000000000000 ) ) ;
#203 = ORIENTED_EDGE ( 'NONE', *, *, #183, .F. ) ;
#204 = PRODUCT ( 'c87f', 'c87f', '', ( #200 ) ) ;
#205 = CARTESIAN_POINT ( 'NONE',  ( 6.500000000000000888, 0.000000000000000000, 6.999999999999995559 ) ) ;
#206 = VERTEX_POINT ( 'NONE', #159 ) ;
#207 = EDGE_CURVE ( 'NONE', #9, #30, #186, .T. ) ;
#208 = CIRCLE ( 'NONE', #344, 2.500000000000000000 ) ;
#209 = CC_DESIGN_PERSON_AND_ORGANIZATION_ASSIGNMENT ( #311, #285, ( #83 ) ) ;
#210 = VERTEX_POINT ( 'NONE', #202 ) ;
#211 = ORIENTED_EDGE ( 'NONE', *, *, #177, .T. ) ;
#212 = AXIS2_PLACEMENT_3D ( 'NONE', #160, #47, #308 ) ;
#213 = EDGE_CURVE ( 'NONE', #358, #5, #214, .T. ) ;
#214 = CIRCLE ( 'NONE', #165, 0.5000000000000004441 ) ;
#215 = CARTESIAN_POINT ( 'NONE',  ( 0.000000000000000000, 0.000000000000000000, 0.000000000000000000 ) ) ;
#216 = DIRECTION ( 'NONE',  ( -0.000000000000000000, -0.000000000000000000, -1.000000000000000000 ) ) ;
#217 = EDGE_LOOP ( 'NONE', ( #264, #59 ) ) ;
#218 = CARTESIAN_POINT ( 'NONE',  ( -10.00000000000000000, 0.000000000000000000, 7.000000000000000000 ) ) ;
#219 = CARTESIAN_POINT ( 'NONE',  ( 0.000000000000000000, 0.000000000000000000, 0.000000000000000000 ) ) ;
#220 = DIRECTION ( 'NONE',  ( -1.000000000000000000, 0.000000000000000000, 0.000000000000000000 ) ) ;
#221 = DIRECTION ( 'NONE',  ( -0.000000000000000000, -0.000000000000000000, -1.000000000000000000 ) ) ;
#222 = DIRECTION ( 'NONE',  ( -0.000000000000000000, -0.000000000000000000, -1.000000000000000000 ) ) ;
#223 = DIRECTION ( 'NONE',  ( -0.000000000000000000, -0.000000000000000000, -1.000000000000000000 ) ) ;
#224 = LINE ( 'NONE', #218, #58 ) ;
#225 = CYLINDRICAL_SURFACE ( 'NONE', #57, 6.000000000000000888 ) ;
#226 = CIRCLE ( 'NONE', #51, 10.00000000000000000 ) ;
#227 = DATE_AND_TIME ( #142, #367 ) ;
#228 = DIRECTION ( 'NONE',  ( 1.000000000000000000, 0.000000000000000000, 0.000000000000000000 ) ) ;
#229 = PRODUCT_RELATED_PRODUCT_CATEGORY ( 'detail', '', ( #204 ) ) ;
#230 = CARTESIAN_POINT ( 'NONE',  ( -6.500000000000000888, 7.960204194457796463E-16, 7.499999999999992895 ) ) ;
#231 = APPROVAL ( #232, 'NEURÈENÝ' ) ;
#232 = APPROVAL_STATUS ( 'not_yet_approved' ) ;
#233 = SHAPE_DEFINITION_REPRESENTATION ( #148, #243 ) ;
#234 = CIRCLE ( 'NONE', #241, 6.500000000000000888 ) ;
#235 = EDGE_LOOP ( 'NONE', ( #155, #125 ) ) ;
#236 = VERTEX_POINT ( 'NONE', #54 ) ;
#237 = ORIENTED_EDGE ( 'NONE', *, *, #277, .F. ) ;
#238 = CARTESIAN_POINT ( 'NONE',  ( 2.500000000000000000, 3.061616997868383141E-16, 82.00000000000000000 ) ) ;
#239 = DIRECTION ( 'NONE',  ( -0.000000000000000000, -0.000000000000000000, -1.000000000000000000 ) ) ;
#240 = AXIS2_PLACEMENT_3D ( 'NONE', #215, #137, #44 ) ;
#241 = AXIS2_PLACEMENT_3D ( 'NONE', #134, #222, #340 ) ;
#242 = DIRECTION ( 'NONE',  ( -1.000000000000000000, 0.000000000000000000, 0.000000000000000000 ) ) ;
#243 = ADVANCED_BREP_SHAPE_REPRESENTATION ( 'c87f', ( #21, #101 ), #265 ) ;
#244 = DIRECTION ( 'NONE',  ( -1.000000000000000000, 0.000000000000000000, 0.000000000000000000 ) ) ;
#245 = ADVANCED_FACE ( 'NONE', ( #116, #24 ), #143, .T. ) ;
#246 = DIRECTION ( 'NONE',  ( 1.000000000000000000, 0.000000000000000000, 0.000000000000000000 ) ) ;
#247 = CARTESIAN_POINT ( 'NONE',  ( 0.000000000000000000, 0.000000000000000000, 82.00000000000000000 ) ) ;
#248 = CC_DESIGN_PERSON_AND_ORGANIZATION_ASSIGNMENT ( #284, #22, ( #152 ) ) ;
#249 = SECURITY_CLASSIFICATION_LEVEL ( 'unclassified' ) ;
#250 = DIRECTION ( 'NONE',  ( 0.000000000000000000, -1.000000000000000000, 0.000000000000000000 ) ) ;
#251 = AXIS2_PLACEMENT_3D ( 'NONE', #368, #306, #246 ) ;
#252 = CARTESIAN_POINT ( 'NONE',  ( 0.000000000000000000, 0.000000000000000000, 7.499999999999992895 ) ) ;
#253 = APPROVAL_ROLE ( '' ) ;
#254 = DIRECTION ( 'NONE',  ( -1.000000000000000000, 1.224646799147351482E-16, 0.000000000000000000 ) ) ;
#255 = AXIS2_PLACEMENT_3D ( 'NONE', #247, #71, #242 ) ;
#256 = AXIS2_PLACEMENT_3D ( 'NONE', #372, #223, #73 ) ;
#257 = DATE_TIME_ROLE ( 'classification_date' ) ;
#258 = CARTESIAN_POINT ( 'NONE',  ( 0.000000000000000000, 0.000000000000000000, 82.00000000000000000 ) ) ;
#259 = ORIENTED_EDGE ( 'NONE', *, *, #263, .T. ) ;
#260 = PERSON_AND_ORGANIZATION_ROLE ( 'creator' ) ;
#261 = DIRECTION ( 'NONE',  ( 0.000000000000000000, 0.000000000000000000, 1.000000000000000000 ) ) ;
#262 = ORIENTED_EDGE ( 'NONE', *, *, #1, .F. ) ;
#263 = EDGE_CURVE ( 'NONE', #236, #187, #351, .T. ) ;
#264 = ORIENTED_EDGE ( 'NONE', *, *, #156, .T. ) ;
#265 =( GEOMETRIC_REPRESENTATION_CONTEXT ( 3 ) GLOBAL_UNCERTAINTY_ASSIGNED_CONTEXT ( ( #329 ) ) GLOBAL_UNIT_ASSIGNED_CONTEXT ( ( #278, #139, #111 ) ) REPRESENTATION_CONTEXT ( 'NONE', 'WORKASPACE' ) );
#266 = VERTEX_POINT ( 'NONE', #205 ) ;
#267 = ADVANCED_FACE ( 'NONE', ( #85 ), #307, .F. ) ;
#268 = EDGE_LOOP ( 'NONE', ( #350, #97, #283, #122 ) ) ;
#269 = ADVANCED_FACE ( 'NONE', ( #112 ), #27, .F. ) ;
#270 = ORIENTED_EDGE ( 'NONE', *, *, #348, .F. ) ;
#271 = ADVANCED_FACE ( 'NONE', ( #302, #99 ), #102, .T. ) ;
#272 = CC_DESIGN_DATE_AND_TIME_ASSIGNMENT ( #353, #117, ( #294 ) ) ;
#273 = DIRECTION ( 'NONE',  ( -0.000000000000000000, -0.000000000000000000, -1.000000000000000000 ) ) ;
#274 = FACE_OUTER_BOUND ( 'NONE', #296, .T. ) ;
#275 = DIRECTION ( 'NONE',  ( 0.000000000000000000, 0.000000000000000000, -1.000000000000000000 ) ) ;
#276 = DIRECTION ( 'NONE',  ( 1.000000000000000000, 0.000000000000000000, 0.000000000000000000 ) ) ;
#277 = EDGE_CURVE ( 'NONE', #52, #358, #36, .T. ) ;
#278 =( LENGTH_UNIT ( ) NAMED_UNIT ( * ) SI_UNIT ( .MILLI., .METRE. ) );
#279 = DIRECTION ( 'NONE',  ( -0.000000000000000000, -0.000000000000000000, -1.000000000000000000 ) ) ;
#280 = DIRECTION ( 'NONE',  ( 0.000000000000000000, 0.000000000000000000, 1.000000000000000000 ) ) ;
#281 = CC_DESIGN_SECURITY_CLASSIFICATION ( #152, ( #83 ) ) ;
#282 = APPROVAL_DATE_TIME ( #315, #339 ) ;
#283 = ORIENTED_EDGE ( 'NONE', *, *, #323, .T. ) ;
#284 = PERSON_AND_ORGANIZATION ( #164, #317 ) ;
#285 = PERSON_AND_ORGANIZATION_ROLE ( 'design_supplier' ) ;
#286 = DIRECTION ( 'NONE',  ( 1.224646799147353207E-16, 1.000000000000000000, -0.000000000000000000 ) ) ;
#287 = VERTEX_POINT ( 'NONE', #335 ) ;
#288 = CC_DESIGN_APPROVAL ( #231, ( #83 ) ) ;
#289 = APPLICATION_PROTOCOL_DEFINITION ( 'international standard', 'config_control_design', 1994, #168 ) ;
#290 = ORIENTED_EDGE ( 'NONE', *, *, #170, .T. ) ;
#291 = ADVANCED_FACE ( 'NONE', ( #333 ), #12, .F. ) ;
#292 = EDGE_LOOP ( 'NONE', ( #381, #237, #154, #199 ) ) ;
#293 = APPROVAL_PERSON_ORGANIZATION ( #171, #231, #253 ) ;
#294 = PRODUCT_DEFINITION ( 'NEZNÁMÝ', '', #83, #360 ) ;
#295 = ORIENTED_EDGE ( 'NONE', *, *, #1, .T. ) ;
#296 = EDGE_LOOP ( 'NONE', ( #331, #121, #182, #67 ) ) ;
#297 = AXIS2_PLACEMENT_3D ( 'NONE', #48, #80, #169 ) ;
#298 = ORIENTED_EDGE ( 'NONE', *, *, #86, .T. ) ;
#299 = AXIS2_PLACEMENT_3D ( 'NONE', #219, #29, #312 ) ;
#300 = DIRECTION ( 'NONE',  ( 1.000000000000000000, 0.000000000000000000, 0.000000000000000000 ) ) ;
#301 = FACE_OUTER_BOUND ( 'NONE', #320, .T. ) ;
#302 = FACE_BOUND ( 'NONE', #235, .T. ) ;
#303 = DIRECTION ( 'NONE',  ( 0.000000000000000000, 0.000000000000000000, 1.000000000000000000 ) ) ;
#304 = DIRECTION ( 'NONE',  ( 0.000000000000000000, 0.000000000000000000, -1.000000000000000000 ) ) ;
#305 = CYLINDRICAL_SURFACE ( 'NONE', #87, 10.00000000000000000 ) ;
#306 = DIRECTION ( 'NONE',  ( 0.000000000000000000, 0.000000000000000000, 1.000000000000000000 ) ) ;
#307 = TOROIDAL_SURFACE ( 'NONE', #126, 6.500000000000000888, 0.5000000000000000000 ) ;
#308 = DIRECTION ( 'NONE',  ( 1.000000000000000000, 0.000000000000000000, 0.000000000000000000 ) ) ;
#309 = EDGE_CURVE ( 'NONE', #206, #7, #14, .T. ) ;
#310 = DIRECTION ( 'NONE',  ( 1.000000000000000000, 0.000000000000000000, 0.000000000000000000 ) ) ;
#311 = PERSON_AND_ORGANIZATION ( #164, #317 ) ;
#312 = DIRECTION ( 'NONE',  ( 1.000000000000000000, 0.000000000000000000, 0.000000000000000000 ) ) ;
#313 = CLOSED_SHELL ( 'NONE', ( #325, #267, #150, #355, #63, #245, #6, #61, #271, #269, #291 ) ) ;
#314 = EDGE_CURVE ( 'NONE', #7, #9, #224, .T. ) ;
#315 = DATE_AND_TIME ( #319, #8 ) ;
#316 = DIRECTION ( 'NONE',  ( 1.000000000000000000, 0.000000000000000000, -0.000000000000000000 ) ) ;
#317 = ORGANIZATION ( 'NEURÈENÝ', 'NEURÈENÝ', '' ) ;
#318 = CALENDAR_DATE ( 2022, 8, 7 ) ;
#319 = CALENDAR_DATE ( 2022, 8, 7 ) ;
#320 = EDGE_LOOP ( 'NONE', ( #327, #211, #149, #33 ) ) ;
#321 = AXIS2_PLACEMENT_3D ( 'NONE', #18, #362, #68 ) ;
#322 = ORIENTED_EDGE ( 'NONE', *, *, #363, .T. ) ;
#323 = EDGE_CURVE ( 'NONE', #30, #9, #226, .T. ) ;
#324 = FACE_OUTER_BOUND ( 'NONE', #35, .T. ) ;
#325 = ADVANCED_FACE ( 'NONE', ( #41 ), #337, .F. ) ;
#326 = CIRCLE ( 'NONE', #297, 6.000000000000000888 ) ;
#327 = ORIENTED_EDGE ( 'NONE', *, *, #110, .F. ) ;
#328 = CIRCLE ( 'NONE', #147, 2.500000000000000000 ) ;
#329 = UNCERTAINTY_MEASURE_WITH_UNIT (LENGTH_MEASURE( 1.000000000000000082E-05 ), #278, 'distance_accuracy_value', 'NONE');
#330 = ORIENTED_EDGE ( 'NONE', *, *, #86, .F. ) ;
#331 = ORIENTED_EDGE ( 'NONE', *, *, #177, .F. ) ;
#332 = EDGE_CURVE ( 'NONE', #187, #236, #328, .T. ) ;
#333 = FACE_OUTER_BOUND ( 'NONE', #32, .T. ) ;
#334 = ORIENTED_EDGE ( 'NONE', *, *, #110, .T. ) ;
#335 = CARTESIAN_POINT ( 'NONE',  ( 6.000000000000000888, 7.347880794884120722E-16, 82.00000000000000000 ) ) ;
#336 = LINE ( 'NONE', #338, #179 ) ;
#337 = CYLINDRICAL_SURFACE ( 'NONE', #172, 2.500000000000000000 ) ;
#338 = CARTESIAN_POINT ( 'NONE',  ( -2.500000000000000000, 0.000000000000000000, 82.00000000000000000 ) ) ;
#339 = APPROVAL ( #114, 'NEURÈENÝ' ) ;
#340 = DIRECTION ( 'NONE',  ( 1.000000000000000000, 0.000000000000000000, 0.000000000000000000 ) ) ;
#341 = CARTESIAN_POINT ( 'NONE',  ( -10.00000000000000000, 0.000000000000000000, 0.000000000000000000 ) ) ;
#342 = DIRECTION ( 'NONE',  ( -0.000000000000000000, -0.000000000000000000, -1.000000000000000000 ) ) ;
#343 = AXIS2_PLACEMENT_3D ( 'NONE', #167, #76, #96 ) ;
#344 = AXIS2_PLACEMENT_3D ( 'NONE', #161, #239, #276 ) ;
#345 = DIRECTION ( 'NONE',  ( 1.000000000000000000, 0.000000000000000000, 0.000000000000000000 ) ) ;
#346 = PERSON_AND_ORGANIZATION ( #164, #317 ) ;
#347 = CARTESIAN_POINT ( 'NONE',  ( -6.000000000000000888, 0.000000000000000000, 82.00000000000000000 ) ) ;
#348 = EDGE_CURVE ( 'NONE', #206, #30, #370, .T. ) ;
#349 = CARTESIAN_POINT ( 'NONE',  ( 0.000000000000000000, 0.000000000000000000, 7.000000000000000000 ) ) ;
#350 = ORIENTED_EDGE ( 'NONE', *, *, #309, .F. ) ;
#351 = CIRCLE ( 'NONE', #181, 2.500000000000000000 ) ;
#352 = PERSON_AND_ORGANIZATION ( #164, #317 ) ;
#353 = DATE_AND_TIME ( #318, #75 ) ;
#354 = EDGE_LOOP ( 'NONE', ( #144, #123, #3, #203 ) ) ;
#355 = ADVANCED_FACE ( 'NONE', ( #10 ), #371, .T. ) ;
#356 = AXIS2_PLACEMENT_3D ( 'NONE', #131, #185, #220 ) ;
#357 = FACE_BOUND ( 'NONE', #82, .T. ) ;
#358 = VERTEX_POINT ( 'NONE', #128 ) ;
#359 = VECTOR ( 'NONE', #273, 1000.000000000000000 ) ;
#360 = DESIGN_CONTEXT ( 'detailed design', #174, 'design' ) ;
#361 = DIRECTION ( 'NONE',  ( 0.000000000000000000, 0.000000000000000000, -1.000000000000000000 ) ) ;
#362 = DIRECTION ( 'NONE',  ( 0.000000000000000000, 0.000000000000000000, 1.000000000000000000 ) ) ;
#363 = EDGE_CURVE ( 'NONE', #210, #93, #208, .T. ) ;
#364 = LINE ( 'NONE', #238, #11 ) ;
#365 = DIRECTION ( 'NONE',  ( 0.000000000000000000, 0.000000000000000000, 1.000000000000000000 ) ) ;
#366 = CARTESIAN_POINT ( 'NONE',  ( -6.000000000000000888, 0.000000000000000000, 82.00000000000000000 ) ) ;
#367 = LOCAL_TIME ( 17, 13, 55.00000000000000000, #108 ) ;
#368 = CARTESIAN_POINT ( 'NONE',  ( 0.000000000000000000, 0.000000000000000000, 7.499999999999992895 ) ) ;
#369 = EDGE_CURVE ( 'NONE', #266, #5, #234, .T. ) ;
#370 = LINE ( 'NONE', #158, #359 ) ;
#371 = CYLINDRICAL_SURFACE ( 'NONE', #138, 10.00000000000000000 ) ;
#372 = CARTESIAN_POINT ( 'NONE',  ( 0.000000000000000000, 0.000000000000000000, 7.000000000000000000 ) ) ;
#373 = COORDINATED_UNIVERSAL_TIME_OFFSET ( 1, 0, .AHEAD. ) ;
#374 = AXIS2_PLACEMENT_3D ( 'NONE', #15, #365, #188 ) ;
#375 = DIRECTION ( 'NONE',  ( 0.000000000000000000, 0.000000000000000000, -1.000000000000000000 ) ) ;
#376 = DIRECTION ( 'NONE',  ( 1.000000000000000000, 0.000000000000000000, 0.000000000000000000 ) ) ;
#377 = CC_DESIGN_PERSON_AND_ORGANIZATION_ASSIGNMENT ( #140, #49, ( #204 ) ) ;
#378 = CALENDAR_DATE ( 2022, 8, 7 ) ;
#379 = AXIS2_PLACEMENT_3D ( 'NONE', #109, #303, #228 ) ;
#380 = DIRECTION ( 'NONE',  ( 1.000000000000000000, 0.000000000000000000, 0.000000000000000000 ) ) ;
#381 = ORIENTED_EDGE ( 'NONE', *, *, #213, .F. ) ;
ENDSEC;
END-ISO-10303-21;
