ISO-10303-21;
HEADER;
FILE_DESCRIPTION (( 'STEP AP203' ),
    '1' );
FILE_NAME ('7344.STEP',
    '2022-07-08T15:34:18',
    ( '' ),
    ( '' ),
    'SwSTEP 2.0',
    'SolidWorks 2019',
    '' );
FILE_SCHEMA (( 'CONFIG_CONTROL_DESIGN' ));
ENDSEC;

DATA;
#1 = PERSON_AND_ORGANIZATION_ROLE ( 'design_supplier' ) ;
#2 = ORIENTED_EDGE ( 'NONE', *, *, #346, .T. ) ;
#3 = DIRECTION ( 'NONE',  ( -0.000000000000000000, -0.000000000000000000, -1.000000000000000000 ) ) ;
#4 = ORIENTED_EDGE ( 'NONE', *, *, #342, .T. ) ;
#5 = AXIS2_PLACEMENT_3D ( 'NONE', #312, #249, #336 ) ;
#6 = DIRECTION ( 'NONE',  ( 1.000000000000000000, 0.000000000000000000, 0.000000000000000000 ) ) ;
#7 = ORIENTED_EDGE ( 'NONE', *, *, #52, .T. ) ;
#8 = ADVANCED_FACE ( 'NONE', ( #190, #34 ), #365, .F. ) ;
#9 = PERSON_AND_ORGANIZATION ( #143, #19 ) ;
#10 = ORIENTED_EDGE ( 'NONE', *, *, #237, .F. ) ;
#11 = EDGE_CURVE ( 'NONE', #56, #135, #313, .T. ) ;
#12 = ORIENTED_EDGE ( 'NONE', *, *, #246, .F. ) ;
#13 = AXIS2_PLACEMENT_3D ( 'NONE', #16, #47, #42 ) ;
#14 = DIRECTION ( 'NONE',  ( -1.000000000000000000, 0.000000000000000000, 0.000000000000000000 ) ) ;
#15 = SHAPE_DEFINITION_REPRESENTATION ( #374, #174 ) ;
#16 = CARTESIAN_POINT ( 'NONE',  ( 0.000000000000000000, 0.000000000000000000, 555.0000000000000000 ) ) ;
#17 = ADVANCED_FACE ( 'NONE', ( #371 ), #177, .T. ) ;
#18 = DIRECTION ( 'NONE',  ( 0.000000000000000000, 0.000000000000000000, 1.000000000000000000 ) ) ;
#19 = ORGANIZATION ( 'NEURÈENÝ', 'NEURÈENÝ', '' ) ;
#20 = DIRECTION ( 'NONE',  ( 0.000000000000000000, 0.000000000000000000, 1.000000000000000000 ) ) ;
#21 = PLANE ( 'NONE',  #210 ) ;
#22 = LOCAL_TIME ( 17, 34, 18.00000000000000000, #228 ) ;
#23 = CYLINDRICAL_SURFACE ( 'NONE', #72, 2.000000000000000000 ) ;
#24 = EDGE_LOOP ( 'NONE', ( #244, #286, #10, #153 ) ) ;
#25 = DIRECTION ( 'NONE',  ( 0.000000000000000000, 0.000000000000000000, 1.000000000000000000 ) ) ;
#26 = DIRECTION ( 'NONE',  ( -0.000000000000000000, -0.000000000000000000, -1.000000000000000000 ) ) ;
#27 = ORIENTED_EDGE ( 'NONE', *, *, #222, .T. ) ;
#28 = CARTESIAN_POINT ( 'NONE',  ( -3.000000000000000444, 0.000000000000000000, 555.0000000000000000 ) ) ;
#29 = EDGE_CURVE ( 'NONE', #264, #266, #173, .T. ) ;
#30 = PERSON_AND_ORGANIZATION_ROLE ( 'creator' ) ;
#31 = TOROIDAL_SURFACE ( 'NONE', #145, 3.500000000000000444, 0.5000000000000000000 ) ;
#32 = CALENDAR_DATE ( 2022, 8, 7 ) ;
#33 = EDGE_LOOP ( 'NONE', ( #268, #99, #245, #184 ) ) ;
#34 = FACE_OUTER_BOUND ( 'NONE', #323, .T. ) ;
#35 = DIRECTION ( 'NONE',  ( 0.000000000000000000, 0.000000000000000000, 1.000000000000000000 ) ) ;
#36 = ORIENTED_EDGE ( 'NONE', *, *, #81, .T. ) ;
#37 = CIRCLE ( 'NONE', #351, 6.000000000000000888 ) ;
#38 = APPROVAL_DATE_TIME ( #354, #123 ) ;
#39 = ORIENTED_EDGE ( 'NONE', *, *, #112, .T. ) ;
#40 = EDGE_CURVE ( 'NONE', #266, #56, #369, .T. ) ;
#41 = CC_DESIGN_DATE_AND_TIME_ASSIGNMENT ( #293, #265, ( #77 ) ) ;
#42 = DIRECTION ( 'NONE',  ( -1.000000000000000000, 0.000000000000000000, 0.000000000000000000 ) ) ;
#43 = AXIS2_PLACEMENT_3D ( 'NONE', #148, #253, #116 ) ;
#44 = DATE_AND_TIME ( #78, #106 ) ;
#45 = CARTESIAN_POINT ( 'NONE',  ( 0.000000000000000000, 0.000000000000000000, 5.499999999999949374 ) ) ;
#46 = CC_DESIGN_PERSON_AND_ORGANIZATION_ASSIGNMENT ( #94, #1, ( #307 ) ) ;
#47 = DIRECTION ( 'NONE',  ( -0.000000000000000000, -0.000000000000000000, -1.000000000000000000 ) ) ;
#48 = DIRECTION ( 'NONE',  ( 1.224646799147353207E-16, 1.000000000000000000, -0.000000000000000000 ) ) ;
#49 = CIRCLE ( 'NONE', #209, 6.000000000000000888 ) ;
#50 = AXIS2_PLACEMENT_3D ( 'NONE', #350, #26, #155 ) ;
#51 = DIRECTION ( 'NONE',  ( 1.000000000000000000, 0.000000000000000000, 0.000000000000000000 ) ) ;
#52 = EDGE_CURVE ( 'NONE', #95, #75, #80, .T. ) ;
#53 = FACE_OUTER_BOUND ( 'NONE', #223, .T. ) ;
#54 = EDGE_CURVE ( 'NONE', #191, #182, #358, .T. ) ;
#55 = LINE ( 'NONE', #120, #84 ) ;
#56 = VERTEX_POINT ( 'NONE', #105 ) ;
#57 = DIRECTION ( 'NONE',  ( 1.000000000000000000, 0.000000000000000000, -0.000000000000000000 ) ) ;
#58 = CIRCLE ( 'NONE', #270, 3.000000000000000444 ) ;
#59 = CC_DESIGN_PERSON_AND_ORGANIZATION_ASSIGNMENT ( #96, #147, ( #168 ) ) ;
#60 = CARTESIAN_POINT ( 'NONE',  ( 0.000000000000000000, 0.000000000000000000, 0.000000000000000000 ) ) ;
#61 = CARTESIAN_POINT ( 'NONE',  ( 0.000000000000000000, 0.000000000000000000, 0.000000000000000000 ) ) ;
#62 = VECTOR ( 'NONE', #140, 1000.000000000000000 ) ;
#63 = ORIENTED_EDGE ( 'NONE', *, *, #158, .T. ) ;
#64 = PERSON_AND_ORGANIZATION_ROLE ( 'creator' ) ;
#65 = ORIENTED_EDGE ( 'NONE', *, *, #112, .F. ) ;
#66 = CC_DESIGN_APPROVAL ( #102, ( #168 ) ) ;
#67 = CARTESIAN_POINT ( 'NONE',  ( -2.000000000000000000, 0.000000000000000000, 555.0000000000000000 ) ) ;
#68 = ORIENTED_EDGE ( 'NONE', *, *, #52, .F. ) ;
#69 = APPROVAL_STATUS ( 'not_yet_approved' ) ;
#70 = ORIENTED_EDGE ( 'NONE', *, *, #287, .T. ) ;
#71 = AXIS2_PLACEMENT_3D ( 'NONE', #114, #20, #141 ) ;
#72 = AXIS2_PLACEMENT_3D ( 'NONE', #207, #375, #316 ) ;
#73 = AXIS2_PLACEMENT_3D ( 'NONE', #83, #48, #251 ) ;
#74 = PERSON_AND_ORGANIZATION ( #143, #19 ) ;
#75 = VERTEX_POINT ( 'NONE', #340 ) ;
#76 = FACE_OUTER_BOUND ( 'NONE', #163, .T. ) ;
#77 = PRODUCT_DEFINITION ( 'NEZNÁMÝ', '', #307, #301 ) ;
#78 = CALENDAR_DATE ( 2022, 8, 7 ) ;
#79 = FACE_OUTER_BOUND ( 'NONE', #33, .T. ) ;
#80 = LINE ( 'NONE', #341, #188 ) ;
#81 = EDGE_CURVE ( 'NONE', #194, #305, #302, .T. ) ;
#82 = DIRECTION ( 'NONE',  ( 1.000000000000000000, 0.000000000000000000, 0.000000000000000000 ) ) ;
#83 = CARTESIAN_POINT ( 'NONE',  ( -3.500000000000000444, 4.286263797015737088E-16, 5.499999999999949374 ) ) ;
#84 = VECTOR ( 'NONE', #235, 1000.000000000000000 ) ;
#85 = AXIS2_PLACEMENT_3D ( 'NONE', #309, #227, #82 ) ;
#86 = FACE_BOUND ( 'NONE', #93, .T. ) ;
#87 = DIRECTION ( 'NONE',  ( -0.000000000000000000, -0.000000000000000000, -1.000000000000000000 ) ) ;
#88 = CARTESIAN_POINT ( 'NONE',  ( 0.000000000000000000, 0.000000000000000000, 555.0000000000000000 ) ) ;
#89 = CYLINDRICAL_SURFACE ( 'NONE', #282, 3.000000000000000444 ) ;
#90 = TOROIDAL_SURFACE ( 'NONE', #104, 3.500000000000000444, 0.5000000000000000000 ) ;
#91 = VERTEX_POINT ( 'NONE', #284 ) ;
#92 = DIRECTION ( 'NONE',  ( 0.000000000000000000, 0.000000000000000000, 1.000000000000000000 ) ) ;
#93 = EDGE_LOOP ( 'NONE', ( #65, #12 ) ) ;
#94 = PERSON_AND_ORGANIZATION ( #143, #19 ) ;
#95 = VERTEX_POINT ( 'NONE', #109 ) ;
#96 = PERSON_AND_ORGANIZATION ( #143, #19 ) ;
#97 = ORIENTED_EDGE ( 'NONE', *, *, #294, .F. ) ;
#98 = COORDINATED_UNIVERSAL_TIME_OFFSET ( 1, 0, .AHEAD. ) ;
#99 = ORIENTED_EDGE ( 'NONE', *, *, #269, .T. ) ;
#100 = DIRECTION ( 'NONE',  ( 1.000000000000000000, 0.000000000000000000, 0.000000000000000000 ) ) ;
#101 = ORIENTED_EDGE ( 'NONE', *, *, #346, .F. ) ;
#102 = APPROVAL ( #308, 'NEURÈENÝ' ) ;
#103 = MECHANICAL_CONTEXT ( 'NONE', #117, 'mechanical' ) ;
#104 = AXIS2_PLACEMENT_3D ( 'NONE', #185, #208, #128 ) ;
#105 = CARTESIAN_POINT ( 'NONE',  ( -3.000000000000000444, 0.000000000000000000, 5.499999999999949374 ) ) ;
#106 = LOCAL_TIME ( 17, 34, 18.00000000000000000, #171 ) ;
#107 = APPROVAL_ROLE ( '' ) ;
#108 = CARTESIAN_POINT ( 'NONE',  ( 0.000000000000000000, 0.000000000000000000, 555.0000000000000000 ) ) ;
#109 = CARTESIAN_POINT ( 'NONE',  ( 6.000000000000000888, 7.347880794884120722E-16, 5.000000000000000000 ) ) ;
#110 = CIRCLE ( 'NONE', #337, 3.500000000000000444 ) ;
#111 = CIRCLE ( 'NONE', #178, 3.000000000000000444 ) ;
#112 = EDGE_CURVE ( 'NONE', #355, #219, #134, .T. ) ;
#113 = CALENDAR_DATE ( 2022, 8, 7 ) ;
#114 = CARTESIAN_POINT ( 'NONE',  ( 0.000000000000000000, 0.000000000000000000, 0.000000000000000000 ) ) ;
#115 = DATE_TIME_ROLE ( 'classification_date' ) ;
#116 = DIRECTION ( 'NONE',  ( -1.000000000000000000, 0.000000000000000000, 0.000000000000000000 ) ) ;
#117 = APPLICATION_CONTEXT ( 'configuration controlled 3d designs of mechanical parts and assemblies' ) ;
#118 = CARTESIAN_POINT ( 'NONE',  ( 3.000000000000000444, 3.673940397442060361E-16, 555.0000000000000000 ) ) ;
#119 = APPROVAL_PERSON_ORGANIZATION ( #136, #123, #304 ) ;
#120 = CARTESIAN_POINT ( 'NONE',  ( 2.000000000000000000, 2.449293598294706414E-16, 555.0000000000000000 ) ) ;
#121 = DIRECTION ( 'NONE',  ( 1.000000000000000000, 0.000000000000000000, 0.000000000000000000 ) ) ;
#122 = ORIENTED_EDGE ( 'NONE', *, *, #54, .T. ) ;
#123 = APPROVAL ( #69, 'NEURÈENÝ' ) ;
#124 = CARTESIAN_POINT ( 'NONE',  ( 0.000000000000000000, 0.000000000000000000, 5.000000000000000000 ) ) ;
#125 = EDGE_LOOP ( 'NONE', ( #156, #7, #4, #216 ) ) ;
#126 = LOCAL_TIME ( 17, 34, 18.00000000000000000, #241 ) ;
#127 = AXIS2_PLACEMENT_3D ( 'NONE', #352, #291, #376 ) ;
#128 = DIRECTION ( 'NONE',  ( 1.000000000000000000, 0.000000000000000000, 0.000000000000000000 ) ) ;
#129 = APPROVAL_DATE_TIME ( #271, #367 ) ;
#130 = SECURITY_CLASSIFICATION_LEVEL ( 'unclassified' ) ;
#131 = CC_DESIGN_DATE_AND_TIME_ASSIGNMENT ( #142, #115, ( #168 ) ) ;
#132 = EDGE_LOOP ( 'NONE', ( #273, #170, #353, #292 ) ) ;
#133 =( NAMED_UNIT ( * ) PLANE_ANGLE_UNIT ( ) SI_UNIT ( $, .RADIAN. ) );
#134 = CIRCLE ( 'NONE', #5, 2.000000000000000000 ) ;
#135 = VERTEX_POINT ( 'NONE', #204 ) ;
#136 = PERSON_AND_ORGANIZATION ( #143, #19 ) ;
#137 = ORIENTED_EDGE ( 'NONE', *, *, #29, .T. ) ;
#138 = EDGE_CURVE ( 'NONE', #355, #191, #139, .T. ) ;
#139 = LINE ( 'NONE', #248, #62 ) ;
#140 = DIRECTION ( 'NONE',  ( 0.000000000000000000, 0.000000000000000000, -1.000000000000000000 ) ) ;
#141 = DIRECTION ( 'NONE',  ( 1.000000000000000000, 0.000000000000000000, -0.000000000000000000 ) ) ;
#142 = DATE_AND_TIME ( #113, #22 ) ;
#143 = PERSON ( 'NEURÈENÝ', 'NEURÈENÝ', 'NEURÈENÝ', ('NEURÈENÝ'), ('NEURÈENÝ'), ('NEURÈENÝ') ) ;
#144 = CARTESIAN_POINT ( 'NONE',  ( -3.000000000000000444, 0.000000000000000000, 555.0000000000000000 ) ) ;
#145 = AXIS2_PLACEMENT_3D ( 'NONE', #45, #310, #290 ) ;
#146 = VECTOR ( 'NONE', #205, 1000.000000000000000 ) ;
#147 = PERSON_AND_ORGANIZATION_ROLE ( 'classification_officer' ) ;
#148 = CARTESIAN_POINT ( 'NONE',  ( 0.000000000000000000, 0.000000000000000000, 5.000000000000000000 ) ) ;
#149 = ADVANCED_FACE ( 'NONE', ( #281 ), #278, .T. ) ;
#150 = DIRECTION ( 'NONE',  ( 0.000000000000000000, 0.000000000000000000, 1.000000000000000000 ) ) ;
#151 = CC_DESIGN_PERSON_AND_ORGANIZATION_ASSIGNMENT ( #331, #381, ( #164 ) ) ;
#152 = DIRECTION ( 'NONE',  ( 0.000000000000000000, 0.000000000000000000, 1.000000000000000000 ) ) ;
#153 = ORIENTED_EDGE ( 'NONE', *, *, #81, .F. ) ;
#154 = DIRECTION ( 'NONE',  ( -0.000000000000000000, -0.000000000000000000, -1.000000000000000000 ) ) ;
#155 = DIRECTION ( 'NONE',  ( 1.000000000000000000, 0.000000000000000000, 0.000000000000000000 ) ) ;
#156 = ORIENTED_EDGE ( 'NONE', *, *, #287, .F. ) ;
#157 = LINE ( 'NONE', #118, #338 ) ;
#158 = EDGE_CURVE ( 'NONE', #91, #95, #234, .T. ) ;
#159 = CIRCLE ( 'NONE', #127, 2.000000000000000000 ) ;
#160 =( LENGTH_UNIT ( ) NAMED_UNIT ( * ) SI_UNIT ( .MILLI., .METRE. ) );
#161 = ADVANCED_FACE ( 'NONE', ( #276 ), #306, .T. ) ;
#162 = ORIENTED_EDGE ( 'NONE', *, *, #237, .T. ) ;
#163 = EDGE_LOOP ( 'NONE', ( #39, #357, #27, #377 ) ) ;
#164 = PRODUCT ( '7344', '7344', '', ( #103 ) ) ;
#165 = CARTESIAN_POINT ( 'NONE',  ( 0.000000000000000000, 0.000000000000000000, 0.000000000000000000 ) ) ;
#166 = CLOSED_SHELL ( 'NONE', ( #195, #197, #199, #149, #161, #326, #8, #17, #214, #217, #319 ) ) ;
#167 = CIRCLE ( 'NONE', #370, 6.000000000000000888 ) ;
#168 = SECURITY_CLASSIFICATION ( '', '', #130 ) ;
#169 = DIRECTION ( 'NONE',  ( 1.000000000000000000, 0.000000000000000000, 0.000000000000000000 ) ) ;
#170 = ORIENTED_EDGE ( 'NONE', *, *, #283, .F. ) ;
#171 = COORDINATED_UNIVERSAL_TIME_OFFSET ( 1, 0, .AHEAD. ) ;
#172 = DIRECTION ( 'NONE',  ( 0.000000000000000000, 0.000000000000000000, -1.000000000000000000 ) ) ;
#173 = CIRCLE ( 'NONE', #303, 3.000000000000000444 ) ;
#174 = ADVANCED_BREP_SHAPE_REPRESENTATION ( '7344', ( #345, #187 ), #192 ) ;
#175 = CARTESIAN_POINT ( 'NONE',  ( 3.500000000000000444, 0.000000000000000000, 5.499999999999949374 ) ) ;
#176 = DIRECTION ( 'NONE',  ( -0.000000000000000000, -0.000000000000000000, -1.000000000000000000 ) ) ;
#177 = CYLINDRICAL_SURFACE ( 'NONE', #13, 3.000000000000000444 ) ;
#178 = AXIS2_PLACEMENT_3D ( 'NONE', #260, #150, #288 ) ;
#179 = DIRECTION ( 'NONE',  ( 0.000000000000000000, 0.000000000000000000, -1.000000000000000000 ) ) ;
#180 = FACE_OUTER_BOUND ( 'NONE', #274, .T. ) ;
#181 = PLANE ( 'NONE',  #280 ) ;
#182 = VERTEX_POINT ( 'NONE', #335 ) ;
#183 = DIRECTION ( 'NONE',  ( -0.000000000000000000, -0.000000000000000000, -1.000000000000000000 ) ) ;
#184 = ORIENTED_EDGE ( 'NONE', *, *, #40, .F. ) ;
#185 = CARTESIAN_POINT ( 'NONE',  ( 0.000000000000000000, 0.000000000000000000, 5.499999999999949374 ) ) ;
#186 = DIRECTION ( 'NONE',  ( 0.000000000000000000, 0.000000000000000000, 1.000000000000000000 ) ) ;
#187 = AXIS2_PLACEMENT_3D ( 'NONE', #61, #35, #6 ) ;
#188 = VECTOR ( 'NONE', #311, 1000.000000000000000 ) ;
#189 = CALENDAR_DATE ( 2022, 8, 7 ) ;
#190 = FACE_BOUND ( 'NONE', #299, .T. ) ;
#191 = VERTEX_POINT ( 'NONE', #339 ) ;
#192 =( GEOMETRIC_REPRESENTATION_CONTEXT ( 3 ) GLOBAL_UNCERTAINTY_ASSIGNED_CONTEXT ( ( #272 ) ) GLOBAL_UNIT_ASSIGNED_CONTEXT ( ( #160, #133, #243 ) ) REPRESENTATION_CONTEXT ( 'NONE', 'WORKASPACE' ) );
#193 = CIRCLE ( 'NONE', #50, 3.500000000000000444 ) ;
#194 = VERTEX_POINT ( 'NONE', #229 ) ;
#195 = ADVANCED_FACE ( 'NONE', ( #76 ), #203, .F. ) ;
#196 = EDGE_LOOP ( 'NONE', ( #226, #361, #36, #101 ) ) ;
#197 = ADVANCED_FACE ( 'NONE', ( #368 ), #31, .F. ) ;
#198 = CARTESIAN_POINT ( 'NONE',  ( 0.000000000000000000, 0.000000000000000000, 5.000000000000000000 ) ) ;
#199 = ADVANCED_FACE ( 'NONE', ( #79 ), #89, .T. ) ;
#200 = PERSON_AND_ORGANIZATION ( #143, #19 ) ;
#201 = DIRECTION ( 'NONE',  ( -1.000000000000000000, 0.000000000000000000, 0.000000000000000000 ) ) ;
#202 = AXIS2_PLACEMENT_3D ( 'NONE', #175, #372, #179 ) ;
#203 = CYLINDRICAL_SURFACE ( 'NONE', #325, 2.000000000000000000 ) ;
#204 = CARTESIAN_POINT ( 'NONE',  ( -3.500000000000000444, 4.286263797015737088E-16, 4.999999999999975131 ) ) ;
#205 = DIRECTION ( 'NONE',  ( -0.000000000000000000, -0.000000000000000000, -1.000000000000000000 ) ) ;
#206 = DIRECTION ( 'NONE',  ( 0.000000000000000000, 0.000000000000000000, 1.000000000000000000 ) ) ;
#207 = CARTESIAN_POINT ( 'NONE',  ( 0.000000000000000000, 0.000000000000000000, 555.0000000000000000 ) ) ;
#208 = DIRECTION ( 'NONE',  ( 0.000000000000000000, 0.000000000000000000, 1.000000000000000000 ) ) ;
#209 = AXIS2_PLACEMENT_3D ( 'NONE', #165, #300, #100 ) ;
#210 = AXIS2_PLACEMENT_3D ( 'NONE', #88, #212, #57 ) ;
#211 = CARTESIAN_POINT ( 'NONE',  ( 0.000000000000000000, 0.000000000000000000, 555.0000000000000000 ) ) ;
#212 = DIRECTION ( 'NONE',  ( 0.000000000000000000, 0.000000000000000000, 1.000000000000000000 ) ) ;
#213 = EDGE_LOOP ( 'NONE', ( #162, #2 ) ) ;
#214 = ADVANCED_FACE ( 'NONE', ( #86, #180 ), #21, .T. ) ;
#215 = PERSON_AND_ORGANIZATION ( #143, #19 ) ;
#216 = ORIENTED_EDGE ( 'NONE', *, *, #225, .F. ) ;
#217 = ADVANCED_FACE ( 'NONE', ( #258 ), #90, .F. ) ;
#218 = CIRCLE ( 'NONE', #332, 2.000000000000000000 ) ;
#219 = VERTEX_POINT ( 'NONE', #315 ) ;
#220 = PRODUCT_RELATED_PRODUCT_CATEGORY ( 'detail', '', ( #164 ) ) ;
#221 = ORIENTED_EDGE ( 'NONE', *, *, #342, .F. ) ;
#222 = EDGE_CURVE ( 'NONE', #182, #191, #218, .T. ) ;
#223 = EDGE_LOOP ( 'NONE', ( #296, #322, #242, #122 ) ) ;
#224 = APPROVAL_ROLE ( '' ) ;
#225 = EDGE_CURVE ( 'NONE', #91, #327, #236, .T. ) ;
#226 = ORIENTED_EDGE ( 'NONE', *, *, #11, .F. ) ;
#227 = DIRECTION ( 'NONE',  ( 0.000000000000000000, 0.000000000000000000, 1.000000000000000000 ) ) ;
#228 = COORDINATED_UNIVERSAL_TIME_OFFSET ( 1, 0, .AHEAD. ) ;
#229 = CARTESIAN_POINT ( 'NONE',  ( 3.000000000000000444, 3.673940397442060361E-16, 5.499999999999949374 ) ) ;
#230 = AXIS2_PLACEMENT_3D ( 'NONE', #198, #176, #201 ) ;
#231 = DIRECTION ( 'NONE',  ( 1.000000000000000000, 0.000000000000000000, 0.000000000000000000 ) ) ;
#232 = CARTESIAN_POINT ( 'NONE',  ( 0.000000000000000000, 0.000000000000000000, 555.0000000000000000 ) ) ;
#233 = DIRECTION ( 'NONE',  ( 1.000000000000000000, 0.000000000000000000, 0.000000000000000000 ) ) ;
#234 = CIRCLE ( 'NONE', #85, 6.000000000000000888 ) ;
#235 = DIRECTION ( 'NONE',  ( 0.000000000000000000, 0.000000000000000000, -1.000000000000000000 ) ) ;
#236 = LINE ( 'NONE', #378, #317 ) ;
#237 = EDGE_CURVE ( 'NONE', #305, #135, #193, .T. ) ;
#238 = DIRECTION ( 'NONE',  ( 1.000000000000000000, 0.000000000000000000, -0.000000000000000000 ) ) ;
#239 = CARTESIAN_POINT ( 'NONE',  ( 0.000000000000000000, 0.000000000000000000, 0.000000000000000000 ) ) ;
#240 = EDGE_LOOP ( 'NONE', ( #68, #362, #329, #359 ) ) ;
#241 = COORDINATED_UNIVERSAL_TIME_OFFSET ( 1, 0, .AHEAD. ) ;
#242 = ORIENTED_EDGE ( 'NONE', *, *, #138, .T. ) ;
#243 =( NAMED_UNIT ( * ) SI_UNIT ( $, .STERADIAN. ) SOLID_ANGLE_UNIT ( ) );
#244 = ORIENTED_EDGE ( 'NONE', *, *, #275, .F. ) ;
#245 = ORIENTED_EDGE ( 'NONE', *, *, #297, .T. ) ;
#246 = EDGE_CURVE ( 'NONE', #219, #355, #159, .T. ) ;
#247 = EDGE_LOOP ( 'NONE', ( #63, #70 ) ) ;
#248 = CARTESIAN_POINT ( 'NONE',  ( -2.000000000000000000, 0.000000000000000000, 555.0000000000000000 ) ) ;
#249 = DIRECTION ( 'NONE',  ( 0.000000000000000000, 0.000000000000000000, 1.000000000000000000 ) ) ;
#250 = CC_DESIGN_SECURITY_CLASSIFICATION ( #168, ( #307 ) ) ;
#251 = DIRECTION ( 'NONE',  ( -1.000000000000000000, 1.224646799147354440E-16, 0.000000000000000000 ) ) ;
#252 = CARTESIAN_POINT ( 'NONE',  ( 0.000000000000000000, 0.000000000000000000, 0.000000000000000000 ) ) ;
#253 = DIRECTION ( 'NONE',  ( -0.000000000000000000, -0.000000000000000000, -1.000000000000000000 ) ) ;
#254 = CARTESIAN_POINT ( 'NONE',  ( 0.000000000000000000, 0.000000000000000000, 5.000000000000000000 ) ) ;
#255 = CC_DESIGN_APPROVAL ( #123, ( #307 ) ) ;
#256 = DIRECTION ( 'NONE',  ( 1.000000000000000000, 0.000000000000000000, 0.000000000000000000 ) ) ;
#257 = LOCAL_TIME ( 17, 34, 18.00000000000000000, #98 ) ;
#258 = FACE_OUTER_BOUND ( 'NONE', #196, .T. ) ;
#259 = FACE_BOUND ( 'NONE', #213, .T. ) ;
#260 = CARTESIAN_POINT ( 'NONE',  ( 0.000000000000000000, 0.000000000000000000, 555.0000000000000000 ) ) ;
#261 = CC_DESIGN_APPROVAL ( #367, ( #77 ) ) ;
#262 = CIRCLE ( 'NONE', #364, 3.000000000000000444 ) ;
#263 = APPLICATION_PROTOCOL_DEFINITION ( 'international standard', 'config_control_design', 1994, #277 ) ;
#264 = VERTEX_POINT ( 'NONE', #285 ) ;
#265 = DATE_TIME_ROLE ( 'creation_date' ) ;
#266 = VERTEX_POINT ( 'NONE', #28 ) ;
#267 = CARTESIAN_POINT ( 'NONE',  ( 0.000000000000000000, 0.000000000000000000, 5.000000000000000000 ) ) ;
#268 = ORIENTED_EDGE ( 'NONE', *, *, #29, .F. ) ;
#269 = EDGE_CURVE ( 'NONE', #264, #194, #157, .T. ) ;
#270 = AXIS2_PLACEMENT_3D ( 'NONE', #349, #186, #121 ) ;
#271 = DATE_AND_TIME ( #333, #257 ) ;
#272 = UNCERTAINTY_MEASURE_WITH_UNIT (LENGTH_MEASURE( 1.000000000000000082E-05 ), #160, 'distance_accuracy_value', 'NONE');
#273 = ORIENTED_EDGE ( 'NONE', *, *, #269, .F. ) ;
#274 = EDGE_LOOP ( 'NONE', ( #334, #137 ) ) ;
#275 = EDGE_CURVE ( 'NONE', #56, #194, #58, .T. ) ;
#276 = FACE_OUTER_BOUND ( 'NONE', #240, .T. ) ;
#277 = APPLICATION_CONTEXT ( 'configuration controlled 3d designs of mechanical parts and assemblies' ) ;
#278 = CYLINDRICAL_SURFACE ( 'NONE', #230, 6.000000000000000888 ) ;
#279 = DIRECTION ( 'NONE',  ( -0.000000000000000000, -0.000000000000000000, -1.000000000000000000 ) ) ;
#280 = AXIS2_PLACEMENT_3D ( 'NONE', #124, #25, #238 ) ;
#281 = FACE_OUTER_BOUND ( 'NONE', #125, .T. ) ;
#282 = AXIS2_PLACEMENT_3D ( 'NONE', #211, #320, #318 ) ;
#283 = EDGE_CURVE ( 'NONE', #266, #264, #111, .T. ) ;
#284 = CARTESIAN_POINT ( 'NONE',  ( -6.000000000000000888, 0.000000000000000000, 5.000000000000000000 ) ) ;
#285 = CARTESIAN_POINT ( 'NONE',  ( 3.000000000000000444, 3.673940397442060361E-16, 555.0000000000000000 ) ) ;
#286 = ORIENTED_EDGE ( 'NONE', *, *, #11, .T. ) ;
#287 = EDGE_CURVE ( 'NONE', #95, #91, #167, .T. ) ;
#288 = DIRECTION ( 'NONE',  ( 1.000000000000000000, 0.000000000000000000, 0.000000000000000000 ) ) ;
#289 = ORIENTED_EDGE ( 'NONE', *, *, #222, .F. ) ;
#290 = DIRECTION ( 'NONE',  ( 1.000000000000000000, 0.000000000000000000, 0.000000000000000000 ) ) ;
#291 = DIRECTION ( 'NONE',  ( 0.000000000000000000, 0.000000000000000000, 1.000000000000000000 ) ) ;
#292 = ORIENTED_EDGE ( 'NONE', *, *, #275, .T. ) ;
#293 = DATE_AND_TIME ( #189, #126 ) ;
#294 = EDGE_CURVE ( 'NONE', #327, #75, #37, .T. ) ;
#295 = COORDINATED_UNIVERSAL_TIME_OFFSET ( 1, 0, .AHEAD. ) ;
#296 = ORIENTED_EDGE ( 'NONE', *, *, #321, .F. ) ;
#297 = EDGE_CURVE ( 'NONE', #194, #56, #262, .T. ) ;
#298 = CARTESIAN_POINT ( 'NONE',  ( -6.000000000000000888, 0.000000000000000000, 0.000000000000000000 ) ) ;
#299 = EDGE_LOOP ( 'NONE', ( #380, #289 ) ) ;
#300 = DIRECTION ( 'NONE',  ( 0.000000000000000000, 0.000000000000000000, 1.000000000000000000 ) ) ;
#301 = DESIGN_CONTEXT ( 'detailed design', #277, 'design' ) ;
#302 = CIRCLE ( 'NONE', #202, 0.5000000000000004441 ) ;
#303 = AXIS2_PLACEMENT_3D ( 'NONE', #232, #18, #231 ) ;
#304 = APPROVAL_ROLE ( '' ) ;
#305 = VERTEX_POINT ( 'NONE', #314 ) ;
#306 = CYLINDRICAL_SURFACE ( 'NONE', #43, 6.000000000000000888 ) ;
#307 = PRODUCT_DEFINITION_FORMATION_WITH_SPECIFIED_SOURCE ( 'LIBOVOLNÝ', '', #164, .NOT_KNOWN. ) ;
#308 = APPROVAL_STATUS ( 'not_yet_approved' ) ;
#309 = CARTESIAN_POINT ( 'NONE',  ( 0.000000000000000000, 0.000000000000000000, 5.000000000000000000 ) ) ;
#310 = DIRECTION ( 'NONE',  ( 0.000000000000000000, 0.000000000000000000, 1.000000000000000000 ) ) ;
#311 = DIRECTION ( 'NONE',  ( -0.000000000000000000, -0.000000000000000000, -1.000000000000000000 ) ) ;
#312 = CARTESIAN_POINT ( 'NONE',  ( 0.000000000000000000, 0.000000000000000000, 555.0000000000000000 ) ) ;
#313 = CIRCLE ( 'NONE', #73, 0.4999999999999995559 ) ;
#314 = CARTESIAN_POINT ( 'NONE',  ( 3.500000000000000444, 0.000000000000000000, 4.999999999999975131 ) ) ;
#315 = CARTESIAN_POINT ( 'NONE',  ( 2.000000000000000000, 2.449293598294706414E-16, 555.0000000000000000 ) ) ;
#316 = DIRECTION ( 'NONE',  ( -1.000000000000000000, 0.000000000000000000, 0.000000000000000000 ) ) ;
#317 = VECTOR ( 'NONE', #154, 1000.000000000000000 ) ;
#318 = DIRECTION ( 'NONE',  ( -1.000000000000000000, 0.000000000000000000, 0.000000000000000000 ) ) ;
#319 = ADVANCED_FACE ( 'NONE', ( #53 ), #23, .F. ) ;
#320 = DIRECTION ( 'NONE',  ( -0.000000000000000000, -0.000000000000000000, -1.000000000000000000 ) ) ;
#321 = EDGE_CURVE ( 'NONE', #219, #182, #55, .T. ) ;
#322 = ORIENTED_EDGE ( 'NONE', *, *, #246, .T. ) ;
#323 = EDGE_LOOP ( 'NONE', ( #97, #221 ) ) ;
#324 = LOCAL_TIME ( 17, 34, 18.00000000000000000, #295 ) ;
#325 = AXIS2_PLACEMENT_3D ( 'NONE', #108, #172, #14 ) ;
#326 = ADVANCED_FACE ( 'NONE', ( #259, #347 ), #181, .T. ) ;
#327 = VERTEX_POINT ( 'NONE', #298 ) ;
#328 = APPROVAL_STATUS ( 'not_yet_approved' ) ;
#329 = ORIENTED_EDGE ( 'NONE', *, *, #225, .T. ) ;
#330 = CC_DESIGN_PERSON_AND_ORGANIZATION_ASSIGNMENT ( #74, #64, ( #77 ) ) ;
#331 = PERSON_AND_ORGANIZATION ( #143, #19 ) ;
#332 = AXIS2_PLACEMENT_3D ( 'NONE', #60, #183, #373 ) ;
#333 = CALENDAR_DATE ( 2022, 8, 7 ) ;
#334 = ORIENTED_EDGE ( 'NONE', *, *, #283, .T. ) ;
#335 = CARTESIAN_POINT ( 'NONE',  ( 2.000000000000000000, 2.449293598294706414E-16, 0.000000000000000000 ) ) ;
#336 = DIRECTION ( 'NONE',  ( 1.000000000000000000, 0.000000000000000000, 0.000000000000000000 ) ) ;
#337 = AXIS2_PLACEMENT_3D ( 'NONE', #267, #3, #169 ) ;
#338 = VECTOR ( 'NONE', #87, 1000.000000000000000 ) ;
#339 = CARTESIAN_POINT ( 'NONE',  ( -2.000000000000000000, 0.000000000000000000, 0.000000000000000000 ) ) ;
#340 = CARTESIAN_POINT ( 'NONE',  ( 6.000000000000000888, 7.347880794884120722E-16, 0.000000000000000000 ) ) ;
#341 = CARTESIAN_POINT ( 'NONE',  ( 6.000000000000000888, 7.347880794884120722E-16, 5.000000000000000000 ) ) ;
#342 = EDGE_CURVE ( 'NONE', #75, #327, #49, .T. ) ;
#343 = CARTESIAN_POINT ( 'NONE',  ( 0.000000000000000000, 0.000000000000000000, 5.499999999999949374 ) ) ;
#344 = AXIS2_PLACEMENT_3D ( 'NONE', #252, #279, #51 ) ;
#345 = MANIFOLD_SOLID_BREP ( 'Odebrat vysunutím3', #166 ) ;
#346 = EDGE_CURVE ( 'NONE', #135, #305, #110, .T. ) ;
#347 = FACE_OUTER_BOUND ( 'NONE', #247, .T. ) ;
#348 = APPROVAL_PERSON_ORGANIZATION ( #200, #102, #107 ) ;
#349 = CARTESIAN_POINT ( 'NONE',  ( 0.000000000000000000, 0.000000000000000000, 5.499999999999949374 ) ) ;
#350 = CARTESIAN_POINT ( 'NONE',  ( 0.000000000000000000, 0.000000000000000000, 5.000000000000000000 ) ) ;
#351 = AXIS2_PLACEMENT_3D ( 'NONE', #239, #92, #233 ) ;
#352 = CARTESIAN_POINT ( 'NONE',  ( 0.000000000000000000, 0.000000000000000000, 555.0000000000000000 ) ) ;
#353 = ORIENTED_EDGE ( 'NONE', *, *, #40, .T. ) ;
#354 = DATE_AND_TIME ( #32, #324 ) ;
#355 = VERTEX_POINT ( 'NONE', #67 ) ;
#356 = APPLICATION_PROTOCOL_DEFINITION ( 'international standard', 'config_control_design', 1994, #117 ) ;
#357 = ORIENTED_EDGE ( 'NONE', *, *, #321, .T. ) ;
#358 = CIRCLE ( 'NONE', #344, 2.000000000000000000 ) ;
#359 = ORIENTED_EDGE ( 'NONE', *, *, #294, .T. ) ;
#360 = CC_DESIGN_PERSON_AND_ORGANIZATION_ASSIGNMENT ( #9, #30, ( #307 ) ) ;
#361 = ORIENTED_EDGE ( 'NONE', *, *, #297, .F. ) ;
#362 = ORIENTED_EDGE ( 'NONE', *, *, #158, .F. ) ;
#363 = APPROVAL_PERSON_ORGANIZATION ( #215, #367, #224 ) ;
#364 = AXIS2_PLACEMENT_3D ( 'NONE', #343, #206, #256 ) ;
#365 = PLANE ( 'NONE',  #71 ) ;
#366 = APPROVAL_DATE_TIME ( #44, #102 ) ;
#367 = APPROVAL ( #328, 'NEURÈENÝ' ) ;
#368 = FACE_OUTER_BOUND ( 'NONE', #24, .T. ) ;
#369 = LINE ( 'NONE', #144, #146 ) ;
#370 = AXIS2_PLACEMENT_3D ( 'NONE', #254, #152, #379 ) ;
#371 = FACE_OUTER_BOUND ( 'NONE', #132, .T. ) ;
#372 = DIRECTION ( 'NONE',  ( 0.000000000000000000, -1.000000000000000000, 0.000000000000000000 ) ) ;
#373 = DIRECTION ( 'NONE',  ( 1.000000000000000000, 0.000000000000000000, 0.000000000000000000 ) ) ;
#374 = PRODUCT_DEFINITION_SHAPE ( 'NONE', 'NONE',  #77 ) ;
#375 = DIRECTION ( 'NONE',  ( 0.000000000000000000, 0.000000000000000000, -1.000000000000000000 ) ) ;
#376 = DIRECTION ( 'NONE',  ( 1.000000000000000000, 0.000000000000000000, 0.000000000000000000 ) ) ;
#377 = ORIENTED_EDGE ( 'NONE', *, *, #138, .F. ) ;
#378 = CARTESIAN_POINT ( 'NONE',  ( -6.000000000000000888, 0.000000000000000000, 5.000000000000000000 ) ) ;
#379 = DIRECTION ( 'NONE',  ( 1.000000000000000000, 0.000000000000000000, 0.000000000000000000 ) ) ;
#380 = ORIENTED_EDGE ( 'NONE', *, *, #54, .F. ) ;
#381 = PERSON_AND_ORGANIZATION_ROLE ( 'design_owner' ) ;
ENDSEC;
END-ISO-10303-21;
