ISO-10303-21;
HEADER;
FILE_DESCRIPTION (( 'STEP AP203' ),
    '1' );
FILE_NAME ('931b.STEP',
    '2022-07-08T14:36:00',
    ( '' ),
    ( '' ),
    'SwSTEP 2.0',
    'SolidWorks 2019',
    '' );
FILE_SCHEMA (( 'CONFIG_CONTROL_DESIGN' ));
ENDSEC;

DATA;
#1 = TOROIDAL_SURFACE ( 'NONE', #194, 6.700000000000001066, 0.6999999999999999556 ) ;
#2 = PLANE ( 'NONE',  #376 ) ;
#3 = DIRECTION ( 'NONE',  ( 0.000000000000000000, 0.000000000000000000, 1.000000000000000000 ) ) ;
#4 = EDGE_CURVE ( 'NONE', #240, #51, #119, .T. ) ;
#5 = CYLINDRICAL_SURFACE ( 'NONE', #87, 10.00000000000000000 ) ;
#6 = APPROVAL_ROLE ( '' ) ;
#7 = LINE ( 'NONE', #56, #202 ) ;
#8 = VECTOR ( 'NONE', #70, 1000.000000000000000 ) ;
#9 = DIRECTION ( 'NONE',  ( 0.000000000000000000, 0.000000000000000000, 1.000000000000000000 ) ) ;
#10 = EDGE_CURVE ( 'NONE', #265, #254, #92, .T. ) ;
#11 = CARTESIAN_POINT ( 'NONE',  ( 4.099999999999999645, 5.021051876504147385E-16, 82.00000000000000000 ) ) ;
#12 = CARTESIAN_POINT ( 'NONE',  ( 4.099999999999999645, 5.021051876504147385E-16, 82.00000000000000000 ) ) ;
#13 = CARTESIAN_POINT ( 'NONE',  ( 6.000000000000000888, 7.347880794884120722E-16, 82.00000000000000000 ) ) ;
#14 = CC_DESIGN_PERSON_AND_ORGANIZATION_ASSIGNMENT ( #355, #298, ( #311 ) ) ;
#15 = CARTESIAN_POINT ( 'NONE',  ( 0.000000000000000000, 0.000000000000000000, 82.00000000000000000 ) ) ;
#16 = CC_DESIGN_APPROVAL ( #216, ( #148 ) ) ;
#17 = EDGE_CURVE ( 'NONE', #172, #81, #190, .T. ) ;
#18 = DIRECTION ( 'NONE',  ( 1.000000000000000000, 0.000000000000000000, 0.000000000000000000 ) ) ;
#19 = ORIENTED_EDGE ( 'NONE', *, *, #127, .T. ) ;
#20 = LOCAL_TIME ( 16, 36, 0.000000000000000000, #28 ) ;
#21 = ORIENTED_EDGE ( 'NONE', *, *, #285, .T. ) ;
#22 = ORIENTED_EDGE ( 'NONE', *, *, #176, .F. ) ;
#23 = EDGE_LOOP ( 'NONE', ( #192, #75, #66, #22 ) ) ;
#24 = EDGE_CURVE ( 'NONE', #51, #265, #304, .T. ) ;
#25 = DIRECTION ( 'NONE',  ( -0.000000000000000000, -0.000000000000000000, -1.000000000000000000 ) ) ;
#26 = AXIS2_PLACEMENT_3D ( 'NONE', #126, #313, #363 ) ;
#27 = FACE_OUTER_BOUND ( 'NONE', #201, .T. ) ;
#28 = COORDINATED_UNIVERSAL_TIME_OFFSET ( 1, 0, .AHEAD. ) ;
#29 = DIRECTION ( 'NONE',  ( 0.000000000000000000, 0.000000000000000000, 1.000000000000000000 ) ) ;
#30 = COORDINATED_UNIVERSAL_TIME_OFFSET ( 1, 0, .AHEAD. ) ;
#31 = CARTESIAN_POINT ( 'NONE',  ( 0.000000000000000000, 0.000000000000000000, 7.699999999999998401 ) ) ;
#32 = AXIS2_PLACEMENT_3D ( 'NONE', #67, #250, #198 ) ;
#33 = DIRECTION ( 'NONE',  ( 0.000000000000000000, 0.000000000000000000, -1.000000000000000000 ) ) ;
#34 = DESIGN_CONTEXT ( 'detailed design', #306, 'design' ) ;
#35 = DIRECTION ( 'NONE',  ( 0.000000000000000000, 0.000000000000000000, -1.000000000000000000 ) ) ;
#36 = CARTESIAN_POINT ( 'NONE',  ( 0.000000000000000000, 0.000000000000000000, 7.000000000000000000 ) ) ;
#37 = EDGE_LOOP ( 'NONE', ( #346, #141, #19, #110 ) ) ;
#38 = FACE_OUTER_BOUND ( 'NONE', #377, .T. ) ;
#39 = LINE ( 'NONE', #13, #309 ) ;
#40 = DIRECTION ( 'NONE',  ( -1.000000000000000000, 1.224646799147353454E-16, 0.000000000000000000 ) ) ;
#41 = AXIS2_PLACEMENT_3D ( 'NONE', #219, #183, #33 ) ;
#42 = ORIENTED_EDGE ( 'NONE', *, *, #17, .T. ) ;
#43 = CIRCLE ( 'NONE', #222, 4.099999999999999645 ) ;
#44 = DIRECTION ( 'NONE',  ( 0.000000000000000000, 0.000000000000000000, 1.000000000000000000 ) ) ;
#45 = APPROVAL_ROLE ( '' ) ;
#46 = ORIENTED_EDGE ( 'NONE', *, *, #47, .T. ) ;
#47 = EDGE_CURVE ( 'NONE', #51, #240, #228, .T. ) ;
#48 = PERSON_AND_ORGANIZATION_ROLE ( 'creator' ) ;
#49 = CARTESIAN_POINT ( 'NONE',  ( 0.000000000000000000, 0.000000000000000000, 7.000000000000000000 ) ) ;
#50 = APPROVAL_STATUS ( 'not_yet_approved' ) ;
#51 = VERTEX_POINT ( 'NONE', #330 ) ;
#52 = APPROVAL_ROLE ( '' ) ;
#53 = CARTESIAN_POINT ( 'NONE',  ( -10.00000000000000000, 0.000000000000000000, 7.000000000000000000 ) ) ;
#54 = EDGE_CURVE ( 'NONE', #240, #254, #118, .T. ) ;
#55 = PERSON_AND_ORGANIZATION ( #65, #345 ) ;
#56 = CARTESIAN_POINT ( 'NONE',  ( -4.099999999999999645, 0.000000000000000000, 82.00000000000000000 ) ) ;
#57 = CARTESIAN_POINT ( 'NONE',  ( 6.700000000000001066, 0.000000000000000000, 6.999999999999999112 ) ) ;
#58 = DIRECTION ( 'NONE',  ( 0.000000000000000000, 0.000000000000000000, 1.000000000000000000 ) ) ;
#59 = EDGE_CURVE ( 'NONE', #73, #133, #170, .T. ) ;
#60 = FACE_OUTER_BOUND ( 'NONE', #374, .T. ) ;
#61 = DIRECTION ( 'NONE',  ( 0.000000000000000000, 0.000000000000000000, -1.000000000000000000 ) ) ;
#62 = CC_DESIGN_DATE_AND_TIME_ASSIGNMENT ( #203, #168, ( #121 ) ) ;
#63 = VECTOR ( 'NONE', #354, 1000.000000000000000 ) ;
#64 = DIRECTION ( 'NONE',  ( -0.000000000000000000, -0.000000000000000000, -1.000000000000000000 ) ) ;
#65 = PERSON ( 'NEURÈENÝ', 'NEURÈENÝ', 'NEURÈENÝ', ('NEURÈENÝ'), ('NEURÈENÝ'), ('NEURÈENÝ') ) ;
#66 = ORIENTED_EDGE ( 'NONE', *, *, #59, .F. ) ;
#67 = CARTESIAN_POINT ( 'NONE',  ( 0.000000000000000000, 0.000000000000000000, 82.00000000000000000 ) ) ;
#68 = DIRECTION ( 'NONE',  ( -1.000000000000000000, 0.000000000000000000, 0.000000000000000000 ) ) ;
#69 = ORIENTED_EDGE ( 'NONE', *, *, #4, .T. ) ;
#70 = DIRECTION ( 'NONE',  ( 0.000000000000000000, 0.000000000000000000, -1.000000000000000000 ) ) ;
#71 = ADVANCED_FACE ( 'NONE', ( #179, #244 ), #185, .T. ) ;
#72 = COORDINATED_UNIVERSAL_TIME_OFFSET ( 1, 0, .AHEAD. ) ;
#73 = VERTEX_POINT ( 'NONE', #57 ) ;
#74 = CIRCLE ( 'NONE', #41, 0.7000000000000000666 ) ;
#75 = ORIENTED_EDGE ( 'NONE', *, *, #362, .T. ) ;
#76 = MECHANICAL_CONTEXT ( 'NONE', #225, 'mechanical' ) ;
#77 = VECTOR ( 'NONE', #249, 1000.000000000000000 ) ;
#78 = ORIENTED_EDGE ( 'NONE', *, *, #295, .F. ) ;
#79 =( NAMED_UNIT ( * ) PLANE_ANGLE_UNIT ( ) SI_UNIT ( $, .RADIAN. ) );
#80 = ORIENTED_EDGE ( 'NONE', *, *, #295, .T. ) ;
#81 = VERTEX_POINT ( 'NONE', #275 ) ;
#82 = APPROVAL_DATE_TIME ( #145, #216 ) ;
#83 = CARTESIAN_POINT ( 'NONE',  ( 10.00000000000000000, 1.224646799147353256E-15, 7.000000000000000000 ) ) ;
#84 = EDGE_CURVE ( 'NONE', #291, #342, #365, .T. ) ;
#85 = PERSON_AND_ORGANIZATION_ROLE ( 'classification_officer' ) ;
#86 = DIRECTION ( 'NONE',  ( -0.000000000000000000, -0.000000000000000000, -1.000000000000000000 ) ) ;
#87 = AXIS2_PLACEMENT_3D ( 'NONE', #247, #187, #182 ) ;
#88 = AXIS2_PLACEMENT_3D ( 'NONE', #284, #35, #253 ) ;
#89 = DIRECTION ( 'NONE',  ( -0.000000000000000000, -0.000000000000000000, -1.000000000000000000 ) ) ;
#90 = AXIS2_PLACEMENT_3D ( 'NONE', #292, #174, #40 ) ;
#91 = CARTESIAN_POINT ( 'NONE',  ( 0.000000000000000000, 0.000000000000000000, 7.000000000000000000 ) ) ;
#92 = CIRCLE ( 'NONE', #314, 10.00000000000000000 ) ;
#93 = CARTESIAN_POINT ( 'NONE',  ( 0.000000000000000000, 0.000000000000000000, 7.000000000000000000 ) ) ;
#94 = UNCERTAINTY_MEASURE_WITH_UNIT (LENGTH_MEASURE( 1.000000000000000082E-05 ), #166, 'distance_accuracy_value', 'NONE');
#95 = CARTESIAN_POINT ( 'NONE',  ( 0.000000000000000000, 0.000000000000000000, 7.699999999999998401 ) ) ;
#96 = AXIS2_PLACEMENT_3D ( 'NONE', #307, #280, #68 ) ;
#97 = CC_DESIGN_APPROVAL ( #252, ( #311 ) ) ;
#98 = EDGE_CURVE ( 'NONE', #343, #171, #43, .T. ) ;
#99 = CARTESIAN_POINT ( 'NONE',  ( 10.00000000000000000, 1.224646799147353256E-15, 0.000000000000000000 ) ) ;
#100 = ORIENTED_EDGE ( 'NONE', *, *, #54, .F. ) ;
#101 = LINE ( 'NONE', #11, #8 ) ;
#102 = CIRCLE ( 'NONE', #173, 6.000000000000000888 ) ;
#103 = CIRCLE ( 'NONE', #90, 0.7000000000000000666 ) ;
#104 = DIRECTION ( 'NONE',  ( -0.000000000000000000, -0.000000000000000000, -1.000000000000000000 ) ) ;
#105 = ORIENTED_EDGE ( 'NONE', *, *, #131, .F. ) ;
#106 = DIRECTION ( 'NONE',  ( 0.000000000000000000, 0.000000000000000000, 1.000000000000000000 ) ) ;
#107 = ORIENTED_EDGE ( 'NONE', *, *, #4, .F. ) ;
#108 = ORIENTED_EDGE ( 'NONE', *, *, #195, .F. ) ;
#109 = APPROVAL_PERSON_ORGANIZATION ( #147, #216, #6 ) ;
#110 = ORIENTED_EDGE ( 'NONE', *, *, #98, .T. ) ;
#111 = CALENDAR_DATE ( 2022, 8, 7 ) ;
#112 = ORIENTED_EDGE ( 'NONE', *, *, #223, .F. ) ;
#113 = FACE_OUTER_BOUND ( 'NONE', #260, .T. ) ;
#114 = VERTEX_POINT ( 'NONE', #360 ) ;
#115 = PERSON_AND_ORGANIZATION_ROLE ( 'creator' ) ;
#116 = DIRECTION ( 'NONE',  ( 1.000000000000000000, 0.000000000000000000, -0.000000000000000000 ) ) ;
#117 = APPROVAL_STATUS ( 'not_yet_approved' ) ;
#118 = LINE ( 'NONE', #53, #63 ) ;
#119 = CIRCLE ( 'NONE', #352, 10.00000000000000000 ) ;
#120 = CYLINDRICAL_SURFACE ( 'NONE', #340, 10.00000000000000000 ) ;
#121 = PRODUCT_DEFINITION ( 'NEZNÁMÝ', '', #311, #34 ) ;
#122 = CARTESIAN_POINT ( 'NONE',  ( 0.000000000000000000, 0.000000000000000000, 82.00000000000000000 ) ) ;
#123 = DIRECTION ( 'NONE',  ( 1.000000000000000000, 0.000000000000000000, -0.000000000000000000 ) ) ;
#124 = CYLINDRICAL_SURFACE ( 'NONE', #278, 4.099999999999999645 ) ;
#125 = PRODUCT ( '931b', '931b', '', ( #76 ) ) ;
#126 = CARTESIAN_POINT ( 'NONE',  ( 0.000000000000000000, 0.000000000000000000, 7.699999999999998401 ) ) ;
#127 = EDGE_CURVE ( 'NONE', #342, #343, #7, .T. ) ;
#128 = DIRECTION ( 'NONE',  ( 1.000000000000000000, 0.000000000000000000, 0.000000000000000000 ) ) ;
#129 = ORIENTED_EDGE ( 'NONE', *, *, #229, .F. ) ;
#130 = FACE_OUTER_BOUND ( 'NONE', #322, .T. ) ;
#131 = EDGE_CURVE ( 'NONE', #254, #265, #217, .T. ) ;
#132 = DIRECTION ( 'NONE',  ( 1.000000000000000000, 0.000000000000000000, 0.000000000000000000 ) ) ;
#133 = VERTEX_POINT ( 'NONE', #155 ) ;
#134 = CC_DESIGN_APPROVAL ( #205, ( #121 ) ) ;
#135 = CARTESIAN_POINT ( 'NONE',  ( -4.099999999999999645, 0.000000000000000000, 0.000000000000000000 ) ) ;
#136 = ADVANCED_FACE ( 'NONE', ( #60 ), #5, .T. ) ;
#137 = VERTEX_POINT ( 'NONE', #305 ) ;
#138 = AXIS2_PLACEMENT_3D ( 'NONE', #282, #104, #156 ) ;
#139 = LOCAL_TIME ( 16, 36, 0.000000000000000000, #378 ) ;
#140 = PERSON_AND_ORGANIZATION ( #65, #345 ) ;
#141 = ORIENTED_EDGE ( 'NONE', *, *, #84, .T. ) ;
#142 = AXIS2_PLACEMENT_3D ( 'NONE', #261, #44, #356 ) ;
#143 = CARTESIAN_POINT ( 'NONE',  ( 0.000000000000000000, 0.000000000000000000, 0.000000000000000000 ) ) ;
#144 = ADVANCED_FACE ( 'NONE', ( #153, #268 ), #2, .F. ) ;
#145 = DATE_AND_TIME ( #154, #20 ) ;
#146 = DIRECTION ( 'NONE',  ( 0.000000000000000000, 0.000000000000000000, 1.000000000000000000 ) ) ;
#147 = PERSON_AND_ORGANIZATION ( #65, #345 ) ;
#148 = SECURITY_CLASSIFICATION ( '', '', #328 ) ;
#149 = DIRECTION ( 'NONE',  ( -1.000000000000000000, 0.000000000000000000, 0.000000000000000000 ) ) ;
#150 = DATE_AND_TIME ( #326, #186 ) ;
#151 = DIRECTION ( 'NONE',  ( 1.000000000000000000, 0.000000000000000000, 0.000000000000000000 ) ) ;
#152 = CC_DESIGN_PERSON_AND_ORGANIZATION_ASSIGNMENT ( #140, #323, ( #125 ) ) ;
#153 = FACE_BOUND ( 'NONE', #234, .T. ) ;
#154 = CALENDAR_DATE ( 2022, 8, 7 ) ;
#155 = CARTESIAN_POINT ( 'NONE',  ( -6.700000000000001066, 8.205133554287267548E-16, 6.999999999999999112 ) ) ;
#156 = DIRECTION ( 'NONE',  ( 1.000000000000000000, 0.000000000000000000, 0.000000000000000000 ) ) ;
#157 = ADVANCED_FACE ( 'NONE', ( #215 ), #1, .F. ) ;
#158 = DIRECTION ( 'NONE',  ( 0.000000000000000000, 0.000000000000000000, 1.000000000000000000 ) ) ;
#159 = ORIENTED_EDGE ( 'NONE', *, *, #281, .F. ) ;
#160 = ADVANCED_BREP_SHAPE_REPRESENTATION ( '931b', ( #197, #196 ), #270 ) ;
#161 = CYLINDRICAL_SURFACE ( 'NONE', #96, 6.000000000000000888 ) ;
#162 = APPROVAL_PERSON_ORGANIZATION ( #373, #205, #45 ) ;
#163 = FACE_OUTER_BOUND ( 'NONE', #23, .T. ) ;
#164 = ADVANCED_FACE ( 'NONE', ( #27 ), #120, .T. ) ;
#165 = CARTESIAN_POINT ( 'NONE',  ( -6.000000000000000888, 0.000000000000000000, 82.00000000000000000 ) ) ;
#166 =( LENGTH_UNIT ( ) NAMED_UNIT ( * ) SI_UNIT ( .MILLI., .METRE. ) );
#167 = APPROVAL_PERSON_ORGANIZATION ( #300, #252, #52 ) ;
#168 = DATE_TIME_ROLE ( 'creation_date' ) ;
#169 = EDGE_LOOP ( 'NONE', ( #69, #46 ) ) ;
#170 = CIRCLE ( 'NONE', #273, 6.700000000000001066 ) ;
#171 = VERTEX_POINT ( 'NONE', #271 ) ;
#172 = VERTEX_POINT ( 'NONE', #246 ) ;
#173 = AXIS2_PLACEMENT_3D ( 'NONE', #15, #224, #132 ) ;
#174 = DIRECTION ( 'NONE',  ( 1.224646799147353207E-16, 1.000000000000000000, -0.000000000000000000 ) ) ;
#175 = DIRECTION ( 'NONE',  ( 0.000000000000000000, 0.000000000000000000, 1.000000000000000000 ) ) ;
#176 = EDGE_CURVE ( 'NONE', #81, #73, #74, .T. ) ;
#177 = DATE_TIME_ROLE ( 'classification_date' ) ;
#178 = ORIENTED_EDGE ( 'NONE', *, *, #176, .T. ) ;
#179 = FACE_BOUND ( 'NONE', #207, .T. ) ;
#180 = CIRCLE ( 'NONE', #357, 4.099999999999999645 ) ;
#181 = CC_DESIGN_SECURITY_CLASSIFICATION ( #148, ( #311 ) ) ;
#182 = DIRECTION ( 'NONE',  ( -1.000000000000000000, 0.000000000000000000, 0.000000000000000000 ) ) ;
#183 = DIRECTION ( 'NONE',  ( 0.000000000000000000, -1.000000000000000000, 0.000000000000000000 ) ) ;
#184 = DATE_AND_TIME ( #303, #325 ) ;
#185 = PLANE ( 'NONE',  #337 ) ;
#186 = LOCAL_TIME ( 16, 36, 0.000000000000000000, #296 ) ;
#187 = DIRECTION ( 'NONE',  ( -0.000000000000000000, -0.000000000000000000, -1.000000000000000000 ) ) ;
#188 = CC_DESIGN_DATE_AND_TIME_ASSIGNMENT ( #184, #177, ( #148 ) ) ;
#189 = DIRECTION ( 'NONE',  ( -1.000000000000000000, 0.000000000000000000, 0.000000000000000000 ) ) ;
#190 = CIRCLE ( 'NONE', #142, 6.000000000000000888 ) ;
#191 = LINE ( 'NONE', #165, #290 ) ;
#192 = ORIENTED_EDGE ( 'NONE', *, *, #17, .F. ) ;
#193 = DIRECTION ( 'NONE',  ( 1.000000000000000000, 0.000000000000000000, 0.000000000000000000 ) ) ;
#194 = AXIS2_PLACEMENT_3D ( 'NONE', #31, #9, #329 ) ;
#195 = EDGE_CURVE ( 'NONE', #137, #81, #39, .T. ) ;
#196 = AXIS2_PLACEMENT_3D ( 'NONE', #287, #106, #319 ) ;
#197 = MANIFOLD_SOLID_BREP ( 'Odebrat vysunutím3', #301 ) ;
#198 = DIRECTION ( 'NONE',  ( 1.000000000000000000, 0.000000000000000000, 0.000000000000000000 ) ) ;
#199 = AXIS2_PLACEMENT_3D ( 'NONE', #332, #3, #151 ) ;
#200 = DIRECTION ( 'NONE',  ( 1.000000000000000000, 0.000000000000000000, 0.000000000000000000 ) ) ;
#201 = EDGE_LOOP ( 'NONE', ( #293, #308, #238, #100 ) ) ;
#202 = VECTOR ( 'NONE', #220, 1000.000000000000000 ) ;
#203 = DATE_AND_TIME ( #315, #358 ) ;
#204 = DIRECTION ( 'NONE',  ( 1.000000000000000000, 0.000000000000000000, 0.000000000000000000 ) ) ;
#205 = APPROVAL ( #286, 'NEURÈENÝ' ) ;
#206 = DIRECTION ( 'NONE',  ( -1.000000000000000000, 0.000000000000000000, 0.000000000000000000 ) ) ;
#207 = EDGE_LOOP ( 'NONE', ( #235, #317 ) ) ;
#208 = ORIENTED_EDGE ( 'NONE', *, *, #24, .F. ) ;
#209 = PERSON_AND_ORGANIZATION ( #65, #345 ) ;
#210 = ORIENTED_EDGE ( 'NONE', *, *, #362, .F. ) ;
#211 = ADVANCED_FACE ( 'NONE', ( #371, #130 ), #256, .T. ) ;
#212 = CIRCLE ( 'NONE', #32, 6.000000000000000888 ) ;
#213 = APPROVAL_DATE_TIME ( #150, #252 ) ;
#214 = ORIENTED_EDGE ( 'NONE', *, *, #281, .T. ) ;
#215 = FACE_OUTER_BOUND ( 'NONE', #258, .T. ) ;
#216 = APPROVAL ( #50, 'NEURÈENÝ' ) ;
#217 = CIRCLE ( 'NONE', #257, 10.00000000000000000 ) ;
#218 = DIRECTION ( 'NONE',  ( 1.000000000000000000, 0.000000000000000000, 0.000000000000000000 ) ) ;
#219 = CARTESIAN_POINT ( 'NONE',  ( 6.700000000000001066, 0.000000000000000000, 7.699999999999998401 ) ) ;
#220 = DIRECTION ( 'NONE',  ( 0.000000000000000000, 0.000000000000000000, -1.000000000000000000 ) ) ;
#221 = CARTESIAN_POINT ( 'NONE',  ( 0.000000000000000000, 0.000000000000000000, 0.000000000000000000 ) ) ;
#222 = AXIS2_PLACEMENT_3D ( 'NONE', #302, #89, #359 ) ;
#223 = EDGE_CURVE ( 'NONE', #114, #172, #191, .T. ) ;
#224 = DIRECTION ( 'NONE',  ( 0.000000000000000000, 0.000000000000000000, 1.000000000000000000 ) ) ;
#225 = APPLICATION_CONTEXT ( 'configuration controlled 3d designs of mechanical parts and assemblies' ) ;
#226 = CARTESIAN_POINT ( 'NONE',  ( -10.00000000000000000, 0.000000000000000000, 7.000000000000000000 ) ) ;
#227 = ORIENTED_EDGE ( 'NONE', *, *, #131, .T. ) ;
#228 = CIRCLE ( 'NONE', #199, 10.00000000000000000 ) ;
#229 = EDGE_CURVE ( 'NONE', #133, #73, #269, .T. ) ;
#230 = CARTESIAN_POINT ( 'NONE',  ( -10.00000000000000000, 0.000000000000000000, 0.000000000000000000 ) ) ;
#231 = FACE_OUTER_BOUND ( 'NONE', #338, .T. ) ;
#232 = CIRCLE ( 'NONE', #370, 6.000000000000000888 ) ;
#233 = DIRECTION ( 'NONE',  ( 0.000000000000000000, 0.000000000000000000, 1.000000000000000000 ) ) ;
#234 = EDGE_LOOP ( 'NONE', ( #348, #320 ) ) ;
#235 = ORIENTED_EDGE ( 'NONE', *, *, #59, .T. ) ;
#236 = ADVANCED_FACE ( 'NONE', ( #361 ), #368, .F. ) ;
#237 =( NAMED_UNIT ( * ) SI_UNIT ( $, .STERADIAN. ) SOLID_ANGLE_UNIT ( ) );
#238 = ORIENTED_EDGE ( 'NONE', *, *, #10, .T. ) ;
#239 = DIRECTION ( 'NONE',  ( -0.000000000000000000, -0.000000000000000000, -1.000000000000000000 ) ) ;
#240 = VERTEX_POINT ( 'NONE', #226 ) ;
#241 = DATE_AND_TIME ( #111, #139 ) ;
#242 = ORIENTED_EDGE ( 'NONE', *, *, #277, .T. ) ;
#243 = ORIENTED_EDGE ( 'NONE', *, *, #223, .T. ) ;
#244 = FACE_OUTER_BOUND ( 'NONE', #169, .T. ) ;
#245 = DIRECTION ( 'NONE',  ( 0.000000000000000000, 0.000000000000000000, 1.000000000000000000 ) ) ;
#246 = CARTESIAN_POINT ( 'NONE',  ( -6.000000000000000888, 0.000000000000000000, 7.699999999999998401 ) ) ;
#247 = CARTESIAN_POINT ( 'NONE',  ( 0.000000000000000000, 0.000000000000000000, 7.000000000000000000 ) ) ;
#248 = ADVANCED_FACE ( 'NONE', ( #231 ), #161, .T. ) ;
#249 = DIRECTION ( 'NONE',  ( -0.000000000000000000, -0.000000000000000000, -1.000000000000000000 ) ) ;
#250 = DIRECTION ( 'NONE',  ( 0.000000000000000000, 0.000000000000000000, 1.000000000000000000 ) ) ;
#251 = DIRECTION ( 'NONE',  ( 0.000000000000000000, 0.000000000000000000, 1.000000000000000000 ) ) ;
#252 = APPROVAL ( #117, 'NEURÈENÝ' ) ;
#253 = DIRECTION ( 'NONE',  ( -1.000000000000000000, 0.000000000000000000, 0.000000000000000000 ) ) ;
#254 = VERTEX_POINT ( 'NONE', #230 ) ;
#255 = AXIS2_PLACEMENT_3D ( 'NONE', #122, #29, #279 ) ;
#256 = PLANE ( 'NONE',  #264 ) ;
#257 = AXIS2_PLACEMENT_3D ( 'NONE', #221, #146, #274 ) ;
#258 = EDGE_LOOP ( 'NONE', ( #210, #372, #178, #129 ) ) ;
#259 = CC_DESIGN_PERSON_AND_ORGANIZATION_ASSIGNMENT ( #209, #48, ( #121 ) ) ;
#260 = EDGE_LOOP ( 'NONE', ( #78, #379, #369, #112 ) ) ;
#261 = CARTESIAN_POINT ( 'NONE',  ( 0.000000000000000000, 0.000000000000000000, 7.699999999999998401 ) ) ;
#262 = CYLINDRICAL_SURFACE ( 'NONE', #333, 6.000000000000000888 ) ;
#263 = EDGE_LOOP ( 'NONE', ( #105, #366 ) ) ;
#264 = AXIS2_PLACEMENT_3D ( 'NONE', #336, #251, #339 ) ;
#265 = VERTEX_POINT ( 'NONE', #99 ) ;
#266 = ORIENTED_EDGE ( 'NONE', *, *, #277, .F. ) ;
#267 = SHAPE_DEFINITION_REPRESENTATION ( #299, #160 ) ;
#268 = FACE_OUTER_BOUND ( 'NONE', #263, .T. ) ;
#269 = CIRCLE ( 'NONE', #276, 6.700000000000001066 ) ;
#270 =( GEOMETRIC_REPRESENTATION_CONTEXT ( 3 ) GLOBAL_UNCERTAINTY_ASSIGNED_CONTEXT ( ( #94 ) ) GLOBAL_UNIT_ASSIGNED_CONTEXT ( ( #166, #79, #237 ) ) REPRESENTATION_CONTEXT ( 'NONE', 'WORKASPACE' ) );
#271 = CARTESIAN_POINT ( 'NONE',  ( 4.099999999999999645, 5.021051876504147385E-16, 0.000000000000000000 ) ) ;
#272 = EDGE_CURVE ( 'NONE', #171, #343, #316, .T. ) ;
#273 = AXIS2_PLACEMENT_3D ( 'NONE', #93, #86, #218 ) ;
#274 = DIRECTION ( 'NONE',  ( 1.000000000000000000, 0.000000000000000000, 0.000000000000000000 ) ) ;
#275 = CARTESIAN_POINT ( 'NONE',  ( 6.000000000000000888, 7.347880794884120722E-16, 7.699999999999998401 ) ) ;
#276 = AXIS2_PLACEMENT_3D ( 'NONE', #36, #364, #193 ) ;
#277 = EDGE_CURVE ( 'NONE', #342, #291, #180, .T. ) ;
#278 = AXIS2_PLACEMENT_3D ( 'NONE', #334, #61, #189 ) ;
#279 = DIRECTION ( 'NONE',  ( 1.000000000000000000, 0.000000000000000000, 0.000000000000000000 ) ) ;
#280 = DIRECTION ( 'NONE',  ( -0.000000000000000000, -0.000000000000000000, -1.000000000000000000 ) ) ;
#281 = EDGE_CURVE ( 'NONE', #114, #137, #102, .T. ) ;
#282 = CARTESIAN_POINT ( 'NONE',  ( 0.000000000000000000, 0.000000000000000000, 0.000000000000000000 ) ) ;
#283 = CARTESIAN_POINT ( 'NONE',  ( -4.099999999999999645, 0.000000000000000000, 82.00000000000000000 ) ) ;
#284 = CARTESIAN_POINT ( 'NONE',  ( 0.000000000000000000, 0.000000000000000000, 82.00000000000000000 ) ) ;
#285 = EDGE_CURVE ( 'NONE', #291, #171, #101, .T. ) ;
#286 = APPROVAL_STATUS ( 'not_yet_approved' ) ;
#287 = CARTESIAN_POINT ( 'NONE',  ( 0.000000000000000000, 0.000000000000000000, 0.000000000000000000 ) ) ;
#288 = DIRECTION ( 'NONE',  ( 0.000000000000000000, 0.000000000000000000, 1.000000000000000000 ) ) ;
#289 = EDGE_CURVE ( 'NONE', #81, #172, #232, .T. ) ;
#290 = VECTOR ( 'NONE', #341, 1000.000000000000000 ) ;
#291 = VERTEX_POINT ( 'NONE', #12 ) ;
#292 = CARTESIAN_POINT ( 'NONE',  ( -6.700000000000001066, 8.205133554287267548E-16, 7.699999999999998401 ) ) ;
#293 = ORIENTED_EDGE ( 'NONE', *, *, #47, .F. ) ;
#294 = ORIENTED_EDGE ( 'NONE', *, *, #54, .T. ) ;
#295 = EDGE_CURVE ( 'NONE', #137, #114, #212, .T. ) ;
#296 = COORDINATED_UNIVERSAL_TIME_OFFSET ( 1, 0, .AHEAD. ) ;
#297 = CARTESIAN_POINT ( 'NONE',  ( 0.000000000000000000, 0.000000000000000000, 7.000000000000000000 ) ) ;
#298 = PERSON_AND_ORGANIZATION_ROLE ( 'design_supplier' ) ;
#299 = PRODUCT_DEFINITION_SHAPE ( 'NONE', 'NONE',  #121 ) ;
#300 = PERSON_AND_ORGANIZATION ( #65, #345 ) ;
#301 = CLOSED_SHELL ( 'NONE', ( #327, #335, #367, #164, #136, #71, #144, #248, #211, #157, #236 ) ) ;
#302 = CARTESIAN_POINT ( 'NONE',  ( 0.000000000000000000, 0.000000000000000000, 0.000000000000000000 ) ) ;
#303 = CALENDAR_DATE ( 2022, 8, 7 ) ;
#304 = LINE ( 'NONE', #83, #77 ) ;
#305 = CARTESIAN_POINT ( 'NONE',  ( 6.000000000000000888, 7.347880794884120722E-16, 82.00000000000000000 ) ) ;
#306 = APPLICATION_CONTEXT ( 'configuration controlled 3d designs of mechanical parts and assemblies' ) ;
#307 = CARTESIAN_POINT ( 'NONE',  ( 0.000000000000000000, 0.000000000000000000, 82.00000000000000000 ) ) ;
#308 = ORIENTED_EDGE ( 'NONE', *, *, #24, .T. ) ;
#309 = VECTOR ( 'NONE', #64, 1000.000000000000000 ) ;
#310 = TOROIDAL_SURFACE ( 'NONE', #26, 6.700000000000001066, 0.6999999999999999556 ) ;
#311 = PRODUCT_DEFINITION_FORMATION_WITH_SPECIFIED_SOURCE ( 'LIBOVOLNÝ', '', #125, .NOT_KNOWN. ) ;
#312 = CARTESIAN_POINT ( 'NONE',  ( 0.000000000000000000, 0.000000000000000000, 82.00000000000000000 ) ) ;
#313 = DIRECTION ( 'NONE',  ( 0.000000000000000000, 0.000000000000000000, 1.000000000000000000 ) ) ;
#314 = AXIS2_PLACEMENT_3D ( 'NONE', #143, #288, #18 ) ;
#315 = CALENDAR_DATE ( 2022, 8, 7 ) ;
#316 = CIRCLE ( 'NONE', #138, 4.099999999999999645 ) ;
#317 = ORIENTED_EDGE ( 'NONE', *, *, #229, .T. ) ;
#318 = PRODUCT_RELATED_PRODUCT_CATEGORY ( 'detail', '', ( #125 ) ) ;
#319 = DIRECTION ( 'NONE',  ( 1.000000000000000000, 0.000000000000000000, 0.000000000000000000 ) ) ;
#320 = ORIENTED_EDGE ( 'NONE', *, *, #272, .F. ) ;
#321 = APPLICATION_PROTOCOL_DEFINITION ( 'international standard', 'config_control_design', 1994, #306 ) ;
#322 = EDGE_LOOP ( 'NONE', ( #214, #80 ) ) ;
#323 = PERSON_AND_ORGANIZATION_ROLE ( 'design_owner' ) ;
#324 = ORIENTED_EDGE ( 'NONE', *, *, #272, .T. ) ;
#325 = LOCAL_TIME ( 16, 36, 0.000000000000000000, #30 ) ;
#326 = CALENDAR_DATE ( 2022, 8, 7 ) ;
#327 = ADVANCED_FACE ( 'NONE', ( #38 ), #124, .F. ) ;
#328 = SECURITY_CLASSIFICATION_LEVEL ( 'unclassified' ) ;
#329 = DIRECTION ( 'NONE',  ( 1.000000000000000000, 0.000000000000000000, 0.000000000000000000 ) ) ;
#330 = CARTESIAN_POINT ( 'NONE',  ( 10.00000000000000000, 1.224646799147353256E-15, 7.000000000000000000 ) ) ;
#331 = CARTESIAN_POINT ( 'NONE',  ( 0.000000000000000000, 0.000000000000000000, 0.000000000000000000 ) ) ;
#332 = CARTESIAN_POINT ( 'NONE',  ( 0.000000000000000000, 0.000000000000000000, 7.000000000000000000 ) ) ;
#333 = AXIS2_PLACEMENT_3D ( 'NONE', #380, #239, #206 ) ;
#334 = CARTESIAN_POINT ( 'NONE',  ( 0.000000000000000000, 0.000000000000000000, 82.00000000000000000 ) ) ;
#335 = ADVANCED_FACE ( 'NONE', ( #163 ), #310, .F. ) ;
#336 = CARTESIAN_POINT ( 'NONE',  ( 0.000000000000000000, 0.000000000000000000, 82.00000000000000000 ) ) ;
#337 = AXIS2_PLACEMENT_3D ( 'NONE', #91, #245, #123 ) ;
#338 = EDGE_LOOP ( 'NONE', ( #108, #159, #243, #42 ) ) ;
#339 = DIRECTION ( 'NONE',  ( 1.000000000000000000, 0.000000000000000000, -0.000000000000000000 ) ) ;
#340 = AXIS2_PLACEMENT_3D ( 'NONE', #297, #25, #149 ) ;
#341 = DIRECTION ( 'NONE',  ( -0.000000000000000000, -0.000000000000000000, -1.000000000000000000 ) ) ;
#342 = VERTEX_POINT ( 'NONE', #283 ) ;
#343 = VERTEX_POINT ( 'NONE', #135 ) ;
#344 = CC_DESIGN_PERSON_AND_ORGANIZATION_ASSIGNMENT ( #55, #85, ( #148 ) ) ;
#345 = ORGANIZATION ( 'NEURÈENÝ', 'NEURÈENÝ', '' ) ;
#346 = ORIENTED_EDGE ( 'NONE', *, *, #285, .F. ) ;
#347 = APPLICATION_PROTOCOL_DEFINITION ( 'international standard', 'config_control_design', 1994, #225 ) ;
#348 = ORIENTED_EDGE ( 'NONE', *, *, #98, .F. ) ;
#349 = APPROVAL_DATE_TIME ( #241, #205 ) ;
#350 = ORIENTED_EDGE ( 'NONE', *, *, #84, .F. ) ;
#351 = EDGE_LOOP ( 'NONE', ( #266, #350 ) ) ;
#352 = AXIS2_PLACEMENT_3D ( 'NONE', #49, #175, #204 ) ;
#353 = PERSON_AND_ORGANIZATION ( #65, #345 ) ;
#354 = DIRECTION ( 'NONE',  ( -0.000000000000000000, -0.000000000000000000, -1.000000000000000000 ) ) ;
#355 = PERSON_AND_ORGANIZATION ( #65, #345 ) ;
#356 = DIRECTION ( 'NONE',  ( 1.000000000000000000, 0.000000000000000000, 0.000000000000000000 ) ) ;
#357 = AXIS2_PLACEMENT_3D ( 'NONE', #312, #233, #128 ) ;
#358 = LOCAL_TIME ( 16, 36, 0.000000000000000000, #72 ) ;
#359 = DIRECTION ( 'NONE',  ( 1.000000000000000000, 0.000000000000000000, 0.000000000000000000 ) ) ;
#360 = CARTESIAN_POINT ( 'NONE',  ( -6.000000000000000888, 0.000000000000000000, 82.00000000000000000 ) ) ;
#361 = FACE_OUTER_BOUND ( 'NONE', #37, .T. ) ;
#362 = EDGE_CURVE ( 'NONE', #172, #133, #103, .T. ) ;
#363 = DIRECTION ( 'NONE',  ( 1.000000000000000000, 0.000000000000000000, 0.000000000000000000 ) ) ;
#364 = DIRECTION ( 'NONE',  ( -0.000000000000000000, -0.000000000000000000, -1.000000000000000000 ) ) ;
#365 = CIRCLE ( 'NONE', #255, 4.099999999999999645 ) ;
#366 = ORIENTED_EDGE ( 'NONE', *, *, #10, .F. ) ;
#367 = ADVANCED_FACE ( 'NONE', ( #113 ), #262, .T. ) ;
#368 = CYLINDRICAL_SURFACE ( 'NONE', #88, 4.099999999999999645 ) ;
#369 = ORIENTED_EDGE ( 'NONE', *, *, #289, .T. ) ;
#370 = AXIS2_PLACEMENT_3D ( 'NONE', #95, #158, #200 ) ;
#371 = FACE_BOUND ( 'NONE', #351, .T. ) ;
#372 = ORIENTED_EDGE ( 'NONE', *, *, #289, .F. ) ;
#373 = PERSON_AND_ORGANIZATION ( #65, #345 ) ;
#374 = EDGE_LOOP ( 'NONE', ( #208, #107, #294, #227 ) ) ;
#375 = CC_DESIGN_PERSON_AND_ORGANIZATION_ASSIGNMENT ( #353, #115, ( #311 ) ) ;
#376 = AXIS2_PLACEMENT_3D ( 'NONE', #331, #58, #116 ) ;
#377 = EDGE_LOOP ( 'NONE', ( #242, #21, #324, #381 ) ) ;
#378 = COORDINATED_UNIVERSAL_TIME_OFFSET ( 1, 0, .AHEAD. ) ;
#379 = ORIENTED_EDGE ( 'NONE', *, *, #195, .T. ) ;
#380 = CARTESIAN_POINT ( 'NONE',  ( 0.000000000000000000, 0.000000000000000000, 82.00000000000000000 ) ) ;
#381 = ORIENTED_EDGE ( 'NONE', *, *, #127, .F. ) ;
ENDSEC;
END-ISO-10303-21;
