ISO-10303-21;
HEADER;
FILE_DESCRIPTION (( 'STEP AP203' ),
    '1' );
FILE_NAME ('9a9e.STEP',
    '2022-07-08T15:42:29',
    ( '' ),
    ( '' ),
    'SwSTEP 2.0',
    'SolidWorks 2019',
    '' );
FILE_SCHEMA (( 'CONFIG_CONTROL_DESIGN' ));
ENDSEC;

DATA;
#1 = PERSON_AND_ORGANIZATION ( #72, #281 ) ;
#2 = LINE ( 'NONE', #125, #255 ) ;
#3 = DIRECTION ( 'NONE',  ( -1.000000000000000000, 0.000000000000000000, 0.000000000000000000 ) ) ;
#4 = DIRECTION ( 'NONE',  ( 1.000000000000000000, 0.000000000000000000, 0.000000000000000000 ) ) ;
#5 = AXIS2_PLACEMENT_3D ( 'NONE', #133, #194, #39 ) ;
#6 = COORDINATED_UNIVERSAL_TIME_OFFSET ( 1, 0, .AHEAD. ) ;
#7 = COORDINATED_UNIVERSAL_TIME_OFFSET ( 1, 0, .AHEAD. ) ;
#8 = DIRECTION ( 'NONE',  ( -0.000000000000000000, -0.000000000000000000, -1.000000000000000000 ) ) ;
#9 = ADVANCED_FACE ( 'NONE', ( #290 ), #94, .F. ) ;
#10 = VERTEX_POINT ( 'NONE', #92 ) ;
#11 = CIRCLE ( 'NONE', #143, 2.500000000000000000 ) ;
#12 = DIRECTION ( 'NONE',  ( 0.000000000000000000, 0.000000000000000000, 1.000000000000000000 ) ) ;
#13 = EDGE_CURVE ( 'NONE', #210, #275, #41, .T. ) ;
#14 = CARTESIAN_POINT ( 'NONE',  ( 0.000000000000000000, 0.000000000000000000, 0.000000000000000000 ) ) ;
#15 = APPLICATION_CONTEXT ( 'configuration controlled 3d designs of mechanical parts and assemblies' ) ;
#16 = CARTESIAN_POINT ( 'NONE',  ( -2.500000000000000000, 0.000000000000000000, 178.0000000000000000 ) ) ;
#17 = AXIS2_PLACEMENT_3D ( 'NONE', #158, #328, #259 ) ;
#18 = VERTEX_POINT ( 'NONE', #153 ) ;
#19 = AXIS2_PLACEMENT_3D ( 'NONE', #372, #352, #360 ) ;
#20 = CARTESIAN_POINT ( 'NONE',  ( -2.799999999999999822, 3.429011037612589276E-16, 2.999999999999998668 ) ) ;
#21 = ADVANCED_FACE ( 'NONE', ( #295, #35 ), #237, .T. ) ;
#22 = CARTESIAN_POINT ( 'NONE',  ( 0.000000000000000000, 0.000000000000000000, 0.000000000000000000 ) ) ;
#23 = EDGE_LOOP ( 'NONE', ( #233, #42 ) ) ;
#24 = CIRCLE ( 'NONE', #126, 2.500000000000000000 ) ;
#25 = CIRCLE ( 'NONE', #169, 0.2999999999999999334 ) ;
#26 = CARTESIAN_POINT ( 'NONE',  ( 0.000000000000000000, 0.000000000000000000, 3.000000000000000000 ) ) ;
#27 = ORIENTED_EDGE ( 'NONE', *, *, #377, .F. ) ;
#28 = CC_DESIGN_APPROVAL ( #34, ( #76 ) ) ;
#29 = CC_DESIGN_PERSON_AND_ORGANIZATION_ASSIGNMENT ( #289, #31, ( #222 ) ) ;
#30 = EDGE_LOOP ( 'NONE', ( #199, #369 ) ) ;
#31 = PERSON_AND_ORGANIZATION_ROLE ( 'design_owner' ) ;
#32 = CIRCLE ( 'NONE', #240, 2.799999999999999822 ) ;
#33 = CYLINDRICAL_SURFACE ( 'NONE', #80, 1.600000000000000089 ) ;
#34 = APPROVAL ( #212, 'NEURÈENÝ' ) ;
#35 = FACE_OUTER_BOUND ( 'NONE', #30, .T. ) ;
#36 = CARTESIAN_POINT ( 'NONE',  ( -1.600000000000000089, 0.000000000000000000, 178.0000000000000000 ) ) ;
#37 = VECTOR ( 'NONE', #294, 1000.000000000000000 ) ;
#38 = EDGE_CURVE ( 'NONE', #100, #129, #211, .T. ) ;
#39 = DIRECTION ( 'NONE',  ( -1.000000000000000000, 0.000000000000000000, 0.000000000000000000 ) ) ;
#40 = CALENDAR_DATE ( 2022, 8, 7 ) ;
#41 = CIRCLE ( 'NONE', #150, 2.799999999999999822 ) ;
#42 = ORIENTED_EDGE ( 'NONE', *, *, #193, .F. ) ;
#43 = SHAPE_DEFINITION_REPRESENTATION ( #272, #152 ) ;
#44 = CIRCLE ( 'NONE', #174, 1.600000000000000089 ) ;
#45 = CC_DESIGN_PERSON_AND_ORGANIZATION_ASSIGNMENT ( #197, #183, ( #87 ) ) ;
#46 = LOCAL_TIME ( 17, 42, 29.00000000000000000, #189 ) ;
#47 = CYLINDRICAL_SURFACE ( 'NONE', #292, 2.500000000000000000 ) ;
#48 = ORIENTED_EDGE ( 'NONE', *, *, #115, .T. ) ;
#49 = CARTESIAN_POINT ( 'NONE',  ( 0.000000000000000000, 0.000000000000000000, 3.299999999999997158 ) ) ;
#50 = ORIENTED_EDGE ( 'NONE', *, *, #280, .T. ) ;
#51 = AXIS2_PLACEMENT_3D ( 'NONE', #60, #148, #207 ) ;
#52 = EDGE_CURVE ( 'NONE', #112, #350, #357, .T. ) ;
#53 = DIRECTION ( 'NONE',  ( 0.000000000000000000, 0.000000000000000000, 1.000000000000000000 ) ) ;
#54 = ORIENTED_EDGE ( 'NONE', *, *, #248, .T. ) ;
#55 = CARTESIAN_POINT ( 'NONE',  ( -2.500000000000000000, 0.000000000000000000, 178.0000000000000000 ) ) ;
#56 = DIRECTION ( 'NONE',  ( 0.000000000000000000, -1.000000000000000000, 0.000000000000000000 ) ) ;
#57 = CARTESIAN_POINT ( 'NONE',  ( -1.600000000000000089, 0.000000000000000000, 178.0000000000000000 ) ) ;
#58 = DIRECTION ( 'NONE',  ( -0.000000000000000000, -0.000000000000000000, -1.000000000000000000 ) ) ;
#59 =( NAMED_UNIT ( * ) SI_UNIT ( $, .STERADIAN. ) SOLID_ANGLE_UNIT ( ) );
#60 = CARTESIAN_POINT ( 'NONE',  ( 0.000000000000000000, 0.000000000000000000, 178.0000000000000000 ) ) ;
#61 = DIRECTION ( 'NONE',  ( 1.000000000000000000, 0.000000000000000000, 0.000000000000000000 ) ) ;
#62 = PERSON_AND_ORGANIZATION ( #72, #281 ) ;
#63 = AXIS2_PLACEMENT_3D ( 'NONE', #192, #270, #190 ) ;
#64 = SECURITY_CLASSIFICATION_LEVEL ( 'unclassified' ) ;
#65 = DIRECTION ( 'NONE',  ( 0.000000000000000000, 0.000000000000000000, 1.000000000000000000 ) ) ;
#66 = LOCAL_TIME ( 17, 42, 29.00000000000000000, #7 ) ;
#67 = TOROIDAL_SURFACE ( 'NONE', #74, 2.799999999999999822, 0.2999999999999999889 ) ;
#68 = APPROVAL_ROLE ( '' ) ;
#69 = ORIENTED_EDGE ( 'NONE', *, *, #359, .T. ) ;
#70 = CARTESIAN_POINT ( 'NONE',  ( 0.000000000000000000, 0.000000000000000000, 3.000000000000000000 ) ) ;
#71 = ORIENTED_EDGE ( 'NONE', *, *, #13, .T. ) ;
#72 = PERSON ( 'NEURÈENÝ', 'NEURÈENÝ', 'NEURÈENÝ', ('NEURÈENÝ'), ('NEURÈENÝ'), ('NEURÈENÝ') ) ;
#73 = APPLICATION_CONTEXT ( 'configuration controlled 3d designs of mechanical parts and assemblies' ) ;
#74 = AXIS2_PLACEMENT_3D ( 'NONE', #83, #202, #175 ) ;
#75 = CARTESIAN_POINT ( 'NONE',  ( -5.000000000000000000, 0.000000000000000000, 3.000000000000000000 ) ) ;
#76 = PRODUCT_DEFINITION ( 'NEZNÁMÝ', '', #87, #308 ) ;
#77 = DIRECTION ( 'NONE',  ( -1.000000000000000000, 0.000000000000000000, 0.000000000000000000 ) ) ;
#78 = ORIENTED_EDGE ( 'NONE', *, *, #149, .F. ) ;
#79 = DATE_AND_TIME ( #101, #66 ) ;
#80 = AXIS2_PLACEMENT_3D ( 'NONE', #155, #298, #3 ) ;
#81 = CIRCLE ( 'NONE', #121, 1.600000000000000089 ) ;
#82 = ORIENTED_EDGE ( 'NONE', *, *, #115, .F. ) ;
#83 = CARTESIAN_POINT ( 'NONE',  ( 0.000000000000000000, 0.000000000000000000, 3.299999999999997158 ) ) ;
#84 = ORIENTED_EDGE ( 'NONE', *, *, #354, .F. ) ;
#85 = CIRCLE ( 'NONE', #234, 5.000000000000000000 ) ;
#86 = EDGE_LOOP ( 'NONE', ( #379, #219 ) ) ;
#87 = PRODUCT_DEFINITION_FORMATION_WITH_SPECIFIED_SOURCE ( 'LIBOVOLNÝ', '', #222, .NOT_KNOWN. ) ;
#88 = DIRECTION ( 'NONE',  ( 0.000000000000000000, 0.000000000000000000, -1.000000000000000000 ) ) ;
#89 = CARTESIAN_POINT ( 'NONE',  ( 0.000000000000000000, 0.000000000000000000, 3.000000000000000000 ) ) ;
#90 =( LENGTH_UNIT ( ) NAMED_UNIT ( * ) SI_UNIT ( .MILLI., .METRE. ) );
#91 = ADVANCED_FACE ( 'NONE', ( #182 ), #33, .F. ) ;
#92 = CARTESIAN_POINT ( 'NONE',  ( -2.500000000000000000, 0.000000000000000000, 3.299999999999997158 ) ) ;
#93 = CIRCLE ( 'NONE', #179, 2.500000000000000000 ) ;
#94 = CYLINDRICAL_SURFACE ( 'NONE', #51, 1.600000000000000089 ) ;
#95 = LOCAL_TIME ( 17, 42, 29.00000000000000000, #6 ) ;
#96 = CARTESIAN_POINT ( 'NONE',  ( 1.600000000000000089, 1.959434878635765230E-16, 178.0000000000000000 ) ) ;
#97 = DIRECTION ( 'NONE',  ( 0.000000000000000000, 0.000000000000000000, 1.000000000000000000 ) ) ;
#98 = EDGE_CURVE ( 'NONE', #112, #348, #353, .T. ) ;
#99 = DIRECTION ( 'NONE',  ( 1.000000000000000000, 0.000000000000000000, 0.000000000000000000 ) ) ;
#100 = VERTEX_POINT ( 'NONE', #128 ) ;
#101 = CALENDAR_DATE ( 2022, 8, 7 ) ;
#102 = CARTESIAN_POINT ( 'NONE',  ( 0.000000000000000000, 0.000000000000000000, 3.000000000000000000 ) ) ;
#103 = FACE_OUTER_BOUND ( 'NONE', #324, .T. ) ;
#104 = EDGE_CURVE ( 'NONE', #117, #142, #24, .T. ) ;
#105 = ORIENTED_EDGE ( 'NONE', *, *, #359, .F. ) ;
#106 = CYLINDRICAL_SURFACE ( 'NONE', #5, 5.000000000000000000 ) ;
#107 = AXIS2_PLACEMENT_3D ( 'NONE', #276, #216, #337 ) ;
#108 = EDGE_LOOP ( 'NONE', ( #176, #226, #69, #358 ) ) ;
#109 = PERSON_AND_ORGANIZATION_ROLE ( 'classification_officer' ) ;
#110 = EDGE_LOOP ( 'NONE', ( #305, #54, #171, #326 ) ) ;
#111 = DIRECTION ( 'NONE',  ( 1.000000000000000000, 0.000000000000000000, 0.000000000000000000 ) ) ;
#112 = VERTEX_POINT ( 'NONE', #36 ) ;
#113 = TOROIDAL_SURFACE ( 'NONE', #107, 2.799999999999999822, 0.2999999999999999889 ) ;
#114 = DIRECTION ( 'NONE',  ( 1.000000000000000000, 0.000000000000000000, -0.000000000000000000 ) ) ;
#115 = EDGE_CURVE ( 'NONE', #117, #10, #160, .T. ) ;
#116 = CARTESIAN_POINT ( 'NONE',  ( 1.600000000000000089, 1.959434878635765230E-16, 178.0000000000000000 ) ) ;
#117 = VERTEX_POINT ( 'NONE', #16 ) ;
#118 =( NAMED_UNIT ( * ) PLANE_ANGLE_UNIT ( ) SI_UNIT ( $, .RADIAN. ) );
#119 = ORIENTED_EDGE ( 'NONE', *, *, #322, .T. ) ;
#120 = VECTOR ( 'NONE', #178, 1000.000000000000000 ) ;
#121 = AXIS2_PLACEMENT_3D ( 'NONE', #306, #65, #167 ) ;
#122 = DIRECTION ( 'NONE',  ( 0.000000000000000000, 0.000000000000000000, -1.000000000000000000 ) ) ;
#123 = CC_DESIGN_PERSON_AND_ORGANIZATION_ASSIGNMENT ( #62, #161, ( #87 ) ) ;
#124 = EDGE_LOOP ( 'NONE', ( #368, #147 ) ) ;
#125 = CARTESIAN_POINT ( 'NONE',  ( -5.000000000000000000, 0.000000000000000000, 3.000000000000000000 ) ) ;
#126 = AXIS2_PLACEMENT_3D ( 'NONE', #361, #97, #333 ) ;
#127 = DIRECTION ( 'NONE',  ( 0.000000000000000000, 0.000000000000000000, 1.000000000000000000 ) ) ;
#128 = CARTESIAN_POINT ( 'NONE',  ( 5.000000000000000000, 6.123233995736766282E-16, 3.000000000000000000 ) ) ;
#129 = VERTEX_POINT ( 'NONE', #184 ) ;
#130 = DIRECTION ( 'NONE',  ( 1.000000000000000000, 0.000000000000000000, 0.000000000000000000 ) ) ;
#131 = CIRCLE ( 'NONE', #347, 1.600000000000000089 ) ;
#132 = UNCERTAINTY_MEASURE_WITH_UNIT (LENGTH_MEASURE( 1.000000000000000082E-05 ), #90, 'distance_accuracy_value', 'NONE');
#133 = CARTESIAN_POINT ( 'NONE',  ( 0.000000000000000000, 0.000000000000000000, 3.000000000000000000 ) ) ;
#134 = ORIENTED_EDGE ( 'NONE', *, *, #307, .T. ) ;
#135 = VECTOR ( 'NONE', #122, 1000.000000000000000 ) ;
#136 = EDGE_CURVE ( 'NONE', #350, #18, #44, .T. ) ;
#137 = CARTESIAN_POINT ( 'NONE',  ( 0.000000000000000000, 0.000000000000000000, 3.299999999999997158 ) ) ;
#138 = AXIS2_PLACEMENT_3D ( 'NONE', #356, #154, #327 ) ;
#139 = ORIENTED_EDGE ( 'NONE', *, *, #370, .T. ) ;
#140 = CARTESIAN_POINT ( 'NONE',  ( 0.000000000000000000, 0.000000000000000000, 178.0000000000000000 ) ) ;
#141 = ORIENTED_EDGE ( 'NONE', *, *, #98, .F. ) ;
#142 = VERTEX_POINT ( 'NONE', #367 ) ;
#143 = AXIS2_PLACEMENT_3D ( 'NONE', #49, #173, #285 ) ;
#144 = ORIENTED_EDGE ( 'NONE', *, *, #296, .T. ) ;
#145 = CC_DESIGN_SECURITY_CLASSIFICATION ( #236, ( #87 ) ) ;
#146 = CARTESIAN_POINT ( 'NONE',  ( -1.600000000000000089, 0.000000000000000000, 0.000000000000000000 ) ) ;
#147 = ORIENTED_EDGE ( 'NONE', *, *, #354, .T. ) ;
#148 = DIRECTION ( 'NONE',  ( 0.000000000000000000, 0.000000000000000000, -1.000000000000000000 ) ) ;
#149 = EDGE_CURVE ( 'NONE', #100, #258, #260, .T. ) ;
#150 = AXIS2_PLACEMENT_3D ( 'NONE', #89, #58, #61 ) ;
#151 = APPLICATION_PROTOCOL_DEFINITION ( 'international standard', 'config_control_design', 1994, #15 ) ;
#152 = ADVANCED_BREP_SHAPE_REPRESENTATION ( '9a9e', ( #331, #362 ), #224 ) ;
#153 = CARTESIAN_POINT ( 'NONE',  ( 1.600000000000000089, 1.959434878635765230E-16, 0.000000000000000000 ) ) ;
#154 = DIRECTION ( 'NONE',  ( -0.000000000000000000, -0.000000000000000000, -1.000000000000000000 ) ) ;
#155 = CARTESIAN_POINT ( 'NONE',  ( 0.000000000000000000, 0.000000000000000000, 178.0000000000000000 ) ) ;
#156 = EDGE_CURVE ( 'NONE', #275, #210, #32, .T. ) ;
#157 = FACE_OUTER_BOUND ( 'NONE', #165, .T. ) ;
#158 = CARTESIAN_POINT ( 'NONE',  ( 0.000000000000000000, 0.000000000000000000, 3.000000000000000000 ) ) ;
#159 = DATE_AND_TIME ( #363, #267 ) ;
#160 = LINE ( 'NONE', #55, #120 ) ;
#161 = PERSON_AND_ORGANIZATION_ROLE ( 'creator' ) ;
#162 = CYLINDRICAL_SURFACE ( 'NONE', #265, 5.000000000000000000 ) ;
#163 = CALENDAR_DATE ( 2022, 8, 7 ) ;
#164 = FACE_OUTER_BOUND ( 'NONE', #108, .T. ) ;
#165 = EDGE_LOOP ( 'NONE', ( #84, #241, #134, #82 ) ) ;
#166 = DIRECTION ( 'NONE',  ( 0.000000000000000000, 0.000000000000000000, 1.000000000000000000 ) ) ;
#167 = DIRECTION ( 'NONE',  ( 1.000000000000000000, 0.000000000000000000, 0.000000000000000000 ) ) ;
#168 = ORIENTED_EDGE ( 'NONE', *, *, #248, .F. ) ;
#169 = AXIS2_PLACEMENT_3D ( 'NONE', #313, #344, #198 ) ;
#170 = APPROVAL_PERSON_ORGANIZATION ( #338, #228, #68 ) ;
#171 = ORIENTED_EDGE ( 'NONE', *, *, #52, .T. ) ;
#172 = FACE_OUTER_BOUND ( 'NONE', #23, .T. ) ;
#173 = DIRECTION ( 'NONE',  ( 0.000000000000000000, 0.000000000000000000, 1.000000000000000000 ) ) ;
#174 = AXIS2_PLACEMENT_3D ( 'NONE', #14, #245, #130 ) ;
#175 = DIRECTION ( 'NONE',  ( 1.000000000000000000, 0.000000000000000000, 0.000000000000000000 ) ) ;
#176 = ORIENTED_EDGE ( 'NONE', *, *, #256, .F. ) ;
#177 = ADVANCED_FACE ( 'NONE', ( #103 ), #106, .T. ) ;
#178 = DIRECTION ( 'NONE',  ( -0.000000000000000000, -0.000000000000000000, -1.000000000000000000 ) ) ;
#179 = AXIS2_PLACEMENT_3D ( 'NONE', #137, #229, #232 ) ;
#180 = EDGE_CURVE ( 'NONE', #142, #321, #223, .T. ) ;
#181 = MECHANICAL_CONTEXT ( 'NONE', #73, 'mechanical' ) ;
#182 = FACE_OUTER_BOUND ( 'NONE', #110, .T. ) ;
#183 = PERSON_AND_ORGANIZATION_ROLE ( 'design_supplier' ) ;
#184 = CARTESIAN_POINT ( 'NONE',  ( 5.000000000000000000, 6.123233995736766282E-16, 0.000000000000000000 ) ) ;
#185 = CIRCLE ( 'NONE', #19, 2.500000000000000000 ) ;
#186 = DATE_TIME_ROLE ( 'creation_date' ) ;
#187 = CARTESIAN_POINT ( 'NONE',  ( 0.000000000000000000, 0.000000000000000000, 0.000000000000000000 ) ) ;
#188 = APPROVAL ( #336, 'NEURÈENÝ' ) ;
#189 = COORDINATED_UNIVERSAL_TIME_OFFSET ( 1, 0, .AHEAD. ) ;
#190 = DIRECTION ( 'NONE',  ( 1.000000000000000000, 0.000000000000000000, -0.000000000000000000 ) ) ;
#191 = ORIENTED_EDGE ( 'NONE', *, *, #256, .T. ) ;
#192 = CARTESIAN_POINT ( 'NONE',  ( 0.000000000000000000, 0.000000000000000000, 178.0000000000000000 ) ) ;
#193 = EDGE_CURVE ( 'NONE', #129, #317, #85, .T. ) ;
#194 = DIRECTION ( 'NONE',  ( -0.000000000000000000, -0.000000000000000000, -1.000000000000000000 ) ) ;
#195 = DATE_TIME_ROLE ( 'classification_date' ) ;
#196 = ORIENTED_EDGE ( 'NONE', *, *, #180, .F. ) ;
#197 = PERSON_AND_ORGANIZATION ( #72, #281 ) ;
#198 = DIRECTION ( 'NONE',  ( -1.000000000000000000, 1.224646799147353207E-16, 0.000000000000000000 ) ) ;
#199 = ORIENTED_EDGE ( 'NONE', *, *, #330, .T. ) ;
#200 = CC_DESIGN_PERSON_AND_ORGANIZATION_ASSIGNMENT ( #271, #109, ( #236 ) ) ;
#201 = CARTESIAN_POINT ( 'NONE',  ( 2.500000000000000000, 3.061616997868383141E-16, 3.299999999999997158 ) ) ;
#202 = DIRECTION ( 'NONE',  ( 0.000000000000000000, 0.000000000000000000, 1.000000000000000000 ) ) ;
#203 = EDGE_LOOP ( 'NONE', ( #373, #139, #144, #230 ) ) ;
#204 = CIRCLE ( 'NONE', #268, 5.000000000000000000 ) ;
#205 = CC_DESIGN_DATE_AND_TIME_ASSIGNMENT ( #79, #186, ( #76 ) ) ;
#206 = LINE ( 'NONE', #96, #374 ) ;
#207 = DIRECTION ( 'NONE',  ( -1.000000000000000000, 0.000000000000000000, 0.000000000000000000 ) ) ;
#208 = APPROVAL_PERSON_ORGANIZATION ( #1, #34, #246 ) ;
#209 = CYLINDRICAL_SURFACE ( 'NONE', #138, 2.500000000000000000 ) ;
#210 = VERTEX_POINT ( 'NONE', #220 ) ;
#211 = LINE ( 'NONE', #263, #37 ) ;
#212 = APPROVAL_STATUS ( 'not_yet_approved' ) ;
#213 = DIRECTION ( 'NONE',  ( -0.000000000000000000, -0.000000000000000000, -1.000000000000000000 ) ) ;
#214 = ADVANCED_FACE ( 'NONE', ( #335, #274 ), #218, .T. ) ;
#215 = PERSON_AND_ORGANIZATION ( #72, #281 ) ;
#216 = DIRECTION ( 'NONE',  ( 0.000000000000000000, 0.000000000000000000, 1.000000000000000000 ) ) ;
#217 = APPROVAL_DATE_TIME ( #303, #188 ) ;
#218 = PLANE ( 'NONE',  #63 ) ;
#219 = ORIENTED_EDGE ( 'NONE', *, *, #296, .F. ) ;
#220 = CARTESIAN_POINT ( 'NONE',  ( 2.799999999999999822, 0.000000000000000000, 2.999999999999998668 ) ) ;
#221 = ADVANCED_FACE ( 'NONE', ( #239 ), #162, .T. ) ;
#222 = PRODUCT ( '9a9e', '9a9e', '', ( #181 ) ) ;
#223 = LINE ( 'NONE', #301, #253 ) ;
#224 =( GEOMETRIC_REPRESENTATION_CONTEXT ( 3 ) GLOBAL_UNCERTAINTY_ASSIGNED_CONTEXT ( ( #132 ) ) GLOBAL_UNIT_ASSIGNED_CONTEXT ( ( #90, #118, #59 ) ) REPRESENTATION_CONTEXT ( 'NONE', 'WORKASPACE' ) );
#225 = DATE_AND_TIME ( #163, #46 ) ;
#226 = ORIENTED_EDGE ( 'NONE', *, *, #307, .F. ) ;
#227 = COORDINATED_UNIVERSAL_TIME_OFFSET ( 1, 0, .AHEAD. ) ;
#228 = APPROVAL ( #343, 'NEURÈENÝ' ) ;
#229 = DIRECTION ( 'NONE',  ( 0.000000000000000000, 0.000000000000000000, 1.000000000000000000 ) ) ;
#230 = ORIENTED_EDGE ( 'NONE', *, *, #52, .F. ) ;
#231 = ORIENTED_EDGE ( 'NONE', *, *, #330, .F. ) ;
#232 = DIRECTION ( 'NONE',  ( 1.000000000000000000, 0.000000000000000000, 0.000000000000000000 ) ) ;
#233 = ORIENTED_EDGE ( 'NONE', *, *, #280, .F. ) ;
#234 = AXIS2_PLACEMENT_3D ( 'NONE', #187, #12, #341 ) ;
#235 = APPLICATION_PROTOCOL_DEFINITION ( 'international standard', 'config_control_design', 1994, #73 ) ;
#236 = SECURITY_CLASSIFICATION ( '', '', #64 ) ;
#237 = PLANE ( 'NONE',  #17 ) ;
#238 = CARTESIAN_POINT ( 'NONE',  ( 0.000000000000000000, 0.000000000000000000, 178.0000000000000000 ) ) ;
#239 = FACE_OUTER_BOUND ( 'NONE', #282, .T. ) ;
#240 = AXIS2_PLACEMENT_3D ( 'NONE', #102, #244, #99 ) ;
#241 = ORIENTED_EDGE ( 'NONE', *, *, #180, .T. ) ;
#242 = ADVANCED_FACE ( 'NONE', ( #164 ), #113, .F. ) ;
#243 = ORIENTED_EDGE ( 'NONE', *, *, #38, .F. ) ;
#244 = DIRECTION ( 'NONE',  ( -0.000000000000000000, -0.000000000000000000, -1.000000000000000000 ) ) ;
#245 = DIRECTION ( 'NONE',  ( -0.000000000000000000, -0.000000000000000000, -1.000000000000000000 ) ) ;
#246 = APPROVAL_ROLE ( '' ) ;
#247 = CIRCLE ( 'NONE', #287, 0.2999999999999999334 ) ;
#248 = EDGE_CURVE ( 'NONE', #348, #112, #81, .T. ) ;
#249 = DIRECTION ( 'NONE',  ( -0.000000000000000000, -0.000000000000000000, -1.000000000000000000 ) ) ;
#250 = ORIENTED_EDGE ( 'NONE', *, *, #377, .T. ) ;
#251 = DIRECTION ( 'NONE',  ( 0.000000000000000000, 0.000000000000000000, 1.000000000000000000 ) ) ;
#252 = ORIENTED_EDGE ( 'NONE', *, *, #156, .T. ) ;
#253 = VECTOR ( 'NONE', #213, 1000.000000000000000 ) ;
#254 = DIRECTION ( 'NONE',  ( 1.000000000000000000, 0.000000000000000000, 0.000000000000000000 ) ) ;
#255 = VECTOR ( 'NONE', #297, 1000.000000000000000 ) ;
#256 = EDGE_CURVE ( 'NONE', #10, #275, #25, .T. ) ;
#257 = ORIENTED_EDGE ( 'NONE', *, *, #322, .F. ) ;
#258 = VERTEX_POINT ( 'NONE', #75 ) ;
#259 = DIRECTION ( 'NONE',  ( 1.000000000000000000, 0.000000000000000000, -0.000000000000000000 ) ) ;
#260 = CIRCLE ( 'NONE', #364, 5.000000000000000000 ) ;
#261 = AXIS2_PLACEMENT_3D ( 'NONE', #22, #251, #114 ) ;
#262 = CARTESIAN_POINT ( 'NONE',  ( 0.000000000000000000, 0.000000000000000000, 0.000000000000000000 ) ) ;
#263 = CARTESIAN_POINT ( 'NONE',  ( 5.000000000000000000, 6.123233995736766282E-16, 3.000000000000000000 ) ) ;
#264 = DIRECTION ( 'NONE',  ( 0.000000000000000000, 0.000000000000000000, 1.000000000000000000 ) ) ;
#265 = AXIS2_PLACEMENT_3D ( 'NONE', #311, #8, #309 ) ;
#266 = CC_DESIGN_PERSON_AND_ORGANIZATION_ASSIGNMENT ( #215, #366, ( #76 ) ) ;
#267 = LOCAL_TIME ( 17, 42, 29.00000000000000000, #227 ) ;
#268 = AXIS2_PLACEMENT_3D ( 'NONE', #26, #53, #254 ) ;
#269 = APPROVAL_DATE_TIME ( #159, #34 ) ;
#270 = DIRECTION ( 'NONE',  ( 0.000000000000000000, 0.000000000000000000, 1.000000000000000000 ) ) ;
#271 = PERSON_AND_ORGANIZATION ( #72, #281 ) ;
#272 = PRODUCT_DEFINITION_SHAPE ( 'NONE', 'NONE',  #76 ) ;
#273 = APPROVAL_ROLE ( '' ) ;
#274 = FACE_OUTER_BOUND ( 'NONE', #124, .T. ) ;
#275 = VERTEX_POINT ( 'NONE', #20 ) ;
#276 = CARTESIAN_POINT ( 'NONE',  ( 0.000000000000000000, 0.000000000000000000, 3.299999999999997158 ) ) ;
#277 = AXIS2_PLACEMENT_3D ( 'NONE', #238, #264, #4 ) ;
#278 = FACE_OUTER_BOUND ( 'NONE', #375, .T. ) ;
#279 = ORIENTED_EDGE ( 'NONE', *, *, #193, .T. ) ;
#280 = EDGE_CURVE ( 'NONE', #317, #129, #381, .T. ) ;
#281 = ORGANIZATION ( 'NEURÈENÝ', 'NEURÈENÝ', '' ) ;
#282 = EDGE_LOOP ( 'NONE', ( #243, #231, #250, #50 ) ) ;
#283 = PLANE ( 'NONE',  #261 ) ;
#284 = ADVANCED_FACE ( 'NONE', ( #278 ), #47, .T. ) ;
#285 = DIRECTION ( 'NONE',  ( 1.000000000000000000, 0.000000000000000000, 0.000000000000000000 ) ) ;
#286 = CARTESIAN_POINT ( 'NONE',  ( 0.000000000000000000, 0.000000000000000000, 0.000000000000000000 ) ) ;
#287 = AXIS2_PLACEMENT_3D ( 'NONE', #293, #56, #88 ) ;
#288 = ORIENTED_EDGE ( 'NONE', *, *, #38, .T. ) ;
#289 = PERSON_AND_ORGANIZATION ( #72, #281 ) ;
#290 = FACE_OUTER_BOUND ( 'NONE', #203, .T. ) ;
#291 = CC_DESIGN_DATE_AND_TIME_ASSIGNMENT ( #300, #195, ( #236 ) ) ;
#292 = AXIS2_PLACEMENT_3D ( 'NONE', #140, #376, #77 ) ;
#293 = CARTESIAN_POINT ( 'NONE',  ( 2.799999999999999822, 0.000000000000000000, 3.299999999999997158 ) ) ;
#294 = DIRECTION ( 'NONE',  ( -0.000000000000000000, -0.000000000000000000, -1.000000000000000000 ) ) ;
#295 = FACE_BOUND ( 'NONE', #380, .T. ) ;
#296 = EDGE_CURVE ( 'NONE', #18, #350, #131, .T. ) ;
#297 = DIRECTION ( 'NONE',  ( -0.000000000000000000, -0.000000000000000000, -1.000000000000000000 ) ) ;
#298 = DIRECTION ( 'NONE',  ( 0.000000000000000000, 0.000000000000000000, -1.000000000000000000 ) ) ;
#299 = CLOSED_SHELL ( 'NONE', ( #9, #342, #365, #177, #221, #21, #312, #284, #214, #242, #91 ) ) ;
#300 = DATE_AND_TIME ( #40, #310 ) ;
#301 = CARTESIAN_POINT ( 'NONE',  ( 2.500000000000000000, 3.061616997868383141E-16, 178.0000000000000000 ) ) ;
#302 = CC_DESIGN_APPROVAL ( #188, ( #87 ) ) ;
#303 = DATE_AND_TIME ( #345, #95 ) ;
#304 = DIRECTION ( 'NONE',  ( 1.000000000000000000, 0.000000000000000000, 0.000000000000000000 ) ) ;
#305 = ORIENTED_EDGE ( 'NONE', *, *, #370, .F. ) ;
#306 = CARTESIAN_POINT ( 'NONE',  ( 0.000000000000000000, 0.000000000000000000, 178.0000000000000000 ) ) ;
#307 = EDGE_CURVE ( 'NONE', #321, #10, #93, .T. ) ;
#308 = DESIGN_CONTEXT ( 'detailed design', #15, 'design' ) ;
#309 = DIRECTION ( 'NONE',  ( -1.000000000000000000, 0.000000000000000000, 0.000000000000000000 ) ) ;
#310 = LOCAL_TIME ( 17, 42, 29.00000000000000000, #318 ) ;
#311 = CARTESIAN_POINT ( 'NONE',  ( 0.000000000000000000, 0.000000000000000000, 3.000000000000000000 ) ) ;
#312 = ADVANCED_FACE ( 'NONE', ( #346, #172 ), #283, .F. ) ;
#313 = CARTESIAN_POINT ( 'NONE',  ( -2.799999999999999822, 3.429011037612588783E-16, 3.299999999999997158 ) ) ;
#314 = ORIENTED_EDGE ( 'NONE', *, *, #13, .F. ) ;
#315 = APPROVAL_DATE_TIME ( #225, #228 ) ;
#316 = DIRECTION ( 'NONE',  ( 0.000000000000000000, 0.000000000000000000, 1.000000000000000000 ) ) ;
#317 = VERTEX_POINT ( 'NONE', #349 ) ;
#318 = COORDINATED_UNIVERSAL_TIME_OFFSET ( 1, 0, .AHEAD. ) ;
#319 = CC_DESIGN_APPROVAL ( #228, ( #236 ) ) ;
#320 = CARTESIAN_POINT ( 'NONE',  ( 0.000000000000000000, 0.000000000000000000, 0.000000000000000000 ) ) ;
#321 = VERTEX_POINT ( 'NONE', #201 ) ;
#322 = EDGE_CURVE ( 'NONE', #10, #321, #11, .T. ) ;
#323 = DIRECTION ( 'NONE',  ( 1.000000000000000000, 0.000000000000000000, 0.000000000000000000 ) ) ;
#324 = EDGE_LOOP ( 'NONE', ( #78, #288, #279, #27 ) ) ;
#325 = ORIENTED_EDGE ( 'NONE', *, *, #104, .F. ) ;
#326 = ORIENTED_EDGE ( 'NONE', *, *, #136, .T. ) ;
#327 = DIRECTION ( 'NONE',  ( -1.000000000000000000, 0.000000000000000000, 0.000000000000000000 ) ) ;
#328 = DIRECTION ( 'NONE',  ( 0.000000000000000000, 0.000000000000000000, 1.000000000000000000 ) ) ;
#329 = DIRECTION ( 'NONE',  ( 1.000000000000000000, 0.000000000000000000, 0.000000000000000000 ) ) ;
#330 = EDGE_CURVE ( 'NONE', #258, #100, #204, .T. ) ;
#331 = MANIFOLD_SOLID_BREP ( 'Odebrat vysunutím3', #299 ) ;
#332 = DIRECTION ( 'NONE',  ( 0.000000000000000000, 0.000000000000000000, -1.000000000000000000 ) ) ;
#333 = DIRECTION ( 'NONE',  ( 1.000000000000000000, 0.000000000000000000, 0.000000000000000000 ) ) ;
#334 = PERSON_AND_ORGANIZATION ( #72, #281 ) ;
#335 = FACE_BOUND ( 'NONE', #340, .T. ) ;
#336 = APPROVAL_STATUS ( 'not_yet_approved' ) ;
#337 = DIRECTION ( 'NONE',  ( 1.000000000000000000, 0.000000000000000000, 0.000000000000000000 ) ) ;
#338 = PERSON_AND_ORGANIZATION ( #72, #281 ) ;
#339 = PRODUCT_RELATED_PRODUCT_CATEGORY ( 'detail', '', ( #222 ) ) ;
#340 = EDGE_LOOP ( 'NONE', ( #141, #168 ) ) ;
#341 = DIRECTION ( 'NONE',  ( 1.000000000000000000, 0.000000000000000000, 0.000000000000000000 ) ) ;
#342 = ADVANCED_FACE ( 'NONE', ( #378 ), #67, .F. ) ;
#343 = APPROVAL_STATUS ( 'not_yet_approved' ) ;
#344 = DIRECTION ( 'NONE',  ( 1.224646799147353207E-16, 1.000000000000000000, -0.000000000000000000 ) ) ;
#345 = CALENDAR_DATE ( 2022, 8, 7 ) ;
#346 = FACE_BOUND ( 'NONE', #86, .T. ) ;
#347 = AXIS2_PLACEMENT_3D ( 'NONE', #286, #249, #111 ) ;
#348 = VERTEX_POINT ( 'NONE', #116 ) ;
#349 = CARTESIAN_POINT ( 'NONE',  ( -5.000000000000000000, 0.000000000000000000, 0.000000000000000000 ) ) ;
#350 = VERTEX_POINT ( 'NONE', #146 ) ;
#351 = EDGE_LOOP ( 'NONE', ( #257, #191, #314, #105 ) ) ;
#352 = DIRECTION ( 'NONE',  ( 0.000000000000000000, 0.000000000000000000, 1.000000000000000000 ) ) ;
#353 = CIRCLE ( 'NONE', #277, 1.600000000000000089 ) ;
#354 = EDGE_CURVE ( 'NONE', #142, #117, #185, .T. ) ;
#355 = APPROVAL_PERSON_ORGANIZATION ( #334, #188, #273 ) ;
#356 = CARTESIAN_POINT ( 'NONE',  ( 0.000000000000000000, 0.000000000000000000, 178.0000000000000000 ) ) ;
#357 = LINE ( 'NONE', #57, #135 ) ;
#358 = ORIENTED_EDGE ( 'NONE', *, *, #156, .F. ) ;
#359 = EDGE_CURVE ( 'NONE', #321, #210, #247, .T. ) ;
#360 = DIRECTION ( 'NONE',  ( 1.000000000000000000, 0.000000000000000000, 0.000000000000000000 ) ) ;
#361 = CARTESIAN_POINT ( 'NONE',  ( 0.000000000000000000, 0.000000000000000000, 178.0000000000000000 ) ) ;
#362 = AXIS2_PLACEMENT_3D ( 'NONE', #262, #127, #329 ) ;
#363 = CALENDAR_DATE ( 2022, 8, 7 ) ;
#364 = AXIS2_PLACEMENT_3D ( 'NONE', #70, #166, #304 ) ;
#365 = ADVANCED_FACE ( 'NONE', ( #157 ), #209, .T. ) ;
#366 = PERSON_AND_ORGANIZATION_ROLE ( 'creator' ) ;
#367 = CARTESIAN_POINT ( 'NONE',  ( 2.500000000000000000, 3.061616997868383141E-16, 178.0000000000000000 ) ) ;
#368 = ORIENTED_EDGE ( 'NONE', *, *, #104, .T. ) ;
#369 = ORIENTED_EDGE ( 'NONE', *, *, #149, .T. ) ;
#370 = EDGE_CURVE ( 'NONE', #348, #18, #206, .T. ) ;
#371 = AXIS2_PLACEMENT_3D ( 'NONE', #320, #316, #323 ) ;
#372 = CARTESIAN_POINT ( 'NONE',  ( 0.000000000000000000, 0.000000000000000000, 178.0000000000000000 ) ) ;
#373 = ORIENTED_EDGE ( 'NONE', *, *, #98, .T. ) ;
#374 = VECTOR ( 'NONE', #332, 1000.000000000000000 ) ;
#375 = EDGE_LOOP ( 'NONE', ( #196, #325, #48, #119 ) ) ;
#376 = DIRECTION ( 'NONE',  ( -0.000000000000000000, -0.000000000000000000, -1.000000000000000000 ) ) ;
#377 = EDGE_CURVE ( 'NONE', #258, #317, #2, .T. ) ;
#378 = FACE_OUTER_BOUND ( 'NONE', #351, .T. ) ;
#379 = ORIENTED_EDGE ( 'NONE', *, *, #136, .F. ) ;
#380 = EDGE_LOOP ( 'NONE', ( #71, #252 ) ) ;
#381 = CIRCLE ( 'NONE', #371, 5.000000000000000000 ) ;
ENDSEC;
END-ISO-10303-21;
