ISO-10303-21;
HEADER;
FILE_DESCRIPTION (( 'STEP AP203' ),
    '1' );
FILE_NAME ('5e1f.STEP',
    '2022-07-08T15:03:48',
    ( '' ),
    ( '' ),
    'SwSTEP 2.0',
    'SolidWorks 2019',
    '' );
FILE_SCHEMA (( 'CONFIG_CONTROL_DESIGN' ));
ENDSEC;

DATA;
#1 = APPROVAL ( #349, 'NEURÈENÝ' ) ;
#2 = CARTESIAN_POINT ( 'NONE',  ( 0.000000000000000000, 0.000000000000000000, 5.499999999999949374 ) ) ;
#3 = LINE ( 'NONE', #269, #245 ) ;
#4 = ORIENTED_EDGE ( 'NONE', *, *, #47, .T. ) ;
#5 = AXIS2_PLACEMENT_3D ( 'NONE', #67, #306, #131 ) ;
#6 = CARTESIAN_POINT ( 'NONE',  ( 0.000000000000000000, 0.000000000000000000, 5.000000000000000000 ) ) ;
#7 = CARTESIAN_POINT ( 'NONE',  ( 8.000000000000000000, 9.797174393178825657E-16, 0.000000000000000000 ) ) ;
#8 = DATE_AND_TIME ( #246, #130 ) ;
#9 = DIRECTION ( 'NONE',  ( 1.000000000000000000, 0.000000000000000000, -0.000000000000000000 ) ) ;
#10 = FACE_BOUND ( 'NONE', #52, .T. ) ;
#11 = DIRECTION ( 'NONE',  ( -1.000000000000000000, 0.000000000000000000, 0.000000000000000000 ) ) ;
#12 = ADVANCED_BREP_SHAPE_REPRESENTATION ( '5e1f', ( #77, #97 ), #253 ) ;
#13 = EDGE_CURVE ( 'NONE', #290, #150, #32, .T. ) ;
#14 = AXIS2_PLACEMENT_3D ( 'NONE', #2, #119, #213 ) ;
#15 = ORIENTED_EDGE ( 'NONE', *, *, #225, .F. ) ;
#16 = APPROVAL_DATE_TIME ( #231, #219 ) ;
#17 = ORIENTED_EDGE ( 'NONE', *, *, #35, .F. ) ;
#18 = EDGE_CURVE ( 'NONE', #141, #201, #359, .T. ) ;
#19 = DIRECTION ( 'NONE',  ( 0.000000000000000000, 0.000000000000000000, 1.000000000000000000 ) ) ;
#20 = EDGE_LOOP ( 'NONE', ( #48, #227 ) ) ;
#21 = AXIS2_PLACEMENT_3D ( 'NONE', #272, #211, #59 ) ;
#22 = CIRCLE ( 'NONE', #62, 5.500000000000000000 ) ;
#23 = DATE_AND_TIME ( #200, #64 ) ;
#24 = EDGE_LOOP ( 'NONE', ( #316, #203, #140, #339 ) ) ;
#25 = VERTEX_POINT ( 'NONE', #149 ) ;
#26 = ADVANCED_FACE ( 'NONE', ( #235 ), #56, .T. ) ;
#27 = CARTESIAN_POINT ( 'NONE',  ( 5.000000000000000000, 6.123233995736766282E-16, 605.0000000000000000 ) ) ;
#28 = FACE_OUTER_BOUND ( 'NONE', #167, .T. ) ;
#29 = LOCAL_TIME ( 17, 3, 48.00000000000000000, #85 ) ;
#30 = DIRECTION ( 'NONE',  ( -0.000000000000000000, -0.000000000000000000, -1.000000000000000000 ) ) ;
#31 = DIRECTION ( 'NONE',  ( 1.000000000000000000, 0.000000000000000000, 0.000000000000000000 ) ) ;
#32 = CIRCLE ( 'NONE', #55, 5.000000000000000000 ) ;
#33 = DIRECTION ( 'NONE',  ( 1.000000000000000000, 0.000000000000000000, 0.000000000000000000 ) ) ;
#34 = FACE_OUTER_BOUND ( 'NONE', #321, .T. ) ;
#35 = EDGE_CURVE ( 'NONE', #150, #141, #3, .T. ) ;
#36 = PERSON_AND_ORGANIZATION_ROLE ( 'design_supplier' ) ;
#37 = CARTESIAN_POINT ( 'NONE',  ( 0.000000000000000000, 0.000000000000000000, 605.0000000000000000 ) ) ;
#38 = CARTESIAN_POINT ( 'NONE',  ( 5.500000000000000000, 0.000000000000000000, 5.499999999999949374 ) ) ;
#39 = FACE_BOUND ( 'NONE', #20, .T. ) ;
#40 = DIRECTION ( 'NONE',  ( 0.000000000000000000, 0.000000000000000000, -1.000000000000000000 ) ) ;
#41 = DIRECTION ( 'NONE',  ( 1.000000000000000000, 0.000000000000000000, 0.000000000000000000 ) ) ;
#42 = ORIENTED_EDGE ( 'NONE', *, *, #221, .F. ) ;
#43 = CIRCLE ( 'NONE', #134, 8.000000000000000000 ) ;
#44 = ORIENTED_EDGE ( 'NONE', *, *, #363, .F. ) ;
#45 = EDGE_CURVE ( 'NONE', #201, #141, #128, .T. ) ;
#46 = VERTEX_POINT ( 'NONE', #124 ) ;
#47 = EDGE_CURVE ( 'NONE', #25, #173, #121, .T. ) ;
#48 = ORIENTED_EDGE ( 'NONE', *, *, #191, .F. ) ;
#49 = AXIS2_PLACEMENT_3D ( 'NONE', #51, #371, #195 ) ;
#50 = EDGE_CURVE ( 'NONE', #141, #264, #163, .T. ) ;
#51 = CARTESIAN_POINT ( 'NONE',  ( 0.000000000000000000, 0.000000000000000000, 0.000000000000000000 ) ) ;
#52 = EDGE_LOOP ( 'NONE', ( #113, #137 ) ) ;
#53 = EDGE_CURVE ( 'NONE', #290, #201, #326, .T. ) ;
#54 = FACE_OUTER_BOUND ( 'NONE', #255, .T. ) ;
#55 = AXIS2_PLACEMENT_3D ( 'NONE', #353, #356, #31 ) ;
#56 = CYLINDRICAL_SURFACE ( 'NONE', #348, 8.000000000000000000 ) ;
#57 = CC_DESIGN_PERSON_AND_ORGANIZATION_ASSIGNMENT ( #342, #136, ( #251 ) ) ;
#58 = DIRECTION ( 'NONE',  ( -0.000000000000000000, -0.000000000000000000, -1.000000000000000000 ) ) ;
#59 = DIRECTION ( 'NONE',  ( -1.000000000000000000, 0.000000000000000000, 0.000000000000000000 ) ) ;
#60 = PERSON_AND_ORGANIZATION ( #71, #205 ) ;
#61 = CARTESIAN_POINT ( 'NONE',  ( -5.000000000000000000, 0.000000000000000000, 605.0000000000000000 ) ) ;
#62 = AXIS2_PLACEMENT_3D ( 'NONE', #153, #115, #351 ) ;
#63 = DESIGN_CONTEXT ( 'detailed design', #82, 'design' ) ;
#64 = LOCAL_TIME ( 17, 3, 48.00000000000000000, #112 ) ;
#65 = LINE ( 'NONE', #190, #320 ) ;
#66 = CC_DESIGN_PERSON_AND_ORGANIZATION_ASSIGNMENT ( #116, #379, ( #260 ) ) ;
#67 = CARTESIAN_POINT ( 'NONE',  ( 0.000000000000000000, 0.000000000000000000, 5.499999999999949374 ) ) ;
#68 = DIRECTION ( 'NONE',  ( 0.000000000000000000, 0.000000000000000000, 1.000000000000000000 ) ) ;
#69 = CIRCLE ( 'NONE', #266, 0.5000000000000004441 ) ;
#70 = DIRECTION ( 'NONE',  ( -0.000000000000000000, -0.000000000000000000, -1.000000000000000000 ) ) ;
#71 = PERSON ( 'NEURÈENÝ', 'NEURÈENÝ', 'NEURÈENÝ', ('NEURÈENÝ'), ('NEURÈENÝ'), ('NEURÈENÝ') ) ;
#72 = CARTESIAN_POINT ( 'NONE',  ( 0.000000000000000000, 0.000000000000000000, 0.000000000000000000 ) ) ;
#73 = ORIENTED_EDGE ( 'NONE', *, *, #75, .T. ) ;
#74 = DIRECTION ( 'NONE',  ( 1.000000000000000000, 0.000000000000000000, 0.000000000000000000 ) ) ;
#75 = EDGE_CURVE ( 'NONE', #233, #181, #373, .T. ) ;
#76 = ORIENTED_EDGE ( 'NONE', *, *, #191, .T. ) ;
#77 = MANIFOLD_SOLID_BREP ( 'Odebrat vysunutím3', #328 ) ;
#78 = ORIENTED_EDGE ( 'NONE', *, *, #50, .T. ) ;
#79 = PERSON_AND_ORGANIZATION_ROLE ( 'creator' ) ;
#80 = ORIENTED_EDGE ( 'NONE', *, *, #192, .T. ) ;
#81 = DATE_TIME_ROLE ( 'creation_date' ) ;
#82 = APPLICATION_CONTEXT ( 'configuration controlled 3d designs of mechanical parts and assemblies' ) ;
#83 = ORIENTED_EDGE ( 'NONE', *, *, #75, .F. ) ;
#84 = AXIS2_PLACEMENT_3D ( 'NONE', #102, #143, #340 ) ;
#85 = COORDINATED_UNIVERSAL_TIME_OFFSET ( 1, 0, .AHEAD. ) ;
#86 = FACE_BOUND ( 'NONE', #282, .T. ) ;
#87 = CARTESIAN_POINT ( 'NONE',  ( 0.000000000000000000, 0.000000000000000000, 5.000000000000000000 ) ) ;
#88 = DIRECTION ( 'NONE',  ( 0.000000000000000000, 0.000000000000000000, 1.000000000000000000 ) ) ;
#89 = DIRECTION ( 'NONE',  ( 1.224646799147353207E-16, 1.000000000000000000, -0.000000000000000000 ) ) ;
#90 = DIRECTION ( 'NONE',  ( 0.000000000000000000, 0.000000000000000000, 1.000000000000000000 ) ) ;
#91 = CALENDAR_DATE ( 2022, 8, 7 ) ;
#92 = ADVANCED_FACE ( 'NONE', ( #242 ), #324, .T. ) ;
#93 = PLANE ( 'NONE',  #281 ) ;
#94 = SECURITY_CLASSIFICATION_LEVEL ( 'unclassified' ) ;
#95 = CARTESIAN_POINT ( 'NONE',  ( 0.000000000000000000, 0.000000000000000000, 5.000000000000000000 ) ) ;
#96 = UNCERTAINTY_MEASURE_WITH_UNIT (LENGTH_MEASURE( 1.000000000000000082E-05 ), #315, 'distance_accuracy_value', 'NONE');
#97 = AXIS2_PLACEMENT_3D ( 'NONE', #308, #228, #172 ) ;
#98 = APPROVAL_ROLE ( '' ) ;
#99 = CARTESIAN_POINT ( 'NONE',  ( 2.750000000000000000, 3.367778697655221012E-16, 0.000000000000000000 ) ) ;
#100 = DIRECTION ( 'NONE',  ( 0.000000000000000000, 0.000000000000000000, -1.000000000000000000 ) ) ;
#101 = DIRECTION ( 'NONE',  ( -0.000000000000000000, -0.000000000000000000, -1.000000000000000000 ) ) ;
#102 = CARTESIAN_POINT ( 'NONE',  ( 0.000000000000000000, 0.000000000000000000, 605.0000000000000000 ) ) ;
#103 = PERSON_AND_ORGANIZATION ( #71, #205 ) ;
#104 = ORIENTED_EDGE ( 'NONE', *, *, #206, .T. ) ;
#105 = EDGE_CURVE ( 'NONE', #46, #297, #122, .T. ) ;
#106 = AXIS2_PLACEMENT_3D ( 'NONE', #381, #89, #208 ) ;
#107 = ORIENTED_EDGE ( 'NONE', *, *, #283, .F. ) ;
#108 = AXIS2_PLACEMENT_3D ( 'NONE', #303, #276, #366 ) ;
#109 = CC_DESIGN_APPROVAL ( #219, ( #236 ) ) ;
#110 = COORDINATED_UNIVERSAL_TIME_OFFSET ( 1, 0, .AHEAD. ) ;
#111 = EDGE_LOOP ( 'NONE', ( #285, #78, #107, #343 ) ) ;
#112 = COORDINATED_UNIVERSAL_TIME_OFFSET ( 1, 0, .AHEAD. ) ;
#113 = ORIENTED_EDGE ( 'NONE', *, *, #283, .T. ) ;
#114 = DATE_TIME_ROLE ( 'classification_date' ) ;
#115 = DIRECTION ( 'NONE',  ( -0.000000000000000000, -0.000000000000000000, -1.000000000000000000 ) ) ;
#116 = PERSON_AND_ORGANIZATION ( #71, #205 ) ;
#117 = CC_DESIGN_APPROVAL ( #1, ( #260 ) ) ;
#118 = DIRECTION ( 'NONE',  ( 0.000000000000000000, 0.000000000000000000, 1.000000000000000000 ) ) ;
#119 = DIRECTION ( 'NONE',  ( 0.000000000000000000, 0.000000000000000000, 1.000000000000000000 ) ) ;
#120 = EDGE_CURVE ( 'NONE', #264, #175, #22, .T. ) ;
#121 = LINE ( 'NONE', #240, #277 ) ;
#122 = CIRCLE ( 'NONE', #183, 2.750000000000000000 ) ;
#123 = AXIS2_PLACEMENT_3D ( 'NONE', #6, #333, #156 ) ;
#124 = CARTESIAN_POINT ( 'NONE',  ( 2.750000000000000000, 3.367778697655221012E-16, 605.0000000000000000 ) ) ;
#125 = DIRECTION ( 'NONE',  ( 0.000000000000000000, 0.000000000000000000, -1.000000000000000000 ) ) ;
#126 = ADVANCED_FACE ( 'NONE', ( #86, #54 ), #147, .F. ) ;
#127 = CARTESIAN_POINT ( 'NONE',  ( -2.750000000000000000, 0.000000000000000000, 0.000000000000000000 ) ) ;
#128 = CIRCLE ( 'NONE', #178, 5.000000000000000000 ) ;
#129 = CARTESIAN_POINT ( 'NONE',  ( 5.000000000000000000, 6.123233995736766282E-16, 5.499999999999949374 ) ) ;
#130 = LOCAL_TIME ( 17, 3, 48.00000000000000000, #188 ) ;
#131 = DIRECTION ( 'NONE',  ( 1.000000000000000000, 0.000000000000000000, 0.000000000000000000 ) ) ;
#132 = CARTESIAN_POINT ( 'NONE',  ( 5.000000000000000000, 6.123233995736766282E-16, 605.0000000000000000 ) ) ;
#133 = VECTOR ( 'NONE', #323, 1000.000000000000000 ) ;
#134 = AXIS2_PLACEMENT_3D ( 'NONE', #72, #168, #74 ) ;
#135 = ADVANCED_FACE ( 'NONE', ( #352 ), #241, .F. ) ;
#136 = PERSON_AND_ORGANIZATION_ROLE ( 'design_owner' ) ;
#137 = ORIENTED_EDGE ( 'NONE', *, *, #120, .T. ) ;
#138 = ADVANCED_FACE ( 'NONE', ( #28 ), #274, .F. ) ;
#139 =( NAMED_UNIT ( * ) SI_UNIT ( $, .STERADIAN. ) SOLID_ANGLE_UNIT ( ) );
#140 = ORIENTED_EDGE ( 'NONE', *, *, #35, .T. ) ;
#141 = VERTEX_POINT ( 'NONE', #307 ) ;
#142 = CIRCLE ( 'NONE', #108, 2.750000000000000000 ) ;
#143 = DIRECTION ( 'NONE',  ( 0.000000000000000000, 0.000000000000000000, -1.000000000000000000 ) ) ;
#144 = ORIENTED_EDGE ( 'NONE', *, *, #221, .T. ) ;
#145 = SHAPE_DEFINITION_REPRESENTATION ( #171, #12 ) ;
#146 = ORIENTED_EDGE ( 'NONE', *, *, #234, .F. ) ;
#147 = PLANE ( 'NONE',  #179 ) ;
#148 = AXIS2_PLACEMENT_3D ( 'NONE', #249, #334, #248 ) ;
#149 = CARTESIAN_POINT ( 'NONE',  ( -8.000000000000000000, 0.000000000000000000, 5.000000000000000000 ) ) ;
#150 = VERTEX_POINT ( 'NONE', #61 ) ;
#151 = CARTESIAN_POINT ( 'NONE',  ( 0.000000000000000000, 0.000000000000000000, 5.499999999999949374 ) ) ;
#152 = AXIS2_PLACEMENT_3D ( 'NONE', #216, #101, #11 ) ;
#153 = CARTESIAN_POINT ( 'NONE',  ( 0.000000000000000000, 0.000000000000000000, 5.000000000000000000 ) ) ;
#154 = CC_DESIGN_PERSON_AND_ORGANIZATION_ASSIGNMENT ( #60, #300, ( #247 ) ) ;
#155 = CALENDAR_DATE ( 2022, 8, 7 ) ;
#156 = DIRECTION ( 'NONE',  ( 1.000000000000000000, 0.000000000000000000, 0.000000000000000000 ) ) ;
#157 = AXIS2_PLACEMENT_3D ( 'NONE', #151, #88, #354 ) ;
#158 = FACE_OUTER_BOUND ( 'NONE', #232, .T. ) ;
#159 = CC_DESIGN_DATE_AND_TIME_ASSIGNMENT ( #8, #114, ( #260 ) ) ;
#160 = CARTESIAN_POINT ( 'NONE',  ( 0.000000000000000000, 0.000000000000000000, 5.000000000000000000 ) ) ;
#161 = DIRECTION ( 'NONE',  ( 0.000000000000000000, 0.000000000000000000, 1.000000000000000000 ) ) ;
#162 = ADVANCED_FACE ( 'NONE', ( #278 ), #250, .T. ) ;
#163 = CIRCLE ( 'NONE', #106, 0.5000000000000004441 ) ;
#164 =( NAMED_UNIT ( * ) PLANE_ANGLE_UNIT ( ) SI_UNIT ( $, .RADIAN. ) );
#165 = ORIENTED_EDGE ( 'NONE', *, *, #45, .F. ) ;
#166 = PRODUCT_RELATED_PRODUCT_CATEGORY ( 'detail', '', ( #251 ) ) ;
#167 = EDGE_LOOP ( 'NONE', ( #146, #194, #314, #73 ) ) ;
#168 = DIRECTION ( 'NONE',  ( 0.000000000000000000, 0.000000000000000000, 1.000000000000000000 ) ) ;
#169 = EDGE_LOOP ( 'NONE', ( #207, #165, #104, #257 ) ) ;
#170 = APPROVAL ( #261, 'NEURÈENÝ' ) ;
#171 = PRODUCT_DEFINITION_SHAPE ( 'NONE', 'NONE',  #236 ) ;
#172 = DIRECTION ( 'NONE',  ( 1.000000000000000000, 0.000000000000000000, 0.000000000000000000 ) ) ;
#173 = VERTEX_POINT ( 'NONE', #187 ) ;
#174 = TOROIDAL_SURFACE ( 'NONE', #5, 5.500000000000000000, 0.5000000000000000000 ) ;
#175 = VERTEX_POINT ( 'NONE', #244 ) ;
#176 = CARTESIAN_POINT ( 'NONE',  ( 0.000000000000000000, 0.000000000000000000, 0.000000000000000000 ) ) ;
#177 = CARTESIAN_POINT ( 'NONE',  ( 0.000000000000000000, 0.000000000000000000, 5.499999999999949374 ) ) ;
#178 = AXIS2_PLACEMENT_3D ( 'NONE', #177, #90, #296 ) ;
#179 = AXIS2_PLACEMENT_3D ( 'NONE', #265, #118, #238 ) ;
#180 = ORIENTED_EDGE ( 'NONE', *, *, #304, .F. ) ;
#181 = VERTEX_POINT ( 'NONE', #99 ) ;
#182 = CARTESIAN_POINT ( 'NONE',  ( 0.000000000000000000, 0.000000000000000000, 605.0000000000000000 ) ) ;
#183 = AXIS2_PLACEMENT_3D ( 'NONE', #182, #298, #33 ) ;
#184 = APPROVAL_ROLE ( '' ) ;
#185 = AXIS2_PLACEMENT_3D ( 'NONE', #37, #125, #329 ) ;
#186 = APPROVAL_PERSON_ORGANIZATION ( #212, #1, #184 ) ;
#187 = CARTESIAN_POINT ( 'NONE',  ( -8.000000000000000000, 0.000000000000000000, 0.000000000000000000 ) ) ;
#188 = COORDINATED_UNIVERSAL_TIME_OFFSET ( 1, 0, .AHEAD. ) ;
#189 = DIRECTION ( 'NONE',  ( 0.000000000000000000, 0.000000000000000000, 1.000000000000000000 ) ) ;
#190 = CARTESIAN_POINT ( 'NONE',  ( -2.750000000000000000, 0.000000000000000000, 605.0000000000000000 ) ) ;
#191 = EDGE_CURVE ( 'NONE', #297, #46, #142, .T. ) ;
#192 = EDGE_CURVE ( 'NONE', #345, #25, #325, .T. ) ;
#193 = CYLINDRICAL_SURFACE ( 'NONE', #152, 5.000000000000000000 ) ;
#194 = ORIENTED_EDGE ( 'NONE', *, *, #105, .T. ) ;
#195 = DIRECTION ( 'NONE',  ( 1.000000000000000000, 0.000000000000000000, 0.000000000000000000 ) ) ;
#196 = ORIENTED_EDGE ( 'NONE', *, *, #47, .F. ) ;
#197 = AXIS2_PLACEMENT_3D ( 'NONE', #226, #19, #311 ) ;
#198 = CARTESIAN_POINT ( 'NONE',  ( 8.000000000000000000, 9.797174393178825657E-16, 5.000000000000000000 ) ) ;
#199 = ORIENTED_EDGE ( 'NONE', *, *, #45, .T. ) ;
#200 = CALENDAR_DATE ( 2022, 8, 7 ) ;
#201 = VERTEX_POINT ( 'NONE', #129 ) ;
#202 = DIRECTION ( 'NONE',  ( 0.000000000000000000, 0.000000000000000000, 1.000000000000000000 ) ) ;
#203 = ORIENTED_EDGE ( 'NONE', *, *, #368, .F. ) ;
#204 = CIRCLE ( 'NONE', #270, 8.000000000000000000 ) ;
#205 = ORGANIZATION ( 'NEURÈENÝ', 'NEURÈENÝ', '' ) ;
#206 = EDGE_CURVE ( 'NONE', #201, #175, #69, .T. ) ;
#207 = ORIENTED_EDGE ( 'NONE', *, *, #50, .F. ) ;
#208 = DIRECTION ( 'NONE',  ( -1.000000000000000000, 1.224646799147351482E-16, 0.000000000000000000 ) ) ;
#209 = ADVANCED_FACE ( 'NONE', ( #34 ), #193, .T. ) ;
#210 = VERTEX_POINT ( 'NONE', #7 ) ;
#211 = DIRECTION ( 'NONE',  ( -0.000000000000000000, -0.000000000000000000, -1.000000000000000000 ) ) ;
#212 = PERSON_AND_ORGANIZATION ( #71, #205 ) ;
#213 = DIRECTION ( 'NONE',  ( 1.000000000000000000, 0.000000000000000000, 0.000000000000000000 ) ) ;
#214 = ADVANCED_FACE ( 'NONE', ( #10, #218 ), #222, .T. ) ;
#215 = CC_DESIGN_SECURITY_CLASSIFICATION ( #260, ( #247 ) ) ;
#216 = CARTESIAN_POINT ( 'NONE',  ( 0.000000000000000000, 0.000000000000000000, 605.0000000000000000 ) ) ;
#217 = COORDINATED_UNIVERSAL_TIME_OFFSET ( 1, 0, .AHEAD. ) ;
#218 = FACE_OUTER_BOUND ( 'NONE', #287, .T. ) ;
#219 = APPROVAL ( #230, 'NEURÈENÝ' ) ;
#220 = FACE_OUTER_BOUND ( 'NONE', #169, .T. ) ;
#221 = EDGE_CURVE ( 'NONE', #25, #345, #330, .T. ) ;
#222 = PLANE ( 'NONE',  #362 ) ;
#223 = CIRCLE ( 'NONE', #350, 5.500000000000000000 ) ;
#224 = LOCAL_TIME ( 17, 3, 48.00000000000000000, #110 ) ;
#225 = EDGE_CURVE ( 'NONE', #297, #233, #65, .T. ) ;
#226 = CARTESIAN_POINT ( 'NONE',  ( 0.000000000000000000, 0.000000000000000000, 605.0000000000000000 ) ) ;
#227 = ORIENTED_EDGE ( 'NONE', *, *, #105, .F. ) ;
#228 = DIRECTION ( 'NONE',  ( 0.000000000000000000, 0.000000000000000000, 1.000000000000000000 ) ) ;
#229 = ORIENTED_EDGE ( 'NONE', *, *, #192, .F. ) ;
#230 = APPROVAL_STATUS ( 'not_yet_approved' ) ;
#231 = DATE_AND_TIME ( #369, #224 ) ;
#232 = EDGE_LOOP ( 'NONE', ( #370, #292 ) ) ;
#233 = VERTEX_POINT ( 'NONE', #127 ) ;
#234 = EDGE_CURVE ( 'NONE', #46, #181, #305, .T. ) ;
#235 = FACE_OUTER_BOUND ( 'NONE', #259, .T. ) ;
#236 = PRODUCT_DEFINITION ( 'NEZNÁMÝ', '', #247, #63 ) ;
#237 = APPROVAL_DATE_TIME ( #273, #1 ) ;
#238 = DIRECTION ( 'NONE',  ( 1.000000000000000000, 0.000000000000000000, -0.000000000000000000 ) ) ;
#239 = ORIENTED_EDGE ( 'NONE', *, *, #234, .T. ) ;
#240 = CARTESIAN_POINT ( 'NONE',  ( -8.000000000000000000, 0.000000000000000000, 5.000000000000000000 ) ) ;
#241 = TOROIDAL_SURFACE ( 'NONE', #14, 5.500000000000000000, 0.5000000000000000000 ) ;
#242 = FACE_OUTER_BOUND ( 'NONE', #24, .T. ) ;
#243 = DIRECTION ( 'NONE',  ( 0.000000000000000000, 0.000000000000000000, -1.000000000000000000 ) ) ;
#244 = CARTESIAN_POINT ( 'NONE',  ( 5.500000000000000000, 0.000000000000000000, 4.999999999999975131 ) ) ;
#245 = VECTOR ( 'NONE', #30, 1000.000000000000000 ) ;
#246 = CALENDAR_DATE ( 2022, 8, 7 ) ;
#247 = PRODUCT_DEFINITION_FORMATION_WITH_SPECIFIED_SOURCE ( 'LIBOVOLNÝ', '', #251, .NOT_KNOWN. ) ;
#248 = DIRECTION ( 'NONE',  ( -1.000000000000000000, 0.000000000000000000, 0.000000000000000000 ) ) ;
#249 = CARTESIAN_POINT ( 'NONE',  ( 0.000000000000000000, 0.000000000000000000, 5.000000000000000000 ) ) ;
#250 = CYLINDRICAL_SURFACE ( 'NONE', #148, 8.000000000000000000 ) ;
#251 = PRODUCT ( '5e1f', '5e1f', '', ( #344 ) ) ;
#252 = PERSON_AND_ORGANIZATION ( #71, #205 ) ;
#253 =( GEOMETRIC_REPRESENTATION_CONTEXT ( 3 ) GLOBAL_UNCERTAINTY_ASSIGNED_CONTEXT ( ( #96 ) ) GLOBAL_UNIT_ASSIGNED_CONTEXT ( ( #315, #164, #139 ) ) REPRESENTATION_CONTEXT ( 'NONE', 'WORKASPACE' ) );
#254 = PERSON_AND_ORGANIZATION ( #71, #205 ) ;
#255 = EDGE_LOOP ( 'NONE', ( #180, #44 ) ) ;
#256 = DIRECTION ( 'NONE',  ( -0.000000000000000000, -0.000000000000000000, -1.000000000000000000 ) ) ;
#257 = ORIENTED_EDGE ( 'NONE', *, *, #120, .F. ) ;
#258 = APPROVAL_ROLE ( '' ) ;
#259 = EDGE_LOOP ( 'NONE', ( #229, #318, #374, #196 ) ) ;
#260 = SECURITY_CLASSIFICATION ( '', '', #94 ) ;
#261 = APPROVAL_STATUS ( 'not_yet_approved' ) ;
#262 = ORIENTED_EDGE ( 'NONE', *, *, #13, .F. ) ;
#263 = ADVANCED_FACE ( 'NONE', ( #220 ), #174, .F. ) ;
#264 = VERTEX_POINT ( 'NONE', #337 ) ;
#265 = CARTESIAN_POINT ( 'NONE',  ( 0.000000000000000000, 0.000000000000000000, 0.000000000000000000 ) ) ;
#266 = AXIS2_PLACEMENT_3D ( 'NONE', #38, #301, #40 ) ;
#267 = DIRECTION ( 'NONE',  ( -0.000000000000000000, -0.000000000000000000, -1.000000000000000000 ) ) ;
#268 = DIRECTION ( 'NONE',  ( -1.000000000000000000, 0.000000000000000000, 0.000000000000000000 ) ) ;
#269 = CARTESIAN_POINT ( 'NONE',  ( -5.000000000000000000, 0.000000000000000000, 605.0000000000000000 ) ) ;
#270 = AXIS2_PLACEMENT_3D ( 'NONE', #286, #202, #41 ) ;
#271 = APPROVAL_PERSON_ORGANIZATION ( #252, #170, #98 ) ;
#272 = CARTESIAN_POINT ( 'NONE',  ( 0.000000000000000000, 0.000000000000000000, 605.0000000000000000 ) ) ;
#273 = DATE_AND_TIME ( #155, #29 ) ;
#274 = CYLINDRICAL_SURFACE ( 'NONE', #185, 2.750000000000000000 ) ;
#275 = CC_DESIGN_PERSON_AND_ORGANIZATION_ASSIGNMENT ( #332, #36, ( #247 ) ) ;
#276 = DIRECTION ( 'NONE',  ( 0.000000000000000000, 0.000000000000000000, 1.000000000000000000 ) ) ;
#277 = VECTOR ( 'NONE', #293, 1000.000000000000000 ) ;
#278 = FACE_OUTER_BOUND ( 'NONE', #372, .T. ) ;
#279 = DIRECTION ( 'NONE',  ( 1.000000000000000000, 0.000000000000000000, 0.000000000000000000 ) ) ;
#280 = LINE ( 'NONE', #198, #312 ) ;
#281 = AXIS2_PLACEMENT_3D ( 'NONE', #331, #189, #9 ) ;
#282 = EDGE_LOOP ( 'NONE', ( #83, #375 ) ) ;
#283 = EDGE_CURVE ( 'NONE', #175, #264, #223, .T. ) ;
#284 = APPLICATION_PROTOCOL_DEFINITION ( 'international standard', 'config_control_design', 1994, #361 ) ;
#285 = ORIENTED_EDGE ( 'NONE', *, *, #18, .F. ) ;
#286 = CARTESIAN_POINT ( 'NONE',  ( 0.000000000000000000, 0.000000000000000000, 0.000000000000000000 ) ) ;
#287 = EDGE_LOOP ( 'NONE', ( #144, #80 ) ) ;
#288 = ADVANCED_FACE ( 'NONE', ( #39, #158 ), #93, .T. ) ;
#289 = CYLINDRICAL_SURFACE ( 'NONE', #84, 2.750000000000000000 ) ;
#290 = VERTEX_POINT ( 'NONE', #132 ) ;
#291 = EDGE_CURVE ( 'NONE', #345, #210, #280, .T. ) ;
#292 = ORIENTED_EDGE ( 'NONE', *, *, #13, .T. ) ;
#293 = DIRECTION ( 'NONE',  ( -0.000000000000000000, -0.000000000000000000, -1.000000000000000000 ) ) ;
#294 = DIRECTION ( 'NONE',  ( 1.000000000000000000, 0.000000000000000000, 0.000000000000000000 ) ) ;
#295 = LOCAL_TIME ( 17, 3, 48.00000000000000000, #217 ) ;
#296 = DIRECTION ( 'NONE',  ( 1.000000000000000000, 0.000000000000000000, 0.000000000000000000 ) ) ;
#297 = VERTEX_POINT ( 'NONE', #367 ) ;
#298 = DIRECTION ( 'NONE',  ( 0.000000000000000000, 0.000000000000000000, 1.000000000000000000 ) ) ;
#299 = CIRCLE ( 'NONE', #197, 5.000000000000000000 ) ;
#300 = PERSON_AND_ORGANIZATION_ROLE ( 'creator' ) ;
#301 = DIRECTION ( 'NONE',  ( 0.000000000000000000, -1.000000000000000000, 0.000000000000000000 ) ) ;
#302 = EDGE_CURVE ( 'NONE', #181, #233, #380, .T. ) ;
#303 = CARTESIAN_POINT ( 'NONE',  ( 0.000000000000000000, 0.000000000000000000, 605.0000000000000000 ) ) ;
#304 = EDGE_CURVE ( 'NONE', #173, #210, #204, .T. ) ;
#305 = LINE ( 'NONE', #360, #335 ) ;
#306 = DIRECTION ( 'NONE',  ( 0.000000000000000000, 0.000000000000000000, 1.000000000000000000 ) ) ;
#307 = CARTESIAN_POINT ( 'NONE',  ( -5.000000000000000000, 0.000000000000000000, 5.499999999999949374 ) ) ;
#308 = CARTESIAN_POINT ( 'NONE',  ( 0.000000000000000000, 0.000000000000000000, 0.000000000000000000 ) ) ;
#309 = ADVANCED_FACE ( 'NONE', ( #338 ), #289, .F. ) ;
#310 = ORIENTED_EDGE ( 'NONE', *, *, #53, .T. ) ;
#311 = DIRECTION ( 'NONE',  ( 1.000000000000000000, 0.000000000000000000, 0.000000000000000000 ) ) ;
#312 = VECTOR ( 'NONE', #256, 1000.000000000000000 ) ;
#313 = CC_DESIGN_APPROVAL ( #170, ( #247 ) ) ;
#314 = ORIENTED_EDGE ( 'NONE', *, *, #225, .T. ) ;
#315 =( LENGTH_UNIT ( ) NAMED_UNIT ( * ) SI_UNIT ( .MILLI., .METRE. ) );
#316 = ORIENTED_EDGE ( 'NONE', *, *, #53, .F. ) ;
#317 = CARTESIAN_POINT ( 'NONE',  ( 8.000000000000000000, 9.797174393178825657E-16, 5.000000000000000000 ) ) ;
#318 = ORIENTED_EDGE ( 'NONE', *, *, #291, .T. ) ;
#319 = CC_DESIGN_PERSON_AND_ORGANIZATION_ASSIGNMENT ( #103, #79, ( #236 ) ) ;
#320 = VECTOR ( 'NONE', #243, 1000.000000000000000 ) ;
#321 = EDGE_LOOP ( 'NONE', ( #262, #310, #199, #17 ) ) ;
#322 = ORIENTED_EDGE ( 'NONE', *, *, #304, .T. ) ;
#323 = DIRECTION ( 'NONE',  ( -0.000000000000000000, -0.000000000000000000, -1.000000000000000000 ) ) ;
#324 = CYLINDRICAL_SURFACE ( 'NONE', #21, 5.000000000000000000 ) ;
#325 = CIRCLE ( 'NONE', #355, 8.000000000000000000 ) ;
#326 = LINE ( 'NONE', #27, #133 ) ;
#327 = APPROVAL_DATE_TIME ( #376, #170 ) ;
#328 = CLOSED_SHELL ( 'NONE', ( #309, #135, #209, #26, #162, #214, #126, #92, #288, #263, #138 ) ) ;
#329 = DIRECTION ( 'NONE',  ( -1.000000000000000000, 0.000000000000000000, 0.000000000000000000 ) ) ;
#330 = CIRCLE ( 'NONE', #123, 8.000000000000000000 ) ;
#331 = CARTESIAN_POINT ( 'NONE',  ( 0.000000000000000000, 0.000000000000000000, 605.0000000000000000 ) ) ;
#332 = PERSON_AND_ORGANIZATION ( #71, #205 ) ;
#333 = DIRECTION ( 'NONE',  ( 0.000000000000000000, 0.000000000000000000, 1.000000000000000000 ) ) ;
#334 = DIRECTION ( 'NONE',  ( -0.000000000000000000, -0.000000000000000000, -1.000000000000000000 ) ) ;
#335 = VECTOR ( 'NONE', #100, 1000.000000000000000 ) ;
#336 = APPROVAL_PERSON_ORGANIZATION ( #254, #219, #258 ) ;
#337 = CARTESIAN_POINT ( 'NONE',  ( -5.500000000000000000, 6.735557395310442023E-16, 4.999999999999975131 ) ) ;
#338 = FACE_OUTER_BOUND ( 'NONE', #347, .T. ) ;
#339 = ORIENTED_EDGE ( 'NONE', *, *, #18, .T. ) ;
#340 = DIRECTION ( 'NONE',  ( -1.000000000000000000, 0.000000000000000000, 0.000000000000000000 ) ) ;
#341 = ORIENTED_EDGE ( 'NONE', *, *, #302, .T. ) ;
#342 = PERSON_AND_ORGANIZATION ( #71, #205 ) ;
#343 = ORIENTED_EDGE ( 'NONE', *, *, #206, .F. ) ;
#344 = MECHANICAL_CONTEXT ( 'NONE', #361, 'mechanical' ) ;
#345 = VERTEX_POINT ( 'NONE', #317 ) ;
#346 = APPLICATION_PROTOCOL_DEFINITION ( 'international standard', 'config_control_design', 1994, #82 ) ;
#347 = EDGE_LOOP ( 'NONE', ( #76, #239, #341, #15 ) ) ;
#348 = AXIS2_PLACEMENT_3D ( 'NONE', #87, #267, #268 ) ;
#349 = APPROVAL_STATUS ( 'not_yet_approved' ) ;
#350 = AXIS2_PLACEMENT_3D ( 'NONE', #95, #70, #358 ) ;
#351 = DIRECTION ( 'NONE',  ( 1.000000000000000000, 0.000000000000000000, 0.000000000000000000 ) ) ;
#352 = FACE_OUTER_BOUND ( 'NONE', #111, .T. ) ;
#353 = CARTESIAN_POINT ( 'NONE',  ( 0.000000000000000000, 0.000000000000000000, 605.0000000000000000 ) ) ;
#354 = DIRECTION ( 'NONE',  ( 1.000000000000000000, 0.000000000000000000, 0.000000000000000000 ) ) ;
#355 = AXIS2_PLACEMENT_3D ( 'NONE', #160, #161, #279 ) ;
#356 = DIRECTION ( 'NONE',  ( 0.000000000000000000, 0.000000000000000000, 1.000000000000000000 ) ) ;
#357 = CC_DESIGN_DATE_AND_TIME_ASSIGNMENT ( #23, #81, ( #236 ) ) ;
#358 = DIRECTION ( 'NONE',  ( 1.000000000000000000, 0.000000000000000000, 0.000000000000000000 ) ) ;
#359 = CIRCLE ( 'NONE', #157, 5.000000000000000000 ) ;
#360 = CARTESIAN_POINT ( 'NONE',  ( 2.750000000000000000, 3.367778697655221012E-16, 605.0000000000000000 ) ) ;
#361 = APPLICATION_CONTEXT ( 'configuration controlled 3d designs of mechanical parts and assemblies' ) ;
#362 = AXIS2_PLACEMENT_3D ( 'NONE', #365, #68, #364 ) ;
#363 = EDGE_CURVE ( 'NONE', #210, #173, #43, .T. ) ;
#364 = DIRECTION ( 'NONE',  ( 1.000000000000000000, 0.000000000000000000, -0.000000000000000000 ) ) ;
#365 = CARTESIAN_POINT ( 'NONE',  ( 0.000000000000000000, 0.000000000000000000, 5.000000000000000000 ) ) ;
#366 = DIRECTION ( 'NONE',  ( 1.000000000000000000, 0.000000000000000000, 0.000000000000000000 ) ) ;
#367 = CARTESIAN_POINT ( 'NONE',  ( -2.750000000000000000, 0.000000000000000000, 605.0000000000000000 ) ) ;
#368 = EDGE_CURVE ( 'NONE', #150, #290, #299, .T. ) ;
#369 = CALENDAR_DATE ( 2022, 8, 7 ) ;
#370 = ORIENTED_EDGE ( 'NONE', *, *, #368, .T. ) ;
#371 = DIRECTION ( 'NONE',  ( -0.000000000000000000, -0.000000000000000000, -1.000000000000000000 ) ) ;
#372 = EDGE_LOOP ( 'NONE', ( #377, #42, #4, #322 ) ) ;
#373 = CIRCLE ( 'NONE', #378, 2.750000000000000000 ) ;
#374 = ORIENTED_EDGE ( 'NONE', *, *, #363, .T. ) ;
#375 = ORIENTED_EDGE ( 'NONE', *, *, #302, .F. ) ;
#376 = DATE_AND_TIME ( #91, #295 ) ;
#377 = ORIENTED_EDGE ( 'NONE', *, *, #291, .F. ) ;
#378 = AXIS2_PLACEMENT_3D ( 'NONE', #176, #58, #294 ) ;
#379 = PERSON_AND_ORGANIZATION_ROLE ( 'classification_officer' ) ;
#380 = CIRCLE ( 'NONE', #49, 2.750000000000000000 ) ;
#381 = CARTESIAN_POINT ( 'NONE',  ( -5.500000000000000000, 6.735557395310442023E-16, 5.499999999999949374 ) ) ;
ENDSEC;
END-ISO-10303-21;
