ISO-10303-21;
HEADER;
FILE_DESCRIPTION (( 'STEP AP203' ),
    '1' );
FILE_NAME ('fa96.STEP',
    '2022-07-08T14:30:12',
    ( '' ),
    ( '' ),
    'SwSTEP 2.0',
    'SolidWorks 2019',
    '' );
FILE_SCHEMA (( 'CONFIG_CONTROL_DESIGN' ));
ENDSEC;

DATA;
#1 = DIRECTION ( 'NONE',  ( -1.000000000000000000, 0.000000000000000000, 0.000000000000000000 ) ) ;
#2 = SECURITY_CLASSIFICATION_LEVEL ( 'unclassified' ) ;
#3 = CARTESIAN_POINT ( 'NONE',  ( 0.000000000000000000, 0.000000000000000000, 0.000000000000000000 ) ) ;
#4 = CARTESIAN_POINT ( 'NONE',  ( 0.000000000000000000, 0.000000000000000000, 7.000000000000000000 ) ) ;
#5 = CIRCLE ( 'NONE', #265, 10.00000000000000000 ) ;
#6 = AXIS2_PLACEMENT_3D ( 'NONE', #345, #78, #48 ) ;
#7 = CARTESIAN_POINT ( 'NONE',  ( 10.00000000000000000, 1.224646799147353256E-15, 7.000000000000000000 ) ) ;
#8 = COORDINATED_UNIVERSAL_TIME_OFFSET ( 1, 0, .AHEAD. ) ;
#9 = FACE_OUTER_BOUND ( 'NONE', #40, .T. ) ;
#10 = DATE_AND_TIME ( #99, #368 ) ;
#11 = DIRECTION ( 'NONE',  ( 0.000000000000000000, 0.000000000000000000, -1.000000000000000000 ) ) ;
#12 = VERTEX_POINT ( 'NONE', #183 ) ;
#13 = CARTESIAN_POINT ( 'NONE',  ( -10.00000000000000000, 0.000000000000000000, 7.000000000000000000 ) ) ;
#14 = EDGE_CURVE ( 'NONE', #60, #337, #211, .T. ) ;
#15 =( GEOMETRIC_REPRESENTATION_CONTEXT ( 3 ) GLOBAL_UNCERTAINTY_ASSIGNED_CONTEXT ( ( #169 ) ) GLOBAL_UNIT_ASSIGNED_CONTEXT ( ( #138, #124, #266 ) ) REPRESENTATION_CONTEXT ( 'NONE', 'WORKASPACE' ) );
#16 = CARTESIAN_POINT ( 'NONE',  ( 0.000000000000000000, 0.000000000000000000, 0.000000000000000000 ) ) ;
#17 = ORIENTED_EDGE ( 'NONE', *, *, #171, .T. ) ;
#18 = DIRECTION ( 'NONE',  ( 1.000000000000000000, 0.000000000000000000, 0.000000000000000000 ) ) ;
#19 = EDGE_CURVE ( 'NONE', #341, #376, #351, .T. ) ;
#20 = EDGE_LOOP ( 'NONE', ( #361, #373 ) ) ;
#21 = ORIENTED_EDGE ( 'NONE', *, *, #116, .F. ) ;
#22 = COORDINATED_UNIVERSAL_TIME_OFFSET ( 1, 0, .AHEAD. ) ;
#23 = ORIENTED_EDGE ( 'NONE', *, *, #14, .F. ) ;
#24 = DIRECTION ( 'NONE',  ( -0.000000000000000000, -0.000000000000000000, -1.000000000000000000 ) ) ;
#25 = PERSON_AND_ORGANIZATION_ROLE ( 'creator' ) ;
#26 = PRODUCT_DEFINITION ( 'NEZNÁMÝ', '', #149, #252 ) ;
#27 = DIRECTION ( 'NONE',  ( 0.000000000000000000, 0.000000000000000000, -1.000000000000000000 ) ) ;
#28 = CYLINDRICAL_SURFACE ( 'NONE', #77, 10.00000000000000000 ) ;
#29 = APPLICATION_PROTOCOL_DEFINITION ( 'international standard', 'config_control_design', 1994, #55 ) ;
#30 = ORIENTED_EDGE ( 'NONE', *, *, #223, .T. ) ;
#31 = PERSON_AND_ORGANIZATION_ROLE ( 'design_owner' ) ;
#32 = FACE_OUTER_BOUND ( 'NONE', #290, .T. ) ;
#33 = DATE_TIME_ROLE ( 'classification_date' ) ;
#34 = CIRCLE ( 'NONE', #163, 10.00000000000000000 ) ;
#35 = FACE_OUTER_BOUND ( 'NONE', #228, .T. ) ;
#36 = AXIS2_PLACEMENT_3D ( 'NONE', #174, #287, #18 ) ;
#37 = CYLINDRICAL_SURFACE ( 'NONE', #72, 4.250000000000000000 ) ;
#38 = PLANE ( 'NONE',  #66 ) ;
#39 = DIRECTION ( 'NONE',  ( 0.000000000000000000, 0.000000000000000000, -1.000000000000000000 ) ) ;
#40 = EDGE_LOOP ( 'NONE', ( #109, #344 ) ) ;
#41 = PERSON_AND_ORGANIZATION_ROLE ( 'classification_officer' ) ;
#42 = AXIS2_PLACEMENT_3D ( 'NONE', #334, #43, #129 ) ;
#43 = DIRECTION ( 'NONE',  ( -0.000000000000000000, -0.000000000000000000, -1.000000000000000000 ) ) ;
#44 = DIRECTION ( 'NONE',  ( 1.000000000000000000, 0.000000000000000000, 0.000000000000000000 ) ) ;
#45 = APPROVAL ( #131, 'NEURÈENÝ' ) ;
#46 = CARTESIAN_POINT ( 'NONE',  ( 0.000000000000000000, 0.000000000000000000, 407.0000000000000000 ) ) ;
#47 = DIRECTION ( 'NONE',  ( 1.000000000000000000, 0.000000000000000000, 0.000000000000000000 ) ) ;
#48 = DIRECTION ( 'NONE',  ( 1.000000000000000000, 0.000000000000000000, -0.000000000000000000 ) ) ;
#49 = ORIENTED_EDGE ( 'NONE', *, *, #288, .T. ) ;
#50 = DIRECTION ( 'NONE',  ( 0.000000000000000000, 0.000000000000000000, -1.000000000000000000 ) ) ;
#51 = ORIENTED_EDGE ( 'NONE', *, *, #19, .F. ) ;
#52 = VECTOR ( 'NONE', #212, 1000.000000000000000 ) ;
#53 = ORIENTED_EDGE ( 'NONE', *, *, #116, .T. ) ;
#54 = APPROVAL_PERSON_ORGANIZATION ( #293, #210, #301 ) ;
#55 = APPLICATION_CONTEXT ( 'configuration controlled 3d designs of mechanical parts and assemblies' ) ;
#56 = ORIENTED_EDGE ( 'NONE', *, *, #271, .T. ) ;
#57 = EDGE_CURVE ( 'NONE', #142, #181, #365, .T. ) ;
#58 = CARTESIAN_POINT ( 'NONE',  ( 6.000000000000000888, 7.347880794884120722E-16, 407.0000000000000000 ) ) ;
#59 = DIRECTION ( 'NONE',  ( 0.000000000000000000, 0.000000000000000000, 1.000000000000000000 ) ) ;
#60 = VERTEX_POINT ( 'NONE', #241 ) ;
#61 = TOROIDAL_SURFACE ( 'NONE', #119, 6.700000000000001066, 0.6999999999999999556 ) ;
#62 = APPROVAL_ROLE ( '' ) ;
#63 = ADVANCED_FACE ( 'NONE', ( #64, #35 ), #294, .F. ) ;
#64 = FACE_BOUND ( 'NONE', #132, .T. ) ;
#65 = DIRECTION ( 'NONE',  ( -0.000000000000000000, -0.000000000000000000, -1.000000000000000000 ) ) ;
#66 = AXIS2_PLACEMENT_3D ( 'NONE', #161, #256, #343 ) ;
#67 = DIRECTION ( 'NONE',  ( 0.000000000000000000, -1.000000000000000000, 0.000000000000000000 ) ) ;
#68 = APPROVAL ( #272, 'NEURÈENÝ' ) ;
#69 = PERSON ( 'NEURÈENÝ', 'NEURÈENÝ', 'NEURÈENÝ', ('NEURÈENÝ'), ('NEURÈENÝ'), ('NEURÈENÝ') ) ;
#70 = MANIFOLD_SOLID_BREP ( 'Odebrat vysunutím3', #378 ) ;
#71 = ORIENTED_EDGE ( 'NONE', *, *, #316, .F. ) ;
#72 = AXIS2_PLACEMENT_3D ( 'NONE', #217, #158, #367 ) ;
#73 = DIRECTION ( 'NONE',  ( -0.000000000000000000, -0.000000000000000000, -1.000000000000000000 ) ) ;
#74 = CYLINDRICAL_SURFACE ( 'NONE', #304, 4.250000000000000000 ) ;
#75 = CARTESIAN_POINT ( 'NONE',  ( 0.000000000000000000, 0.000000000000000000, 7.000000000000000000 ) ) ;
#76 = DIRECTION ( 'NONE',  ( 1.000000000000000000, 0.000000000000000000, 0.000000000000000000 ) ) ;
#77 = AXIS2_PLACEMENT_3D ( 'NONE', #4, #150, #1 ) ;
#78 = DIRECTION ( 'NONE',  ( 0.000000000000000000, 0.000000000000000000, 1.000000000000000000 ) ) ;
#79 = AXIS2_PLACEMENT_3D ( 'NONE', #312, #370, #338 ) ;
#80 = CC_DESIGN_SECURITY_CLASSIFICATION ( #360, ( #149 ) ) ;
#81 = ORIENTED_EDGE ( 'NONE', *, *, #307, .F. ) ;
#82 = CARTESIAN_POINT ( 'NONE',  ( 6.700000000000001066, 0.000000000000000000, 6.999999999999992006 ) ) ;
#83 = LINE ( 'NONE', #177, #291 ) ;
#84 = EDGE_LOOP ( 'NONE', ( #222, #281, #230, #248 ) ) ;
#85 = CARTESIAN_POINT ( 'NONE',  ( 4.250000000000000000, 5.204748896376250699E-16, 407.0000000000000000 ) ) ;
#86 = VERTEX_POINT ( 'NONE', #264 ) ;
#87 = AXIS2_PLACEMENT_3D ( 'NONE', #187, #98, #302 ) ;
#88 = COORDINATED_UNIVERSAL_TIME_OFFSET ( 1, 0, .AHEAD. ) ;
#89 = EDGE_CURVE ( 'NONE', #337, #12, #208, .T. ) ;
#90 = ORIENTED_EDGE ( 'NONE', *, *, #57, .T. ) ;
#91 = CC_DESIGN_APPROVAL ( #68, ( #149 ) ) ;
#92 = PERSON_AND_ORGANIZATION ( #69, #180 ) ;
#93 = CARTESIAN_POINT ( 'NONE',  ( 0.000000000000000000, 0.000000000000000000, 7.000000000000000000 ) ) ;
#94 = EDGE_CURVE ( 'NONE', #341, #379, #34, .T. ) ;
#95 = CALENDAR_DATE ( 2022, 8, 7 ) ;
#96 = LINE ( 'NONE', #58, #310 ) ;
#97 = AXIS2_PLACEMENT_3D ( 'NONE', #227, #170, #342 ) ;
#98 = DIRECTION ( 'NONE',  ( 0.000000000000000000, 0.000000000000000000, 1.000000000000000000 ) ) ;
#99 = CALENDAR_DATE ( 2022, 8, 7 ) ;
#100 = ORIENTED_EDGE ( 'NONE', *, *, #276, .T. ) ;
#101 = CC_DESIGN_PERSON_AND_ORGANIZATION_ASSIGNMENT ( #121, #31, ( #308 ) ) ;
#102 = CARTESIAN_POINT ( 'NONE',  ( 4.250000000000000000, 5.204748896376250699E-16, 0.000000000000000000 ) ) ;
#103 = ORIENTED_EDGE ( 'NONE', *, *, #171, .F. ) ;
#104 = DIRECTION ( 'NONE',  ( -1.000000000000000000, 0.000000000000000000, 0.000000000000000000 ) ) ;
#105 = DIRECTION ( 'NONE',  ( 0.000000000000000000, 0.000000000000000000, 1.000000000000000000 ) ) ;
#106 = APPROVAL_PERSON_ORGANIZATION ( #159, #45, #246 ) ;
#107 = DIRECTION ( 'NONE',  ( 0.000000000000000000, 0.000000000000000000, 1.000000000000000000 ) ) ;
#108 = FACE_OUTER_BOUND ( 'NONE', #20, .T. ) ;
#109 = ORIENTED_EDGE ( 'NONE', *, *, #151, .T. ) ;
#110 = AXIS2_PLACEMENT_3D ( 'NONE', #127, #65, #353 ) ;
#111 = DIRECTION ( 'NONE',  ( 1.000000000000000000, 0.000000000000000000, 0.000000000000000000 ) ) ;
#112 = CIRCLE ( 'NONE', #79, 4.250000000000000000 ) ;
#113 = ORIENTED_EDGE ( 'NONE', *, *, #336, .T. ) ;
#114 = DIRECTION ( 'NONE',  ( 0.000000000000000000, 0.000000000000000000, 1.000000000000000000 ) ) ;
#115 = ORIENTED_EDGE ( 'NONE', *, *, #292, .T. ) ;
#116 = EDGE_CURVE ( 'NONE', #181, #142, #263, .T. ) ;
#117 = VERTEX_POINT ( 'NONE', #350 ) ;
#118 = APPROVAL_DATE_TIME ( #380, #68 ) ;
#119 = AXIS2_PLACEMENT_3D ( 'NONE', #162, #278, #44 ) ;
#120 = CARTESIAN_POINT ( 'NONE',  ( -6.000000000000000888, 0.000000000000000000, 407.0000000000000000 ) ) ;
#121 = PERSON_AND_ORGANIZATION ( #69, #180 ) ;
#122 = APPROVAL_DATE_TIME ( #232, #210 ) ;
#123 = FACE_OUTER_BOUND ( 'NONE', #199, .T. ) ;
#124 =( NAMED_UNIT ( * ) PLANE_ANGLE_UNIT ( ) SI_UNIT ( $, .RADIAN. ) );
#125 = CARTESIAN_POINT ( 'NONE',  ( 0.000000000000000000, 0.000000000000000000, 7.699999999999985079 ) ) ;
#126 = COORDINATED_UNIVERSAL_TIME_OFFSET ( 1, 0, .AHEAD. ) ;
#127 = CARTESIAN_POINT ( 'NONE',  ( 0.000000000000000000, 0.000000000000000000, 0.000000000000000000 ) ) ;
#128 = EDGE_CURVE ( 'NONE', #209, #218, #96, .T. ) ;
#129 = DIRECTION ( 'NONE',  ( -1.000000000000000000, 0.000000000000000000, 0.000000000000000000 ) ) ;
#130 = FACE_OUTER_BOUND ( 'NONE', #322, .T. ) ;
#131 = APPROVAL_STATUS ( 'not_yet_approved' ) ;
#132 = EDGE_LOOP ( 'NONE', ( #300, #21 ) ) ;
#133 = CARTESIAN_POINT ( 'NONE',  ( -4.250000000000000000, 0.000000000000000000, 407.0000000000000000 ) ) ;
#134 = CIRCLE ( 'NONE', #279, 4.250000000000000000 ) ;
#135 = ADVANCED_FACE ( 'NONE', ( #123 ), #251, .F. ) ;
#136 = ORIENTED_EDGE ( 'NONE', *, *, #276, .F. ) ;
#137 = ORIENTED_EDGE ( 'NONE', *, *, #238, .T. ) ;
#138 =( LENGTH_UNIT ( ) NAMED_UNIT ( * ) SI_UNIT ( .MILLI., .METRE. ) );
#139 = EDGE_LOOP ( 'NONE', ( #285, #152, #215, #136 ) ) ;
#140 = CC_DESIGN_PERSON_AND_ORGANIZATION_ASSIGNMENT ( #329, #41, ( #360 ) ) ;
#141 = PERSON_AND_ORGANIZATION ( #69, #180 ) ;
#142 = VERTEX_POINT ( 'NONE', #324 ) ;
#143 = ADVANCED_BREP_SHAPE_REPRESENTATION ( 'fa96', ( #70, #274 ), #15 ) ;
#144 = PERSON_AND_ORGANIZATION_ROLE ( 'creator' ) ;
#145 = CARTESIAN_POINT ( 'NONE',  ( 0.000000000000000000, 0.000000000000000000, 0.000000000000000000 ) ) ;
#146 = CIRCLE ( 'NONE', #198, 10.00000000000000000 ) ;
#147 = PERSON_AND_ORGANIZATION ( #69, #180 ) ;
#148 = FACE_OUTER_BOUND ( 'NONE', #178, .T. ) ;
#149 = PRODUCT_DEFINITION_FORMATION_WITH_SPECIFIED_SOURCE ( 'LIBOVOLNÝ', '', #308, .NOT_KNOWN. ) ;
#150 = DIRECTION ( 'NONE',  ( -0.000000000000000000, -0.000000000000000000, -1.000000000000000000 ) ) ;
#151 = EDGE_CURVE ( 'NONE', #379, #341, #146, .T. ) ;
#152 = ORIENTED_EDGE ( 'NONE', *, *, #19, .T. ) ;
#153 = ORIENTED_EDGE ( 'NONE', *, *, #151, .F. ) ;
#154 = VECTOR ( 'NONE', #24, 1000.000000000000000 ) ;
#155 = DIRECTION ( 'NONE',  ( 1.000000000000000000, 0.000000000000000000, 0.000000000000000000 ) ) ;
#156 = ADVANCED_FACE ( 'NONE', ( #32 ), #28, .T. ) ;
#157 = CYLINDRICAL_SURFACE ( 'NONE', #42, 6.000000000000000888 ) ;
#158 = DIRECTION ( 'NONE',  ( 0.000000000000000000, 0.000000000000000000, -1.000000000000000000 ) ) ;
#159 = PERSON_AND_ORGANIZATION ( #69, #180 ) ;
#160 = FACE_OUTER_BOUND ( 'NONE', #84, .T. ) ;
#161 = CARTESIAN_POINT ( 'NONE',  ( 0.000000000000000000, 0.000000000000000000, 7.000000000000000000 ) ) ;
#162 = CARTESIAN_POINT ( 'NONE',  ( 0.000000000000000000, 0.000000000000000000, 7.699999999999985079 ) ) ;
#163 = AXIS2_PLACEMENT_3D ( 'NONE', #93, #188, #270 ) ;
#164 = PRODUCT_RELATED_PRODUCT_CATEGORY ( 'detail', '', ( #308 ) ) ;
#165 = CARTESIAN_POINT ( 'NONE',  ( 6.000000000000000888, 7.347880794884120722E-16, 7.699999999999985079 ) ) ;
#166 = LOCAL_TIME ( 16, 30, 12.00000000000000000, #88 ) ;
#167 = ORIENTED_EDGE ( 'NONE', *, *, #223, .F. ) ;
#168 = CARTESIAN_POINT ( 'NONE',  ( 0.000000000000000000, 0.000000000000000000, 407.0000000000000000 ) ) ;
#169 = UNCERTAINTY_MEASURE_WITH_UNIT (LENGTH_MEASURE( 1.000000000000000082E-05 ), #138, 'distance_accuracy_value', 'NONE');
#170 = DIRECTION ( 'NONE',  ( 0.000000000000000000, 0.000000000000000000, 1.000000000000000000 ) ) ;
#171 = EDGE_CURVE ( 'NONE', #218, #337, #242, .T. ) ;
#172 = DIRECTION ( 'NONE',  ( -0.000000000000000000, -0.000000000000000000, -1.000000000000000000 ) ) ;
#173 = ORIENTED_EDGE ( 'NONE', *, *, #321, .F. ) ;
#174 = CARTESIAN_POINT ( 'NONE',  ( 0.000000000000000000, 0.000000000000000000, 407.0000000000000000 ) ) ;
#175 = ORIENTED_EDGE ( 'NONE', *, *, #369, .T. ) ;
#176 = CARTESIAN_POINT ( 'NONE',  ( -10.00000000000000000, 0.000000000000000000, 7.000000000000000000 ) ) ;
#177 = CARTESIAN_POINT ( 'NONE',  ( -4.250000000000000000, 0.000000000000000000, 407.0000000000000000 ) ) ;
#178 = EDGE_LOOP ( 'NONE', ( #226, #260, #315, #115 ) ) ;
#179 = CIRCLE ( 'NONE', #185, 0.7000000000000000666 ) ;
#180 = ORGANIZATION ( 'NEURÈENÝ', 'NEURÈENÝ', '' ) ;
#181 = VERTEX_POINT ( 'NONE', #102 ) ;
#182 = PERSON_AND_ORGANIZATION ( #69, #180 ) ;
#183 = CARTESIAN_POINT ( 'NONE',  ( -6.700000000000001066, 8.205133554287267548E-16, 6.999999999999992006 ) ) ;
#184 = CARTESIAN_POINT ( 'NONE',  ( 0.000000000000000000, 0.000000000000000000, 0.000000000000000000 ) ) ;
#185 = AXIS2_PLACEMENT_3D ( 'NONE', #192, #67, #39 ) ;
#186 = DIRECTION ( 'NONE',  ( 1.224646799147353207E-16, 1.000000000000000000, -0.000000000000000000 ) ) ;
#187 = CARTESIAN_POINT ( 'NONE',  ( 0.000000000000000000, 0.000000000000000000, 7.699999999999985079 ) ) ;
#188 = DIRECTION ( 'NONE',  ( 0.000000000000000000, 0.000000000000000000, 1.000000000000000000 ) ) ;
#189 = CC_DESIGN_PERSON_AND_ORGANIZATION_ASSIGNMENT ( #147, #235, ( #149 ) ) ;
#190 = AXIS2_PLACEMENT_3D ( 'NONE', #355, #186, #236 ) ;
#191 = AXIS2_PLACEMENT_3D ( 'NONE', #125, #330, #155 ) ;
#192 = CARTESIAN_POINT ( 'NONE',  ( 6.700000000000001066, 0.000000000000000000, 7.699999999999985079 ) ) ;
#193 = FACE_BOUND ( 'NONE', #323, .T. ) ;
#194 = DIRECTION ( 'NONE',  ( -1.000000000000000000, 0.000000000000000000, 0.000000000000000000 ) ) ;
#195 = CARTESIAN_POINT ( 'NONE',  ( 10.00000000000000000, 1.224646799147353256E-15, 7.000000000000000000 ) ) ;
#196 = ADVANCED_FACE ( 'NONE', ( #364 ), #74, .F. ) ;
#197 = CARTESIAN_POINT ( 'NONE',  ( 0.000000000000000000, 0.000000000000000000, 7.000000000000000000 ) ) ;
#198 = AXIS2_PLACEMENT_3D ( 'NONE', #296, #273, #328 ) ;
#199 = EDGE_LOOP ( 'NONE', ( #205, #103, #137, #173 ) ) ;
#200 = CIRCLE ( 'NONE', #354, 6.700000000000001066 ) ;
#201 = ORIENTED_EDGE ( 'NONE', *, *, #128, .T. ) ;
#202 = LINE ( 'NONE', #85, #240 ) ;
#203 = CC_DESIGN_DATE_AND_TIME_ASSIGNMENT ( #261, #347, ( #26 ) ) ;
#204 = APPLICATION_CONTEXT ( 'configuration controlled 3d designs of mechanical parts and assemblies' ) ;
#205 = ORIENTED_EDGE ( 'NONE', *, *, #89, .F. ) ;
#206 = CARTESIAN_POINT ( 'NONE',  ( 10.00000000000000000, 1.224646799147353256E-15, 0.000000000000000000 ) ) ;
#207 = ORIENTED_EDGE ( 'NONE', *, *, #288, .F. ) ;
#208 = CIRCLE ( 'NONE', #190, 0.7000000000000000666 ) ;
#209 = VERTEX_POINT ( 'NONE', #309 ) ;
#210 = APPROVAL ( #239, 'NEURÈENÝ' ) ;
#211 = LINE ( 'NONE', #120, #154 ) ;
#212 = DIRECTION ( 'NONE',  ( -0.000000000000000000, -0.000000000000000000, -1.000000000000000000 ) ) ;
#213 = MECHANICAL_CONTEXT ( 'NONE', #204, 'mechanical' ) ;
#214 = ADVANCED_FACE ( 'NONE', ( #306 ), #331, .T. ) ;
#215 = ORIENTED_EDGE ( 'NONE', *, *, #307, .T. ) ;
#216 = ADVANCED_FACE ( 'NONE', ( #130 ), #37, .F. ) ;
#217 = CARTESIAN_POINT ( 'NONE',  ( 0.000000000000000000, 0.000000000000000000, 407.0000000000000000 ) ) ;
#218 = VERTEX_POINT ( 'NONE', #165 ) ;
#219 = ADVANCED_FACE ( 'NONE', ( #193, #9 ), #38, .T. ) ;
#220 = DIRECTION ( 'NONE',  ( 1.000000000000000000, 0.000000000000000000, 0.000000000000000000 ) ) ;
#221 = PLANE ( 'NONE',  #6 ) ;
#222 = ORIENTED_EDGE ( 'NONE', *, *, #292, .F. ) ;
#223 = EDGE_CURVE ( 'NONE', #289, #142, #83, .T. ) ;
#224 = CC_DESIGN_APPROVAL ( #45, ( #360 ) ) ;
#225 = DIRECTION ( 'NONE',  ( 1.000000000000000000, 0.000000000000000000, 0.000000000000000000 ) ) ;
#226 = ORIENTED_EDGE ( 'NONE', *, *, #128, .F. ) ;
#227 = CARTESIAN_POINT ( 'NONE',  ( 0.000000000000000000, 0.000000000000000000, 407.0000000000000000 ) ) ;
#228 = EDGE_LOOP ( 'NONE', ( #207, #81 ) ) ;
#229 = DIRECTION ( 'NONE',  ( 1.000000000000000000, 0.000000000000000000, 0.000000000000000000 ) ) ;
#230 = ORIENTED_EDGE ( 'NONE', *, *, #336, .F. ) ;
#231 = AXIS2_PLACEMENT_3D ( 'NONE', #335, #280, #104 ) ;
#232 = DATE_AND_TIME ( #95, #327 ) ;
#233 = ADVANCED_FACE ( 'NONE', ( #148 ), #157, .T. ) ;
#234 = DIRECTION ( 'NONE',  ( -0.000000000000000000, -0.000000000000000000, -1.000000000000000000 ) ) ;
#235 = PERSON_AND_ORGANIZATION_ROLE ( 'design_supplier' ) ;
#236 = DIRECTION ( 'NONE',  ( -1.000000000000000000, 1.224646799147353454E-16, 0.000000000000000000 ) ) ;
#237 = DIRECTION ( 'NONE',  ( 1.000000000000000000, 0.000000000000000000, -0.000000000000000000 ) ) ;
#238 = EDGE_CURVE ( 'NONE', #218, #357, #179, .T. ) ;
#239 = APPROVAL_STATUS ( 'not_yet_approved' ) ;
#240 = VECTOR ( 'NONE', #50, 1000.000000000000000 ) ;
#241 = CARTESIAN_POINT ( 'NONE',  ( -6.000000000000000888, 0.000000000000000000, 407.0000000000000000 ) ) ;
#242 = CIRCLE ( 'NONE', #191, 6.000000000000000888 ) ;
#243 = CALENDAR_DATE ( 2022, 8, 7 ) ;
#244 = CIRCLE ( 'NONE', #311, 6.000000000000000888 ) ;
#245 = CC_DESIGN_PERSON_AND_ORGANIZATION_ASSIGNMENT ( #92, #25, ( #149 ) ) ;
#246 = APPROVAL_ROLE ( '' ) ;
#247 = FACE_OUTER_BOUND ( 'NONE', #371, .T. ) ;
#248 = ORIENTED_EDGE ( 'NONE', *, *, #238, .F. ) ;
#249 = ADVANCED_FACE ( 'NONE', ( #160 ), #61, .F. ) ;
#250 = DIRECTION ( 'NONE',  ( 0.000000000000000000, 0.000000000000000000, 1.000000000000000000 ) ) ;
#251 = TOROIDAL_SURFACE ( 'NONE', #87, 6.700000000000001066, 0.6999999999999999556 ) ;
#252 = DESIGN_CONTEXT ( 'detailed design', #55, 'design' ) ;
#253 = CARTESIAN_POINT ( 'NONE',  ( 0.000000000000000000, 0.000000000000000000, 7.699999999999985079 ) ) ;
#254 = CARTESIAN_POINT ( 'NONE',  ( -6.000000000000000888, 0.000000000000000000, 7.699999999999985079 ) ) ;
#255 = ORIENTED_EDGE ( 'NONE', *, *, #316, .T. ) ;
#256 = DIRECTION ( 'NONE',  ( 0.000000000000000000, 0.000000000000000000, 1.000000000000000000 ) ) ;
#257 = ORIENTED_EDGE ( 'NONE', *, *, #271, .F. ) ;
#258 = AXIS2_PLACEMENT_3D ( 'NONE', #363, #73, #194 ) ;
#259 = CIRCLE ( 'NONE', #36, 6.000000000000000888 ) ;
#260 = ORIENTED_EDGE ( 'NONE', *, *, #356, .F. ) ;
#261 = DATE_AND_TIME ( #295, #305 ) ;
#262 = ADVANCED_FACE ( 'NONE', ( #247 ), #277, .T. ) ;
#263 = CIRCLE ( 'NONE', #313, 4.250000000000000000 ) ;
#264 = CARTESIAN_POINT ( 'NONE',  ( 4.250000000000000000, 5.204748896376250699E-16, 407.0000000000000000 ) ) ;
#265 = AXIS2_PLACEMENT_3D ( 'NONE', #314, #250, #76 ) ;
#266 =( NAMED_UNIT ( * ) SI_UNIT ( $, .STERADIAN. ) SOLID_ANGLE_UNIT ( ) );
#267 = CC_DESIGN_APPROVAL ( #210, ( #26 ) ) ;
#268 = DIRECTION ( 'NONE',  ( 0.000000000000000000, 0.000000000000000000, 1.000000000000000000 ) ) ;
#269 = APPLICATION_PROTOCOL_DEFINITION ( 'international standard', 'config_control_design', 1994, #204 ) ;
#270 = DIRECTION ( 'NONE',  ( 1.000000000000000000, 0.000000000000000000, 0.000000000000000000 ) ) ;
#271 = EDGE_CURVE ( 'NONE', #289, #86, #134, .T. ) ;
#272 = APPROVAL_STATUS ( 'not_yet_approved' ) ;
#273 = DIRECTION ( 'NONE',  ( 0.000000000000000000, 0.000000000000000000, 1.000000000000000000 ) ) ;
#274 = AXIS2_PLACEMENT_3D ( 'NONE', #184, #59, #229 ) ;
#275 = EDGE_LOOP ( 'NONE', ( #56, #175, #53, #167 ) ) ;
#276 = EDGE_CURVE ( 'NONE', #379, #117, #318, .T. ) ;
#277 = CYLINDRICAL_SURFACE ( 'NONE', #258, 6.000000000000000888 ) ;
#278 = DIRECTION ( 'NONE',  ( 0.000000000000000000, 0.000000000000000000, 1.000000000000000000 ) ) ;
#279 = AXIS2_PLACEMENT_3D ( 'NONE', #46, #105, #372 ) ;
#280 = DIRECTION ( 'NONE',  ( -0.000000000000000000, -0.000000000000000000, -1.000000000000000000 ) ) ;
#281 = ORIENTED_EDGE ( 'NONE', *, *, #89, .T. ) ;
#282 = DATE_AND_TIME ( #243, #284 ) ;
#283 = VECTOR ( 'NONE', #374, 1000.000000000000000 ) ;
#284 = LOCAL_TIME ( 16, 30, 12.00000000000000000, #8 ) ;
#285 = ORIENTED_EDGE ( 'NONE', *, *, #94, .F. ) ;
#286 = PRODUCT_DEFINITION_SHAPE ( 'NONE', 'NONE',  #26 ) ;
#287 = DIRECTION ( 'NONE',  ( 0.000000000000000000, 0.000000000000000000, 1.000000000000000000 ) ) ;
#288 = EDGE_CURVE ( 'NONE', #117, #376, #333, .T. ) ;
#289 = VERTEX_POINT ( 'NONE', #133 ) ;
#290 = EDGE_LOOP ( 'NONE', ( #51, #153, #100, #49 ) ) ;
#291 = VECTOR ( 'NONE', #27, 1000.000000000000000 ) ;
#292 = EDGE_CURVE ( 'NONE', #337, #218, #244, .T. ) ;
#293 = PERSON_AND_ORGANIZATION ( #69, #180 ) ;
#294 = PLANE ( 'NONE',  #340 ) ;
#295 = CALENDAR_DATE ( 2022, 8, 7 ) ;
#296 = CARTESIAN_POINT ( 'NONE',  ( 0.000000000000000000, 0.000000000000000000, 7.000000000000000000 ) ) ;
#297 = CIRCLE ( 'NONE', #366, 6.700000000000001066 ) ;
#298 = COORDINATED_UNIVERSAL_TIME_OFFSET ( 1, 0, .AHEAD. ) ;
#299 = APPROVAL_PERSON_ORGANIZATION ( #141, #68, #62 ) ;
#300 = ORIENTED_EDGE ( 'NONE', *, *, #57, .F. ) ;
#301 = APPROVAL_ROLE ( '' ) ;
#302 = DIRECTION ( 'NONE',  ( 1.000000000000000000, 0.000000000000000000, 0.000000000000000000 ) ) ;
#303 = DIRECTION ( 'NONE',  ( -0.000000000000000000, -0.000000000000000000, -1.000000000000000000 ) ) ;
#304 = AXIS2_PLACEMENT_3D ( 'NONE', #168, #11, #358 ) ;
#305 = LOCAL_TIME ( 16, 30, 12.00000000000000000, #22 ) ;
#306 = FACE_OUTER_BOUND ( 'NONE', #139, .T. ) ;
#307 = EDGE_CURVE ( 'NONE', #376, #117, #5, .T. ) ;
#308 = PRODUCT ( 'fa96', 'fa96', '', ( #213 ) ) ;
#309 = CARTESIAN_POINT ( 'NONE',  ( 6.000000000000000888, 7.347880794884120722E-16, 407.0000000000000000 ) ) ;
#310 = VECTOR ( 'NONE', #303, 1000.000000000000000 ) ;
#311 = AXIS2_PLACEMENT_3D ( 'NONE', #253, #107, #111 ) ;
#312 = CARTESIAN_POINT ( 'NONE',  ( 0.000000000000000000, 0.000000000000000000, 407.0000000000000000 ) ) ;
#313 = AXIS2_PLACEMENT_3D ( 'NONE', #3, #234, #325 ) ;
#314 = CARTESIAN_POINT ( 'NONE',  ( 0.000000000000000000, 0.000000000000000000, 0.000000000000000000 ) ) ;
#315 = ORIENTED_EDGE ( 'NONE', *, *, #14, .T. ) ;
#316 = EDGE_CURVE ( 'NONE', #86, #289, #112, .T. ) ;
#317 = FACE_BOUND ( 'NONE', #346, .T. ) ;
#318 = LINE ( 'NONE', #13, #283 ) ;
#319 = ORIENTED_EDGE ( 'NONE', *, *, #369, .F. ) ;
#320 = DIRECTION ( 'NONE',  ( -0.000000000000000000, -0.000000000000000000, -1.000000000000000000 ) ) ;
#321 = EDGE_CURVE ( 'NONE', #12, #357, #297, .T. ) ;
#322 = EDGE_LOOP ( 'NONE', ( #319, #255, #30, #90 ) ) ;
#323 = EDGE_LOOP ( 'NONE', ( #113, #375 ) ) ;
#324 = CARTESIAN_POINT ( 'NONE',  ( -4.250000000000000000, 0.000000000000000000, 0.000000000000000000 ) ) ;
#325 = DIRECTION ( 'NONE',  ( 1.000000000000000000, 0.000000000000000000, 0.000000000000000000 ) ) ;
#326 = CIRCLE ( 'NONE', #97, 6.000000000000000888 ) ;
#327 = LOCAL_TIME ( 16, 30, 12.00000000000000000, #298 ) ;
#328 = DIRECTION ( 'NONE',  ( 1.000000000000000000, 0.000000000000000000, 0.000000000000000000 ) ) ;
#329 = PERSON_AND_ORGANIZATION ( #69, #180 ) ;
#330 = DIRECTION ( 'NONE',  ( 0.000000000000000000, 0.000000000000000000, 1.000000000000000000 ) ) ;
#331 = CYLINDRICAL_SURFACE ( 'NONE', #231, 10.00000000000000000 ) ;
#332 = EDGE_CURVE ( 'NONE', #209, #60, #326, .T. ) ;
#333 = CIRCLE ( 'NONE', #349, 10.00000000000000000 ) ;
#334 = CARTESIAN_POINT ( 'NONE',  ( 0.000000000000000000, 0.000000000000000000, 407.0000000000000000 ) ) ;
#335 = CARTESIAN_POINT ( 'NONE',  ( 0.000000000000000000, 0.000000000000000000, 7.000000000000000000 ) ) ;
#336 = EDGE_CURVE ( 'NONE', #357, #12, #200, .T. ) ;
#337 = VERTEX_POINT ( 'NONE', #254 ) ;
#338 = DIRECTION ( 'NONE',  ( 1.000000000000000000, 0.000000000000000000, 0.000000000000000000 ) ) ;
#339 = CC_DESIGN_PERSON_AND_ORGANIZATION_ASSIGNMENT ( #182, #144, ( #26 ) ) ;
#340 = AXIS2_PLACEMENT_3D ( 'NONE', #145, #268, #237 ) ;
#341 = VERTEX_POINT ( 'NONE', #195 ) ;
#342 = DIRECTION ( 'NONE',  ( 1.000000000000000000, 0.000000000000000000, 0.000000000000000000 ) ) ;
#343 = DIRECTION ( 'NONE',  ( 1.000000000000000000, 0.000000000000000000, -0.000000000000000000 ) ) ;
#344 = ORIENTED_EDGE ( 'NONE', *, *, #94, .T. ) ;
#345 = CARTESIAN_POINT ( 'NONE',  ( 0.000000000000000000, 0.000000000000000000, 407.0000000000000000 ) ) ;
#346 = EDGE_LOOP ( 'NONE', ( #257, #71 ) ) ;
#347 = DATE_TIME_ROLE ( 'creation_date' ) ;
#348 = ORIENTED_EDGE ( 'NONE', *, *, #332, .F. ) ;
#349 = AXIS2_PLACEMENT_3D ( 'NONE', #16, #114, #47 ) ;
#350 = CARTESIAN_POINT ( 'NONE',  ( -10.00000000000000000, 0.000000000000000000, 0.000000000000000000 ) ) ;
#351 = LINE ( 'NONE', #7, #52 ) ;
#352 = ADVANCED_FACE ( 'NONE', ( #317, #108 ), #221, .T. ) ;
#353 = DIRECTION ( 'NONE',  ( 1.000000000000000000, 0.000000000000000000, 0.000000000000000000 ) ) ;
#354 = AXIS2_PLACEMENT_3D ( 'NONE', #197, #172, #225 ) ;
#355 = CARTESIAN_POINT ( 'NONE',  ( -6.700000000000001066, 8.205133554287267548E-16, 7.699999999999985079 ) ) ;
#356 = EDGE_CURVE ( 'NONE', #60, #209, #259, .T. ) ;
#357 = VERTEX_POINT ( 'NONE', #82 ) ;
#358 = DIRECTION ( 'NONE',  ( -1.000000000000000000, 0.000000000000000000, 0.000000000000000000 ) ) ;
#359 = SHAPE_DEFINITION_REPRESENTATION ( #286, #143 ) ;
#360 = SECURITY_CLASSIFICATION ( '', '', #2 ) ;
#361 = ORIENTED_EDGE ( 'NONE', *, *, #356, .T. ) ;
#362 = APPROVAL_DATE_TIME ( #282, #45 ) ;
#363 = CARTESIAN_POINT ( 'NONE',  ( 0.000000000000000000, 0.000000000000000000, 407.0000000000000000 ) ) ;
#364 = FACE_OUTER_BOUND ( 'NONE', #275, .T. ) ;
#365 = CIRCLE ( 'NONE', #110, 4.250000000000000000 ) ;
#366 = AXIS2_PLACEMENT_3D ( 'NONE', #75, #320, #220 ) ;
#367 = DIRECTION ( 'NONE',  ( -1.000000000000000000, 0.000000000000000000, 0.000000000000000000 ) ) ;
#368 = LOCAL_TIME ( 16, 30, 12.00000000000000000, #126 ) ;
#369 = EDGE_CURVE ( 'NONE', #86, #181, #202, .T. ) ;
#370 = DIRECTION ( 'NONE',  ( 0.000000000000000000, 0.000000000000000000, 1.000000000000000000 ) ) ;
#371 = EDGE_LOOP ( 'NONE', ( #348, #201, #17, #23 ) ) ;
#372 = DIRECTION ( 'NONE',  ( 1.000000000000000000, 0.000000000000000000, 0.000000000000000000 ) ) ;
#373 = ORIENTED_EDGE ( 'NONE', *, *, #332, .T. ) ;
#374 = DIRECTION ( 'NONE',  ( -0.000000000000000000, -0.000000000000000000, -1.000000000000000000 ) ) ;
#375 = ORIENTED_EDGE ( 'NONE', *, *, #321, .T. ) ;
#376 = VERTEX_POINT ( 'NONE', #206 ) ;
#377 = CALENDAR_DATE ( 2022, 8, 7 ) ;
#378 = CLOSED_SHELL ( 'NONE', ( #196, #249, #262, #214, #156, #219, #63, #233, #352, #135, #216 ) ) ;
#379 = VERTEX_POINT ( 'NONE', #176 ) ;
#380 = DATE_AND_TIME ( #377, #166 ) ;
#381 = CC_DESIGN_DATE_AND_TIME_ASSIGNMENT ( #10, #33, ( #360 ) ) ;
ENDSEC;
END-ISO-10303-21;
