ISO-10303-21;
HEADER;
FILE_DESCRIPTION (( 'STEP AP203' ),
    '1' );
FILE_NAME ('1813.STEP',
    '2022-07-08T15:24:18',
    ( '' ),
    ( '' ),
    'SwSTEP 2.0',
    'SolidWorks 2019',
    '' );
FILE_SCHEMA (( 'CONFIG_CONTROL_DESIGN' ));
ENDSEC;

DATA;
#1 = LOCAL_TIME ( 17, 24, 18.00000000000000000, #375 ) ;
#2 = DIRECTION ( 'NONE',  ( 0.000000000000000000, 0.000000000000000000, 1.000000000000000000 ) ) ;
#3 = DIRECTION ( 'NONE',  ( 0.000000000000000000, 0.000000000000000000, -1.000000000000000000 ) ) ;
#4 = CARTESIAN_POINT ( 'NONE',  ( 0.000000000000000000, 0.000000000000000000, 5.000000000000000000 ) ) ;
#5 = EDGE_CURVE ( 'NONE', #283, #49, #57, .T. ) ;
#6 = CARTESIAN_POINT ( 'NONE',  ( 0.000000000000000000, 0.000000000000000000, 5.000000000000000000 ) ) ;
#7 = CIRCLE ( 'NONE', #299, 4.000000000000000000 ) ;
#8 = AXIS2_PLACEMENT_3D ( 'NONE', #268, #2, #212 ) ;
#9 = ORIENTED_EDGE ( 'NONE', *, *, #93, .T. ) ;
#10 = DIRECTION ( 'NONE',  ( -0.000000000000000000, -0.000000000000000000, -1.000000000000000000 ) ) ;
#11 = ADVANCED_FACE ( 'NONE', ( #378 ), #24, .F. ) ;
#12 = ORIENTED_EDGE ( 'NONE', *, *, #34, .T. ) ;
#13 = AXIS2_PLACEMENT_3D ( 'NONE', #92, #65, #178 ) ;
#14 = EDGE_LOOP ( 'NONE', ( #261, #21, #366, #108 ) ) ;
#15 = APPROVAL ( #81, 'NEURÈENÝ' ) ;
#16 = ORIENTED_EDGE ( 'NONE', *, *, #271, .F. ) ;
#17 = PERSON_AND_ORGANIZATION ( #226, #355 ) ;
#18 = EDGE_LOOP ( 'NONE', ( #191, #288, #77, #100 ) ) ;
#19 = LOCAL_TIME ( 17, 24, 18.00000000000000000, #372 ) ;
#20 = PERSON_AND_ORGANIZATION_ROLE ( 'creator' ) ;
#21 = ORIENTED_EDGE ( 'NONE', *, *, #97, .F. ) ;
#22 = SHAPE_DEFINITION_REPRESENTATION ( #248, #380 ) ;
#23 = FACE_OUTER_BOUND ( 'NONE', #153, .T. ) ;
#24 = TOROIDAL_SURFACE ( 'NONE', #105, 4.500000000000000888, 0.5000000000000000000 ) ;
#25 = DIRECTION ( 'NONE',  ( 0.000000000000000000, 0.000000000000000000, 1.000000000000000000 ) ) ;
#26 = APPROVAL_PERSON_ORGANIZATION ( #17, #40, #137 ) ;
#27 = VERTEX_POINT ( 'NONE', #265 ) ;
#28 = EDGE_CURVE ( 'NONE', #249, #27, #363, .T. ) ;
#29 = DIRECTION ( 'NONE',  ( -1.000000000000000000, 0.000000000000000000, 0.000000000000000000 ) ) ;
#30 = DIRECTION ( 'NONE',  ( 0.000000000000000000, 0.000000000000000000, 1.000000000000000000 ) ) ;
#31 = CIRCLE ( 'NONE', #152, 0.5000000000000004441 ) ;
#32 = DIRECTION ( 'NONE',  ( 0.000000000000000000, 0.000000000000000000, 1.000000000000000000 ) ) ;
#33 = CARTESIAN_POINT ( 'NONE',  ( -4.000000000000000000, 0.000000000000000000, 5.500000000000005329 ) ) ;
#34 = EDGE_CURVE ( 'NONE', #262, #294, #35, .T. ) ;
#35 = CIRCLE ( 'NONE', #64, 2.250000000000000000 ) ;
#36 = CARTESIAN_POINT ( 'NONE',  ( 0.000000000000000000, 0.000000000000000000, 180.0000000000000000 ) ) ;
#37 = DIRECTION ( 'NONE',  ( -0.000000000000000000, -0.000000000000000000, -1.000000000000000000 ) ) ;
#38 = ORIENTED_EDGE ( 'NONE', *, *, #309, .F. ) ;
#39 = CC_DESIGN_APPROVAL ( #379, ( #43 ) ) ;
#40 = APPROVAL ( #341, 'NEURÈENÝ' ) ;
#41 = ORIENTED_EDGE ( 'NONE', *, *, #260, .F. ) ;
#42 = DIRECTION ( 'NONE',  ( 0.000000000000000000, 0.000000000000000000, -1.000000000000000000 ) ) ;
#43 = PRODUCT_DEFINITION ( 'NEZNÁMÝ', '', #367, #179 ) ;
#44 = EDGE_LOOP ( 'NONE', ( #9, #369 ) ) ;
#45 = CIRCLE ( 'NONE', #125, 7.000000000000000000 ) ;
#46 = CIRCLE ( 'NONE', #13, 7.000000000000000000 ) ;
#47 = DIRECTION ( 'NONE',  ( -1.000000000000000000, 0.000000000000000000, 0.000000000000000000 ) ) ;
#48 = ORIENTED_EDGE ( 'NONE', *, *, #34, .F. ) ;
#49 = VERTEX_POINT ( 'NONE', #112 ) ;
#50 = ORIENTED_EDGE ( 'NONE', *, *, #66, .T. ) ;
#51 = CC_DESIGN_APPROVAL ( #40, ( #193 ) ) ;
#52 = EDGE_CURVE ( 'NONE', #219, #132, #286, .T. ) ;
#53 = COORDINATED_UNIVERSAL_TIME_OFFSET ( 1, 0, .AHEAD. ) ;
#54 = DIRECTION ( 'NONE',  ( 1.000000000000000000, 0.000000000000000000, 0.000000000000000000 ) ) ;
#55 = DATE_TIME_ROLE ( 'creation_date' ) ;
#56 = CARTESIAN_POINT ( 'NONE',  ( 0.000000000000000000, 0.000000000000000000, 180.0000000000000000 ) ) ;
#57 = CIRCLE ( 'NONE', #207, 2.250000000000000000 ) ;
#58 = PERSON_AND_ORGANIZATION_ROLE ( 'classification_officer' ) ;
#59 = CARTESIAN_POINT ( 'NONE',  ( 0.000000000000000000, 0.000000000000000000, 5.000000000000000000 ) ) ;
#60 = PRODUCT_RELATED_PRODUCT_CATEGORY ( 'detail', '', ( #183 ) ) ;
#61 = LOCAL_TIME ( 17, 24, 18.00000000000000000, #53 ) ;
#62 = DIRECTION ( 'NONE',  ( 0.000000000000000000, 0.000000000000000000, 1.000000000000000000 ) ) ;
#63 = CARTESIAN_POINT ( 'NONE',  ( 0.000000000000000000, 0.000000000000000000, 180.0000000000000000 ) ) ;
#64 = AXIS2_PLACEMENT_3D ( 'NONE', #201, #199, #135 ) ;
#65 = DIRECTION ( 'NONE',  ( 0.000000000000000000, 0.000000000000000000, 1.000000000000000000 ) ) ;
#66 = EDGE_CURVE ( 'NONE', #223, #189, #255, .T. ) ;
#67 = LOCAL_TIME ( 17, 24, 18.00000000000000000, #140 ) ;
#68 = DIRECTION ( 'NONE',  ( 1.000000000000000000, 0.000000000000000000, 0.000000000000000000 ) ) ;
#69 = DIRECTION ( 'NONE',  ( -0.000000000000000000, -0.000000000000000000, -1.000000000000000000 ) ) ;
#70 =( NAMED_UNIT ( * ) PLANE_ANGLE_UNIT ( ) SI_UNIT ( $, .RADIAN. ) );
#71 = ADVANCED_FACE ( 'NONE', ( #141 ), #84, .T. ) ;
#72 = CARTESIAN_POINT ( 'NONE',  ( 2.250000000000000000, 2.755455298081543792E-16, 180.0000000000000000 ) ) ;
#73 = ORIENTED_EDGE ( 'NONE', *, *, #346, .F. ) ;
#74 = CARTESIAN_POINT ( 'NONE',  ( -4.000000000000000000, 0.000000000000000000, 180.0000000000000000 ) ) ;
#75 = CYLINDRICAL_SURFACE ( 'NONE', #264, 4.000000000000000000 ) ;
#76 = CC_DESIGN_PERSON_AND_ORGANIZATION_ASSIGNMENT ( #166, #257, ( #43 ) ) ;
#77 = ORIENTED_EDGE ( 'NONE', *, *, #203, .T. ) ;
#78 = AXIS2_PLACEMENT_3D ( 'NONE', #301, #208, #29 ) ;
#79 = APPLICATION_PROTOCOL_DEFINITION ( 'international standard', 'config_control_design', 1994, #350 ) ;
#80 = ORIENTED_EDGE ( 'NONE', *, *, #194, .T. ) ;
#81 = APPROVAL_STATUS ( 'not_yet_approved' ) ;
#82 = DIRECTION ( 'NONE',  ( -1.000000000000000000, 1.224646799147351482E-16, 0.000000000000000000 ) ) ;
#83 = DATE_AND_TIME ( #117, #61 ) ;
#84 = CYLINDRICAL_SURFACE ( 'NONE', #333, 7.000000000000000000 ) ;
#85 =( GEOMETRIC_REPRESENTATION_CONTEXT ( 3 ) GLOBAL_UNCERTAINTY_ASSIGNED_CONTEXT ( ( #328 ) ) GLOBAL_UNIT_ASSIGNED_CONTEXT ( ( #357, #70, #251 ) ) REPRESENTATION_CONTEXT ( 'NONE', 'WORKASPACE' ) );
#86 = CALENDAR_DATE ( 2022, 8, 7 ) ;
#87 = DIRECTION ( 'NONE',  ( -1.000000000000000000, 0.000000000000000000, 0.000000000000000000 ) ) ;
#88 = ORIENTED_EDGE ( 'NONE', *, *, #326, .F. ) ;
#89 = DIRECTION ( 'NONE',  ( 1.000000000000000000, 0.000000000000000000, 0.000000000000000000 ) ) ;
#90 = AXIS2_PLACEMENT_3D ( 'NONE', #297, #32, #310 ) ;
#91 = CARTESIAN_POINT ( 'NONE',  ( 4.000000000000000000, 4.898587196589412829E-16, 180.0000000000000000 ) ) ;
#92 = CARTESIAN_POINT ( 'NONE',  ( 0.000000000000000000, 0.000000000000000000, 0.000000000000000000 ) ) ;
#93 = EDGE_CURVE ( 'NONE', #337, #189, #98, .T. ) ;
#94 = CARTESIAN_POINT ( 'NONE',  ( 0.000000000000000000, 0.000000000000000000, 5.000000000000000000 ) ) ;
#95 = LINE ( 'NONE', #325, #174 ) ;
#96 = CARTESIAN_POINT ( 'NONE',  ( 2.250000000000000000, 2.755455298081543792E-16, 0.000000000000000000 ) ) ;
#97 = EDGE_CURVE ( 'NONE', #197, #223, #198, .T. ) ;
#98 = CIRCLE ( 'NONE', #315, 4.500000000000000888 ) ;
#99 = ORIENTED_EDGE ( 'NONE', *, *, #240, .F. ) ;
#100 = ORIENTED_EDGE ( 'NONE', *, *, #176, .F. ) ;
#101 = FACE_OUTER_BOUND ( 'NONE', #195, .T. ) ;
#102 = ORIENTED_EDGE ( 'NONE', *, *, #93, .F. ) ;
#103 = ADVANCED_FACE ( 'NONE', ( #23 ), #139, .F. ) ;
#104 = FACE_OUTER_BOUND ( 'NONE', #313, .T. ) ;
#105 = AXIS2_PLACEMENT_3D ( 'NONE', #165, #25, #291 ) ;
#106 = ORIENTED_EDGE ( 'NONE', *, *, #203, .F. ) ;
#107 = APPROVAL_ROLE ( '' ) ;
#108 = ORIENTED_EDGE ( 'NONE', *, *, #124, .F. ) ;
#109 = DATE_TIME_ROLE ( 'classification_date' ) ;
#110 = MANIFOLD_SOLID_BREP ( 'Odebrat vysunutím3', #266 ) ;
#111 = CC_DESIGN_PERSON_AND_ORGANIZATION_ASSIGNMENT ( #317, #321, ( #367 ) ) ;
#112 = CARTESIAN_POINT ( 'NONE',  ( -2.250000000000000000, 0.000000000000000000, 180.0000000000000000 ) ) ;
#113 = CARTESIAN_POINT ( 'NONE',  ( 0.000000000000000000, 0.000000000000000000, 5.500000000000005329 ) ) ;
#114 = APPROVAL_DATE_TIME ( #370, #40 ) ;
#115 = DIRECTION ( 'NONE',  ( 0.000000000000000000, 0.000000000000000000, -1.000000000000000000 ) ) ;
#116 = ADVANCED_FACE ( 'NONE', ( #204, #320 ), #171, .T. ) ;
#117 = CALENDAR_DATE ( 2022, 8, 7 ) ;
#118 = DIRECTION ( 'NONE',  ( 1.000000000000000000, 0.000000000000000000, 0.000000000000000000 ) ) ;
#119 = CARTESIAN_POINT ( 'NONE',  ( 0.000000000000000000, 0.000000000000000000, 180.0000000000000000 ) ) ;
#120 = CARTESIAN_POINT ( 'NONE',  ( -7.000000000000000000, 0.000000000000000000, 5.000000000000000000 ) ) ;
#121 = CARTESIAN_POINT ( 'NONE',  ( -4.500000000000000888, 5.510910596163088569E-16, 5.000000000000002665 ) ) ;
#122 = CARTESIAN_POINT ( 'NONE',  ( 0.000000000000000000, 0.000000000000000000, 0.000000000000000000 ) ) ;
#123 = DIRECTION ( 'NONE',  ( 0.000000000000000000, 0.000000000000000000, 1.000000000000000000 ) ) ;
#124 = EDGE_CURVE ( 'NONE', #189, #337, #338, .T. ) ;
#125 = AXIS2_PLACEMENT_3D ( 'NONE', #94, #267, #68 ) ;
#126 = LINE ( 'NONE', #349, #318 ) ;
#127 = CARTESIAN_POINT ( 'NONE',  ( 0.000000000000000000, 0.000000000000000000, 5.500000000000005329 ) ) ;
#128 = DIRECTION ( 'NONE',  ( 0.000000000000000000, 0.000000000000000000, 1.000000000000000000 ) ) ;
#129 = VECTOR ( 'NONE', #69, 1000.000000000000000 ) ;
#130 = CC_DESIGN_PERSON_AND_ORGANIZATION_ASSIGNMENT ( #190, #227, ( #183 ) ) ;
#131 = DIRECTION ( 'NONE',  ( -1.000000000000000000, 0.000000000000000000, 0.000000000000000000 ) ) ;
#132 = VERTEX_POINT ( 'NONE', #241 ) ;
#133 = ORIENTED_EDGE ( 'NONE', *, *, #5, .T. ) ;
#134 = ADVANCED_FACE ( 'NONE', ( #211 ), #270, .T. ) ;
#135 = DIRECTION ( 'NONE',  ( 1.000000000000000000, 0.000000000000000000, 0.000000000000000000 ) ) ;
#136 = APPROVAL_PERSON_ORGANIZATION ( #312, #379, #347 ) ;
#137 = APPROVAL_ROLE ( '' ) ;
#138 = CARTESIAN_POINT ( 'NONE',  ( 0.000000000000000000, 0.000000000000000000, 5.000000000000000000 ) ) ;
#139 = CYLINDRICAL_SURFACE ( 'NONE', #298, 2.250000000000000000 ) ;
#140 = COORDINATED_UNIVERSAL_TIME_OFFSET ( 1, 0, .AHEAD. ) ;
#141 = FACE_OUTER_BOUND ( 'NONE', #306, .T. ) ;
#142 = EDGE_CURVE ( 'NONE', #249, #197, #329, .T. ) ;
#143 = CIRCLE ( 'NONE', #8, 4.000000000000000000 ) ;
#144 = CARTESIAN_POINT ( 'NONE',  ( 0.000000000000000000, 0.000000000000000000, 180.0000000000000000 ) ) ;
#145 = FACE_BOUND ( 'NONE', #44, .T. ) ;
#146 = APPLICATION_CONTEXT ( 'configuration controlled 3d designs of mechanical parts and assemblies' ) ;
#147 = FACE_OUTER_BOUND ( 'NONE', #358, .T. ) ;
#148 = CIRCLE ( 'NONE', #90, 2.250000000000000000 ) ;
#149 = CARTESIAN_POINT ( 'NONE',  ( 4.000000000000000000, 4.898587196589412829E-16, 5.500000000000005329 ) ) ;
#150 = DIRECTION ( 'NONE',  ( 1.000000000000000000, 0.000000000000000000, 0.000000000000000000 ) ) ;
#151 = DIRECTION ( 'NONE',  ( 1.000000000000000000, 0.000000000000000000, 0.000000000000000000 ) ) ;
#152 = AXIS2_PLACEMENT_3D ( 'NONE', #218, #277, #222 ) ;
#153 = EDGE_LOOP ( 'NONE', ( #38, #133, #361, #12 ) ) ;
#154 = CARTESIAN_POINT ( 'NONE',  ( 4.500000000000000888, 0.000000000000000000, 5.000000000000002665 ) ) ;
#155 = ORIENTED_EDGE ( 'NONE', *, *, #326, .T. ) ;
#156 = AXIS2_PLACEMENT_3D ( 'NONE', #119, #167, #118 ) ;
#157 = DIRECTION ( 'NONE',  ( 0.000000000000000000, 0.000000000000000000, 1.000000000000000000 ) ) ;
#158 = ORIENTED_EDGE ( 'NONE', *, *, #52, .T. ) ;
#159 = CARTESIAN_POINT ( 'NONE',  ( -7.000000000000000000, 0.000000000000000000, 0.000000000000000000 ) ) ;
#160 = FACE_OUTER_BOUND ( 'NONE', #303, .T. ) ;
#161 = EDGE_LOOP ( 'NONE', ( #362, #263, #276, #233 ) ) ;
#162 = ADVANCED_FACE ( 'NONE', ( #354, #147 ), #239, .F. ) ;
#163 = AXIS2_PLACEMENT_3D ( 'NONE', #228, #319, #206 ) ;
#164 = PERSON_AND_ORGANIZATION ( #226, #355 ) ;
#165 = CARTESIAN_POINT ( 'NONE',  ( 0.000000000000000000, 0.000000000000000000, 5.500000000000005329 ) ) ;
#166 = PERSON_AND_ORGANIZATION ( #226, #355 ) ;
#167 = DIRECTION ( 'NONE',  ( 0.000000000000000000, 0.000000000000000000, 1.000000000000000000 ) ) ;
#168 = VECTOR ( 'NONE', #37, 1000.000000000000000 ) ;
#169 = ORIENTED_EDGE ( 'NONE', *, *, #314, .F. ) ;
#170 = EDGE_CURVE ( 'NONE', #132, #219, #45, .T. ) ;
#171 = PLANE ( 'NONE',  #323 ) ;
#172 = CALENDAR_DATE ( 2022, 8, 7 ) ;
#173 = EDGE_LOOP ( 'NONE', ( #48, #106 ) ) ;
#174 = VECTOR ( 'NONE', #3, 1000.000000000000000 ) ;
#175 = CARTESIAN_POINT ( 'NONE',  ( 0.000000000000000000, 0.000000000000000000, 0.000000000000000000 ) ) ;
#176 = EDGE_CURVE ( 'NONE', #49, #262, #95, .T. ) ;
#177 = DIRECTION ( 'NONE',  ( -1.000000000000000000, 0.000000000000000000, 0.000000000000000000 ) ) ;
#178 = DIRECTION ( 'NONE',  ( 1.000000000000000000, 0.000000000000000000, 0.000000000000000000 ) ) ;
#179 = DESIGN_CONTEXT ( 'detailed design', #350, 'design' ) ;
#180 = AXIS2_PLACEMENT_3D ( 'NONE', #6, #123, #381 ) ;
#181 = DIRECTION ( 'NONE',  ( -0.000000000000000000, -0.000000000000000000, -1.000000000000000000 ) ) ;
#182 = DIRECTION ( 'NONE',  ( -0.000000000000000000, -0.000000000000000000, -1.000000000000000000 ) ) ;
#183 = PRODUCT ( '1813', '1813', '', ( #335 ) ) ;
#184 = ORIENTED_EDGE ( 'NONE', *, *, #187, .T. ) ;
#185 = CC_DESIGN_APPROVAL ( #15, ( #367 ) ) ;
#186 = ORIENTED_EDGE ( 'NONE', *, *, #170, .T. ) ;
#187 = EDGE_CURVE ( 'NONE', #27, #249, #7, .T. ) ;
#188 = CARTESIAN_POINT ( 'NONE',  ( 0.000000000000000000, 0.000000000000000000, 0.000000000000000000 ) ) ;
#189 = VERTEX_POINT ( 'NONE', #121 ) ;
#190 = PERSON_AND_ORGANIZATION ( #226, #355 ) ;
#191 = ORIENTED_EDGE ( 'NONE', *, *, #274, .T. ) ;
#192 = CYLINDRICAL_SURFACE ( 'NONE', #359, 7.000000000000000000 ) ;
#193 = SECURITY_CLASSIFICATION ( '', '', #200 ) ;
#194 = EDGE_CURVE ( 'NONE', #334, #278, #304, .T. ) ;
#195 = EDGE_LOOP ( 'NONE', ( #340, #254, #252, #73 ) ) ;
#196 = APPROVAL_DATE_TIME ( #83, #15 ) ;
#197 = VERTEX_POINT ( 'NONE', #149 ) ;
#198 = CIRCLE ( 'NONE', #279, 4.000000000000000000 ) ;
#199 = DIRECTION ( 'NONE',  ( -0.000000000000000000, -0.000000000000000000, -1.000000000000000000 ) ) ;
#200 = SECURITY_CLASSIFICATION_LEVEL ( 'unclassified' ) ;
#201 = CARTESIAN_POINT ( 'NONE',  ( 0.000000000000000000, 0.000000000000000000, 0.000000000000000000 ) ) ;
#202 = TOROIDAL_SURFACE ( 'NONE', #376, 4.500000000000000888, 0.5000000000000000000 ) ;
#203 = EDGE_CURVE ( 'NONE', #294, #262, #210, .T. ) ;
#204 = FACE_BOUND ( 'NONE', #377, .T. ) ;
#205 = DATE_AND_TIME ( #365, #67 ) ;
#206 = DIRECTION ( 'NONE',  ( 1.000000000000000000, 0.000000000000000000, 0.000000000000000000 ) ) ;
#207 = AXIS2_PLACEMENT_3D ( 'NONE', #144, #345, #292 ) ;
#208 = DIRECTION ( 'NONE',  ( -0.000000000000000000, -0.000000000000000000, -1.000000000000000000 ) ) ;
#209 = CC_DESIGN_PERSON_AND_ORGANIZATION_ASSIGNMENT ( #368, #58, ( #193 ) ) ;
#210 = CIRCLE ( 'NONE', #250, 2.250000000000000000 ) ;
#211 = FACE_OUTER_BOUND ( 'NONE', #161, .T. ) ;
#212 = DIRECTION ( 'NONE',  ( 1.000000000000000000, 0.000000000000000000, 0.000000000000000000 ) ) ;
#213 = DIRECTION ( 'NONE',  ( 0.000000000000000000, 0.000000000000000000, 1.000000000000000000 ) ) ;
#214 = AXIS2_PLACEMENT_3D ( 'NONE', #4, #182, #89 ) ;
#215 = CC_DESIGN_DATE_AND_TIME_ASSIGNMENT ( #293, #109, ( #193 ) ) ;
#216 = DIRECTION ( 'NONE',  ( 1.000000000000000000, 0.000000000000000000, 0.000000000000000000 ) ) ;
#217 = LINE ( 'NONE', #72, #242 ) ;
#218 = CARTESIAN_POINT ( 'NONE',  ( 4.500000000000000888, 0.000000000000000000, 5.500000000000005329 ) ) ;
#219 = VERTEX_POINT ( 'NONE', #120 ) ;
#220 = AXIS2_PLACEMENT_3D ( 'NONE', #63, #351, #177 ) ;
#221 = ADVANCED_FACE ( 'NONE', ( #145, #300 ), #273, .T. ) ;
#222 = DIRECTION ( 'NONE',  ( 0.000000000000000000, 0.000000000000000000, -1.000000000000000000 ) ) ;
#223 = VERTEX_POINT ( 'NONE', #33 ) ;
#224 = APPROVAL_PERSON_ORGANIZATION ( #229, #15, #107 ) ;
#225 = EDGE_LOOP ( 'NONE', ( #184, #311 ) ) ;
#226 = PERSON ( 'NEURÈENÝ', 'NEURÈENÝ', 'NEURÈENÝ', ('NEURÈENÝ'), ('NEURÈENÝ'), ('NEURÈENÝ') ) ;
#227 = PERSON_AND_ORGANIZATION_ROLE ( 'design_owner' ) ;
#228 = CARTESIAN_POINT ( 'NONE',  ( 0.000000000000000000, 0.000000000000000000, 5.000000000000000000 ) ) ;
#229 = PERSON_AND_ORGANIZATION ( #226, #355 ) ;
#230 = DIRECTION ( 'NONE',  ( 0.000000000000000000, 0.000000000000000000, 1.000000000000000000 ) ) ;
#231 = APPROVAL_STATUS ( 'not_yet_approved' ) ;
#232 = AXIS2_PLACEMENT_3D ( 'NONE', #122, #30, #353 ) ;
#233 = ORIENTED_EDGE ( 'NONE', *, *, #260, .T. ) ;
#234 = ADVANCED_FACE ( 'NONE', ( #235 ), #331, .F. ) ;
#235 = FACE_OUTER_BOUND ( 'NONE', #18, .T. ) ;
#236 = AXIS2_PLACEMENT_3D ( 'NONE', #188, #157, #280 ) ;
#237 = CC_DESIGN_SECURITY_CLASSIFICATION ( #193, ( #367 ) ) ;
#238 = CARTESIAN_POINT ( 'NONE',  ( 4.000000000000000000, 4.898587196589412829E-16, 180.0000000000000000 ) ) ;
#239 = PLANE ( 'NONE',  #232 ) ;
#240 = EDGE_CURVE ( 'NONE', #132, #278, #126, .T. ) ;
#241 = CARTESIAN_POINT ( 'NONE',  ( 7.000000000000000000, 8.572527594031473190E-16, 5.000000000000000000 ) ) ;
#242 = VECTOR ( 'NONE', #42, 1000.000000000000000 ) ;
#243 = CARTESIAN_POINT ( 'NONE',  ( 0.000000000000000000, 0.000000000000000000, 5.000000000000000000 ) ) ;
#244 = LINE ( 'NONE', #336, #168 ) ;
#245 = CC_DESIGN_PERSON_AND_ORGANIZATION_ASSIGNMENT ( #164, #20, ( #367 ) ) ;
#246 = ORIENTED_EDGE ( 'NONE', *, *, #194, .F. ) ;
#247 = APPLICATION_PROTOCOL_DEFINITION ( 'international standard', 'config_control_design', 1994, #146 ) ;
#248 = PRODUCT_DEFINITION_SHAPE ( 'NONE', 'NONE',  #43 ) ;
#249 = VERTEX_POINT ( 'NONE', #91 ) ;
#250 = AXIS2_PLACEMENT_3D ( 'NONE', #175, #181, #150 ) ;
#251 =( NAMED_UNIT ( * ) SI_UNIT ( $, .STERADIAN. ) SOLID_ANGLE_UNIT ( ) );
#252 = ORIENTED_EDGE ( 'NONE', *, *, #97, .T. ) ;
#253 = DIRECTION ( 'NONE',  ( -0.000000000000000000, -0.000000000000000000, -1.000000000000000000 ) ) ;
#254 = ORIENTED_EDGE ( 'NONE', *, *, #142, .T. ) ;
#255 = CIRCLE ( 'NONE', #302, 0.5000000000000004441 ) ;
#256 = ORIENTED_EDGE ( 'NONE', *, *, #5, .F. ) ;
#257 = PERSON_AND_ORGANIZATION_ROLE ( 'creator' ) ;
#258 = AXIS2_PLACEMENT_3D ( 'NONE', #324, #213, #216 ) ;
#259 = CALENDAR_DATE ( 2022, 8, 7 ) ;
#260 = EDGE_CURVE ( 'NONE', #223, #197, #143, .T. ) ;
#261 = ORIENTED_EDGE ( 'NONE', *, *, #66, .F. ) ;
#262 = VERTEX_POINT ( 'NONE', #352 ) ;
#263 = ORIENTED_EDGE ( 'NONE', *, *, #187, .F. ) ;
#264 = AXIS2_PLACEMENT_3D ( 'NONE', #360, #10, #131 ) ;
#265 = CARTESIAN_POINT ( 'NONE',  ( -4.000000000000000000, 0.000000000000000000, 180.0000000000000000 ) ) ;
#266 = CLOSED_SHELL ( 'NONE', ( #234, #374, #339, #71, #364, #221, #162, #134, #116, #11, #103 ) ) ;
#267 = DIRECTION ( 'NONE',  ( 0.000000000000000000, 0.000000000000000000, 1.000000000000000000 ) ) ;
#268 = CARTESIAN_POINT ( 'NONE',  ( 0.000000000000000000, 0.000000000000000000, 5.500000000000005329 ) ) ;
#269 = VECTOR ( 'NONE', #253, 1000.000000000000000 ) ;
#270 = CYLINDRICAL_SURFACE ( 'NONE', #78, 4.000000000000000000 ) ;
#271 = EDGE_CURVE ( 'NONE', #278, #334, #46, .T. ) ;
#272 = DIRECTION ( 'NONE',  ( 0.000000000000000000, 0.000000000000000000, 1.000000000000000000 ) ) ;
#273 = PLANE ( 'NONE',  #180 ) ;
#274 = EDGE_CURVE ( 'NONE', #49, #283, #148, .T. ) ;
#275 = DIRECTION ( 'NONE',  ( 1.000000000000000000, 0.000000000000000000, 0.000000000000000000 ) ) ;
#276 = ORIENTED_EDGE ( 'NONE', *, *, #346, .T. ) ;
#277 = DIRECTION ( 'NONE',  ( 0.000000000000000000, -1.000000000000000000, 0.000000000000000000 ) ) ;
#278 = VERTEX_POINT ( 'NONE', #305 ) ;
#279 = AXIS2_PLACEMENT_3D ( 'NONE', #113, #230, #344 ) ;
#280 = DIRECTION ( 'NONE',  ( 1.000000000000000000, 0.000000000000000000, 0.000000000000000000 ) ) ;
#281 = EDGE_LOOP ( 'NONE', ( #158, #186 ) ) ;
#282 = DIRECTION ( 'NONE',  ( -0.000000000000000000, -0.000000000000000000, -1.000000000000000000 ) ) ;
#283 = VERTEX_POINT ( 'NONE', #308 ) ;
#284 = CC_DESIGN_DATE_AND_TIME_ASSIGNMENT ( #343, #55, ( #43 ) ) ;
#285 = ORIENTED_EDGE ( 'NONE', *, *, #274, .F. ) ;
#286 = CIRCLE ( 'NONE', #163, 7.000000000000000000 ) ;
#287 = COORDINATED_UNIVERSAL_TIME_OFFSET ( 1, 0, .AHEAD. ) ;
#288 = ORIENTED_EDGE ( 'NONE', *, *, #309, .T. ) ;
#289 = APPROVAL_DATE_TIME ( #205, #379 ) ;
#290 = DIRECTION ( 'NONE',  ( -1.000000000000000000, 0.000000000000000000, 0.000000000000000000 ) ) ;
#291 = DIRECTION ( 'NONE',  ( 1.000000000000000000, 0.000000000000000000, 0.000000000000000000 ) ) ;
#292 = DIRECTION ( 'NONE',  ( 1.000000000000000000, 0.000000000000000000, 0.000000000000000000 ) ) ;
#293 = DATE_AND_TIME ( #172, #330 ) ;
#294 = VERTEX_POINT ( 'NONE', #96 ) ;
#295 = CARTESIAN_POINT ( 'NONE',  ( 0.000000000000000000, 0.000000000000000000, 180.0000000000000000 ) ) ;
#296 = DIRECTION ( 'NONE',  ( -0.000000000000000000, -0.000000000000000000, -1.000000000000000000 ) ) ;
#297 = CARTESIAN_POINT ( 'NONE',  ( 0.000000000000000000, 0.000000000000000000, 180.0000000000000000 ) ) ;
#298 = AXIS2_PLACEMENT_3D ( 'NONE', #56, #115, #87 ) ;
#299 = AXIS2_PLACEMENT_3D ( 'NONE', #36, #62, #151 ) ;
#300 = FACE_OUTER_BOUND ( 'NONE', #281, .T. ) ;
#301 = CARTESIAN_POINT ( 'NONE',  ( 0.000000000000000000, 0.000000000000000000, 180.0000000000000000 ) ) ;
#302 = AXIS2_PLACEMENT_3D ( 'NONE', #322, #342, #82 ) ;
#303 = EDGE_LOOP ( 'NONE', ( #41, #50, #102, #169 ) ) ;
#304 = CIRCLE ( 'NONE', #258, 7.000000000000000000 ) ;
#305 = CARTESIAN_POINT ( 'NONE',  ( 7.000000000000000000, 8.572527594031473190E-16, 0.000000000000000000 ) ) ;
#306 = EDGE_LOOP ( 'NONE', ( #356, #373, #307, #88 ) ) ;
#307 = ORIENTED_EDGE ( 'NONE', *, *, #271, .T. ) ;
#308 = CARTESIAN_POINT ( 'NONE',  ( 2.250000000000000000, 2.755455298081543792E-16, 180.0000000000000000 ) ) ;
#309 = EDGE_CURVE ( 'NONE', #283, #294, #217, .T. ) ;
#310 = DIRECTION ( 'NONE',  ( 1.000000000000000000, 0.000000000000000000, 0.000000000000000000 ) ) ;
#311 = ORIENTED_EDGE ( 'NONE', *, *, #28, .T. ) ;
#312 = PERSON_AND_ORGANIZATION ( #226, #355 ) ;
#313 = EDGE_LOOP ( 'NONE', ( #99, #348, #155, #80 ) ) ;
#314 = EDGE_CURVE ( 'NONE', #197, #337, #31, .T. ) ;
#315 = AXIS2_PLACEMENT_3D ( 'NONE', #138, #371, #54 ) ;
#316 = DIRECTION ( 'NONE',  ( -0.000000000000000000, -0.000000000000000000, -1.000000000000000000 ) ) ;
#317 = PERSON_AND_ORGANIZATION ( #226, #355 ) ;
#318 = VECTOR ( 'NONE', #296, 1000.000000000000000 ) ;
#319 = DIRECTION ( 'NONE',  ( 0.000000000000000000, 0.000000000000000000, 1.000000000000000000 ) ) ;
#320 = FACE_OUTER_BOUND ( 'NONE', #225, .T. ) ;
#321 = PERSON_AND_ORGANIZATION_ROLE ( 'design_supplier' ) ;
#322 = CARTESIAN_POINT ( 'NONE',  ( -4.500000000000000888, 5.510910596163089556E-16, 5.500000000000005329 ) ) ;
#323 = AXIS2_PLACEMENT_3D ( 'NONE', #295, #272, #327 ) ;
#324 = CARTESIAN_POINT ( 'NONE',  ( 0.000000000000000000, 0.000000000000000000, 0.000000000000000000 ) ) ;
#325 = CARTESIAN_POINT ( 'NONE',  ( -2.250000000000000000, 0.000000000000000000, 180.0000000000000000 ) ) ;
#326 = EDGE_CURVE ( 'NONE', #219, #334, #244, .T. ) ;
#327 = DIRECTION ( 'NONE',  ( 1.000000000000000000, 0.000000000000000000, -0.000000000000000000 ) ) ;
#328 = UNCERTAINTY_MEASURE_WITH_UNIT (LENGTH_MEASURE( 1.000000000000000082E-05 ), #357, 'distance_accuracy_value', 'NONE');
#329 = LINE ( 'NONE', #238, #129 ) ;
#330 = LOCAL_TIME ( 17, 24, 18.00000000000000000, #287 ) ;
#331 = CYLINDRICAL_SURFACE ( 'NONE', #220, 2.250000000000000000 ) ;
#332 = LINE ( 'NONE', #74, #269 ) ;
#333 = AXIS2_PLACEMENT_3D ( 'NONE', #59, #316, #290 ) ;
#334 = VERTEX_POINT ( 'NONE', #159 ) ;
#335 = MECHANICAL_CONTEXT ( 'NONE', #146, 'mechanical' ) ;
#336 = CARTESIAN_POINT ( 'NONE',  ( -7.000000000000000000, 0.000000000000000000, 5.000000000000000000 ) ) ;
#337 = VERTEX_POINT ( 'NONE', #154 ) ;
#338 = CIRCLE ( 'NONE', #214, 4.500000000000000888 ) ;
#339 = ADVANCED_FACE ( 'NONE', ( #101 ), #75, .T. ) ;
#340 = ORIENTED_EDGE ( 'NONE', *, *, #28, .F. ) ;
#341 = APPROVAL_STATUS ( 'not_yet_approved' ) ;
#342 = DIRECTION ( 'NONE',  ( 1.224646799147353207E-16, 1.000000000000000000, -0.000000000000000000 ) ) ;
#343 = DATE_AND_TIME ( #86, #1 ) ;
#344 = DIRECTION ( 'NONE',  ( 1.000000000000000000, 0.000000000000000000, 0.000000000000000000 ) ) ;
#345 = DIRECTION ( 'NONE',  ( 0.000000000000000000, 0.000000000000000000, 1.000000000000000000 ) ) ;
#346 = EDGE_CURVE ( 'NONE', #27, #223, #332, .T. ) ;
#347 = APPROVAL_ROLE ( '' ) ;
#348 = ORIENTED_EDGE ( 'NONE', *, *, #52, .F. ) ;
#349 = CARTESIAN_POINT ( 'NONE',  ( 7.000000000000000000, 8.572527594031473190E-16, 5.000000000000000000 ) ) ;
#350 = APPLICATION_CONTEXT ( 'configuration controlled 3d designs of mechanical parts and assemblies' ) ;
#351 = DIRECTION ( 'NONE',  ( 0.000000000000000000, 0.000000000000000000, -1.000000000000000000 ) ) ;
#352 = CARTESIAN_POINT ( 'NONE',  ( -2.250000000000000000, 0.000000000000000000, 0.000000000000000000 ) ) ;
#353 = DIRECTION ( 'NONE',  ( 1.000000000000000000, 0.000000000000000000, -0.000000000000000000 ) ) ;
#354 = FACE_BOUND ( 'NONE', #173, .T. ) ;
#355 = ORGANIZATION ( 'NEURÈENÝ', 'NEURÈENÝ', '' ) ;
#356 = ORIENTED_EDGE ( 'NONE', *, *, #170, .F. ) ;
#357 =( LENGTH_UNIT ( ) NAMED_UNIT ( * ) SI_UNIT ( .MILLI., .METRE. ) );
#358 = EDGE_LOOP ( 'NONE', ( #246, #16 ) ) ;
#359 = AXIS2_PLACEMENT_3D ( 'NONE', #243, #282, #47 ) ;
#360 = CARTESIAN_POINT ( 'NONE',  ( 0.000000000000000000, 0.000000000000000000, 180.0000000000000000 ) ) ;
#361 = ORIENTED_EDGE ( 'NONE', *, *, #176, .T. ) ;
#362 = ORIENTED_EDGE ( 'NONE', *, *, #142, .F. ) ;
#363 = CIRCLE ( 'NONE', #156, 4.000000000000000000 ) ;
#364 = ADVANCED_FACE ( 'NONE', ( #104 ), #192, .T. ) ;
#365 = CALENDAR_DATE ( 2022, 8, 7 ) ;
#366 = ORIENTED_EDGE ( 'NONE', *, *, #314, .T. ) ;
#367 = PRODUCT_DEFINITION_FORMATION_WITH_SPECIFIED_SOURCE ( 'LIBOVOLNÝ', '', #183, .NOT_KNOWN. ) ;
#368 = PERSON_AND_ORGANIZATION ( #226, #355 ) ;
#369 = ORIENTED_EDGE ( 'NONE', *, *, #124, .T. ) ;
#370 = DATE_AND_TIME ( #259, #19 ) ;
#371 = DIRECTION ( 'NONE',  ( -0.000000000000000000, -0.000000000000000000, -1.000000000000000000 ) ) ;
#372 = COORDINATED_UNIVERSAL_TIME_OFFSET ( 1, 0, .AHEAD. ) ;
#373 = ORIENTED_EDGE ( 'NONE', *, *, #240, .T. ) ;
#374 = ADVANCED_FACE ( 'NONE', ( #160 ), #202, .F. ) ;
#375 = COORDINATED_UNIVERSAL_TIME_OFFSET ( 1, 0, .AHEAD. ) ;
#376 = AXIS2_PLACEMENT_3D ( 'NONE', #127, #128, #275 ) ;
#377 = EDGE_LOOP ( 'NONE', ( #285, #256 ) ) ;
#378 = FACE_OUTER_BOUND ( 'NONE', #14, .T. ) ;
#379 = APPROVAL ( #231, 'NEURÈENÝ' ) ;
#380 = ADVANCED_BREP_SHAPE_REPRESENTATION ( '1813', ( #110, #236 ), #85 ) ;
#381 = DIRECTION ( 'NONE',  ( 1.000000000000000000, 0.000000000000000000, -0.000000000000000000 ) ) ;
ENDSEC;
END-ISO-10303-21;
