ISO-10303-21;
HEADER;
FILE_DESCRIPTION (( 'STEP AP203' ),
    '1' );
FILE_NAME ('ffd7.STEP',
    '2022-07-08T14:46:02',
    ( '' ),
    ( '' ),
    'SwSTEP 2.0',
    'SolidWorks 2019',
    '' );
FILE_SCHEMA (( 'CONFIG_CONTROL_DESIGN' ));
ENDSEC;

DATA;
#1 = ADVANCED_FACE ( 'NONE', ( #331 ), #242, .F. ) ;
#2 = VECTOR ( 'NONE', #269, 1000.000000000000000 ) ;
#3 = CIRCLE ( 'NONE', #286, 3.250000000000000444 ) ;
#4 = DIRECTION ( 'NONE',  ( -0.000000000000000000, -0.000000000000000000, -1.000000000000000000 ) ) ;
#5 = DIRECTION ( 'NONE',  ( -1.000000000000000000, 0.000000000000000000, 0.000000000000000000 ) ) ;
#6 = EDGE_LOOP ( 'NONE', ( #36, #167, #125, #111 ) ) ;
#7 = CARTESIAN_POINT ( 'NONE',  ( -5.000000000000000000, 0.000000000000000000, 5.500000000000005329 ) ) ;
#8 = ORIENTED_EDGE ( 'NONE', *, *, #112, .F. ) ;
#9 = CIRCLE ( 'NONE', #251, 0.5000000000000004441 ) ;
#10 = CYLINDRICAL_SURFACE ( 'NONE', #334, 5.000000000000000000 ) ;
#11 = ORIENTED_EDGE ( 'NONE', *, *, #276, .F. ) ;
#12 = DATE_AND_TIME ( #44, #307 ) ;
#13 = CARTESIAN_POINT ( 'NONE',  ( 5.500000000000000000, 0.000000000000000000, 5.500000000000005329 ) ) ;
#14 = APPROVAL_STATUS ( 'not_yet_approved' ) ;
#15 = EDGE_CURVE ( 'NONE', #39, #310, #3, .T. ) ;
#16 = PRODUCT_DEFINITION_FORMATION_WITH_SPECIFIED_SOURCE ( 'LIBOVOLNÝ', '', #52, .NOT_KNOWN. ) ;
#17 = APPROVAL_STATUS ( 'not_yet_approved' ) ;
#18 = CARTESIAN_POINT ( 'NONE',  ( 0.000000000000000000, 0.000000000000000000, 5.000000000000000000 ) ) ;
#19 = DATE_AND_TIME ( #47, #53 ) ;
#20 = CC_DESIGN_PERSON_AND_ORGANIZATION_ASSIGNMENT ( #182, #363, ( #16 ) ) ;
#21 = APPROVAL_PERSON_ORGANIZATION ( #98, #186, #210 ) ;
#22 = CARTESIAN_POINT ( 'NONE',  ( 0.000000000000000000, 0.000000000000000000, 5.500000000000005329 ) ) ;
#23 = AXIS2_PLACEMENT_3D ( 'NONE', #341, #312, #371 ) ;
#24 = ORIENTED_EDGE ( 'NONE', *, *, #78, .F. ) ;
#25 = FACE_OUTER_BOUND ( 'NONE', #354, .T. ) ;
#26 = CARTESIAN_POINT ( 'NONE',  ( -5.000000000000000000, 0.000000000000000000, 280.0000000000000000 ) ) ;
#27 = AXIS2_PLACEMENT_3D ( 'NONE', #126, #262, #57 ) ;
#28 = AXIS2_PLACEMENT_3D ( 'NONE', #329, #272, #103 ) ;
#29 = DIRECTION ( 'NONE',  ( -0.000000000000000000, -0.000000000000000000, -1.000000000000000000 ) ) ;
#30 = EDGE_LOOP ( 'NONE', ( #89, #209 ) ) ;
#31 = EDGE_CURVE ( 'NONE', #297, #150, #308, .T. ) ;
#32 = CARTESIAN_POINT ( 'NONE',  ( 8.000000000000000000, 9.797174393178825657E-16, 5.000000000000000000 ) ) ;
#33 = CARTESIAN_POINT ( 'NONE',  ( -5.000000000000000000, 0.000000000000000000, 280.0000000000000000 ) ) ;
#34 = AXIS2_PLACEMENT_3D ( 'NONE', #322, #88, #204 ) ;
#35 = FACE_OUTER_BOUND ( 'NONE', #275, .T. ) ;
#36 = ORIENTED_EDGE ( 'NONE', *, *, #181, .F. ) ;
#37 = EDGE_CURVE ( 'NONE', #310, #39, #119, .T. ) ;
#38 = CARTESIAN_POINT ( 'NONE',  ( 0.000000000000000000, 0.000000000000000000, 280.0000000000000000 ) ) ;
#39 = VERTEX_POINT ( 'NONE', #48 ) ;
#40 = CLOSED_SHELL ( 'NONE', ( #350, #1, #213, #117, #106, #160, #271, #374, #349, #152, #49 ) ) ;
#41 = LOCAL_TIME ( 16, 46, 2.000000000000000000, #105 ) ;
#42 = EDGE_CURVE ( 'NONE', #290, #127, #9, .T. ) ;
#43 = ORIENTED_EDGE ( 'NONE', *, *, #123, .F. ) ;
#44 = CALENDAR_DATE ( 2022, 8, 7 ) ;
#45 = DIRECTION ( 'NONE',  ( 1.000000000000000000, 0.000000000000000000, 0.000000000000000000 ) ) ;
#46 = EDGE_CURVE ( 'NONE', #173, #342, #151, .T. ) ;
#47 = CALENDAR_DATE ( 2022, 8, 7 ) ;
#48 = CARTESIAN_POINT ( 'NONE',  ( -3.250000000000000444, 0.000000000000000000, 0.000000000000000000 ) ) ;
#49 = ADVANCED_FACE ( 'NONE', ( #50 ), #158, .F. ) ;
#50 = FACE_OUTER_BOUND ( 'NONE', #201, .T. ) ;
#51 = DIRECTION ( 'NONE',  ( 1.000000000000000000, 0.000000000000000000, 0.000000000000000000 ) ) ;
#52 = PRODUCT ( 'ffd7', 'ffd7', '', ( #364 ) ) ;
#53 = LOCAL_TIME ( 16, 46, 2.000000000000000000, #214 ) ;
#54 = EDGE_LOOP ( 'NONE', ( #8, #254, #11, #217 ) ) ;
#55 = CC_DESIGN_DATE_AND_TIME_ASSIGNMENT ( #19, #330, ( #355 ) ) ;
#56 = CARTESIAN_POINT ( 'NONE',  ( 5.000000000000000000, 6.123233995736766282E-16, 280.0000000000000000 ) ) ;
#57 = DIRECTION ( 'NONE',  ( 1.000000000000000000, 0.000000000000000000, -0.000000000000000000 ) ) ;
#58 = ORIENTED_EDGE ( 'NONE', *, *, #112, .T. ) ;
#59 = FACE_OUTER_BOUND ( 'NONE', #373, .T. ) ;
#60 = ORIENTED_EDGE ( 'NONE', *, *, #78, .T. ) ;
#61 = FACE_OUTER_BOUND ( 'NONE', #294, .T. ) ;
#62 = DIRECTION ( 'NONE',  ( 1.000000000000000000, 0.000000000000000000, 0.000000000000000000 ) ) ;
#63 = VERTEX_POINT ( 'NONE', #240 ) ;
#64 = CALENDAR_DATE ( 2022, 8, 7 ) ;
#65 = VERTEX_POINT ( 'NONE', #278 ) ;
#66 = VECTOR ( 'NONE', #224, 1000.000000000000000 ) ;
#67 = LOCAL_TIME ( 16, 46, 2.000000000000000000, #277 ) ;
#68 = EDGE_CURVE ( 'NONE', #71, #236, #346, .T. ) ;
#69 = AXIS2_PLACEMENT_3D ( 'NONE', #169, #138, #258 ) ;
#70 = PERSON_AND_ORGANIZATION ( #132, #198 ) ;
#71 = VERTEX_POINT ( 'NONE', #304 ) ;
#72 = PERSON_AND_ORGANIZATION ( #132, #198 ) ;
#73 = CARTESIAN_POINT ( 'NONE',  ( 0.000000000000000000, 0.000000000000000000, 5.500000000000005329 ) ) ;
#74 = DATE_TIME_ROLE ( 'creation_date' ) ;
#75 = DIRECTION ( 'NONE',  ( 1.000000000000000000, 0.000000000000000000, 0.000000000000000000 ) ) ;
#76 = VECTOR ( 'NONE', #4, 1000.000000000000000 ) ;
#77 = AXIS2_PLACEMENT_3D ( 'NONE', #253, #199, #194 ) ;
#78 = EDGE_CURVE ( 'NONE', #63, #91, #84, .T. ) ;
#79 = LINE ( 'NONE', #196, #238 ) ;
#80 = APPLICATION_CONTEXT ( 'configuration controlled 3d designs of mechanical parts and assemblies' ) ;
#81 = FACE_OUTER_BOUND ( 'NONE', #6, .T. ) ;
#82 = DIRECTION ( 'NONE',  ( 1.000000000000000000, 0.000000000000000000, 0.000000000000000000 ) ) ;
#83 = EDGE_CURVE ( 'NONE', #71, #290, #328, .T. ) ;
#84 = CIRCLE ( 'NONE', #109, 8.000000000000000000 ) ;
#85 = CC_DESIGN_APPROVAL ( #255, ( #306 ) ) ;
#86 = ORIENTED_EDGE ( 'NONE', *, *, #154, .T. ) ;
#87 = DIRECTION ( 'NONE',  ( 1.000000000000000000, 0.000000000000000000, 0.000000000000000000 ) ) ;
#88 = DIRECTION ( 'NONE',  ( 0.000000000000000000, 0.000000000000000000, 1.000000000000000000 ) ) ;
#89 = ORIENTED_EDGE ( 'NONE', *, *, #276, .T. ) ;
#90 = DIRECTION ( 'NONE',  ( 0.000000000000000000, 0.000000000000000000, 1.000000000000000000 ) ) ;
#91 = VERTEX_POINT ( 'NONE', #252 ) ;
#92 = FACE_BOUND ( 'NONE', #232, .T. ) ;
#93 = ORIENTED_EDGE ( 'NONE', *, *, #283, .F. ) ;
#94 = ADVANCED_BREP_SHAPE_REPRESENTATION ( 'ffd7', ( #195, #168 ), #315 ) ;
#95 = LINE ( 'NONE', #32, #211 ) ;
#96 = ORIENTED_EDGE ( 'NONE', *, *, #181, .T. ) ;
#97 = EDGE_CURVE ( 'NONE', #65, #310, #79, .T. ) ;
#98 = PERSON_AND_ORGANIZATION ( #132, #198 ) ;
#99 = DIRECTION ( 'NONE',  ( 1.000000000000000000, 0.000000000000000000, 0.000000000000000000 ) ) ;
#100 = AXIS2_PLACEMENT_3D ( 'NONE', #377, #191, #309 ) ;
#101 = DATE_AND_TIME ( #64, #41 ) ;
#102 = PERSON_AND_ORGANIZATION ( #132, #198 ) ;
#103 = DIRECTION ( 'NONE',  ( -1.000000000000000000, 0.000000000000000000, 0.000000000000000000 ) ) ;
#104 = APPLICATION_CONTEXT ( 'configuration controlled 3d designs of mechanical parts and assemblies' ) ;
#105 = COORDINATED_UNIVERSAL_TIME_OFFSET ( 1, 0, .AHEAD. ) ;
#106 = ADVANCED_FACE ( 'NONE', ( #81 ), #166, .T. ) ;
#107 = CIRCLE ( 'NONE', #34, 5.000000000000000000 ) ;
#108 = DESIGN_CONTEXT ( 'detailed design', #104, 'design' ) ;
#109 = AXIS2_PLACEMENT_3D ( 'NONE', #250, #361, #99 ) ;
#110 = CARTESIAN_POINT ( 'NONE',  ( -3.250000000000000444, 0.000000000000000000, 280.0000000000000000 ) ) ;
#111 = ORIENTED_EDGE ( 'NONE', *, *, #233, .T. ) ;
#112 = EDGE_CURVE ( 'NONE', #290, #71, #183, .T. ) ;
#113 = FACE_OUTER_BOUND ( 'NONE', #348, .T. ) ;
#114 = APPROVAL_PERSON_ORGANIZATION ( #72, #255, #129 ) ;
#115 = EDGE_CURVE ( 'NONE', #173, #290, #285, .T. ) ;
#116 = DIRECTION ( 'NONE',  ( 0.000000000000000000, 0.000000000000000000, 1.000000000000000000 ) ) ;
#117 = ADVANCED_FACE ( 'NONE', ( #281 ), #287, .T. ) ;
#118 = VERTEX_POINT ( 'NONE', #141 ) ;
#119 = CIRCLE ( 'NONE', #222, 3.250000000000000444 ) ;
#120 = CYLINDRICAL_SURFACE ( 'NONE', #261, 5.000000000000000000 ) ;
#121 = DIRECTION ( 'NONE',  ( 0.000000000000000000, 0.000000000000000000, 1.000000000000000000 ) ) ;
#122 = ORIENTED_EDGE ( 'NONE', *, *, #46, .F. ) ;
#123 = EDGE_CURVE ( 'NONE', #118, #39, #163, .T. ) ;
#124 = CARTESIAN_POINT ( 'NONE',  ( 5.000000000000000000, 6.123233995736766282E-16, 280.0000000000000000 ) ) ;
#125 = ORIENTED_EDGE ( 'NONE', *, *, #165, .T. ) ;
#126 = CARTESIAN_POINT ( 'NONE',  ( 0.000000000000000000, 0.000000000000000000, 5.000000000000000000 ) ) ;
#127 = VERTEX_POINT ( 'NONE', #282 ) ;
#128 = ORIENTED_EDGE ( 'NONE', *, *, #37, .F. ) ;
#129 = APPROVAL_ROLE ( '' ) ;
#130 = DIRECTION ( 'NONE',  ( 0.000000000000000000, 0.000000000000000000, 1.000000000000000000 ) ) ;
#131 = PERSON_AND_ORGANIZATION ( #132, #198 ) ;
#132 = PERSON ( 'NEURÈENÝ', 'NEURÈENÝ', 'NEURÈENÝ', ('NEURÈENÝ'), ('NEURÈENÝ'), ('NEURÈENÝ') ) ;
#133 = CARTESIAN_POINT ( 'NONE',  ( -5.500000000000000000, 6.735557395310442023E-16, 5.500000000000005329 ) ) ;
#134 = DATE_AND_TIME ( #239, #376 ) ;
#135 = DIRECTION ( 'NONE',  ( 0.000000000000000000, 0.000000000000000000, 1.000000000000000000 ) ) ;
#136 = AXIS2_PLACEMENT_3D ( 'NONE', #316, #256, #82 ) ;
#137 = EDGE_CURVE ( 'NONE', #127, #236, #231, .T. ) ;
#138 = DIRECTION ( 'NONE',  ( -0.000000000000000000, -0.000000000000000000, -1.000000000000000000 ) ) ;
#139 = PLANE ( 'NONE',  #27 ) ;
#140 = AXIS2_PLACEMENT_3D ( 'NONE', #202, #289, #266 ) ;
#141 = CARTESIAN_POINT ( 'NONE',  ( -3.250000000000000444, 0.000000000000000000, 280.0000000000000000 ) ) ;
#142 = FACE_BOUND ( 'NONE', #263, .T. ) ;
#143 = DIRECTION ( 'NONE',  ( -1.000000000000000000, 0.000000000000000000, 0.000000000000000000 ) ) ;
#144 = ORIENTED_EDGE ( 'NONE', *, *, #265, .F. ) ;
#145 = CARTESIAN_POINT ( 'NONE',  ( 0.000000000000000000, 0.000000000000000000, 5.000000000000000000 ) ) ;
#146 = PLANE ( 'NONE',  #140 ) ;
#147 = CC_DESIGN_PERSON_AND_ORGANIZATION_ASSIGNMENT ( #360, #273, ( #306 ) ) ;
#148 = DIRECTION ( 'NONE',  ( -0.000000000000000000, -0.000000000000000000, -1.000000000000000000 ) ) ;
#149 = CIRCLE ( 'NONE', #100, 8.000000000000000000 ) ;
#150 = VERTEX_POINT ( 'NONE', #372 ) ;
#151 = CIRCLE ( 'NONE', #170, 5.000000000000000000 ) ;
#152 = ADVANCED_FACE ( 'NONE', ( #113 ), #221, .F. ) ;
#153 = DIRECTION ( 'NONE',  ( -0.000000000000000000, -0.000000000000000000, -1.000000000000000000 ) ) ;
#154 = EDGE_CURVE ( 'NONE', #150, #297, #149, .T. ) ;
#155 = DIRECTION ( 'NONE',  ( 1.000000000000000000, 0.000000000000000000, 0.000000000000000000 ) ) ;
#156 = CIRCLE ( 'NONE', #257, 5.500000000000000000 ) ;
#157 = PRODUCT_RELATED_PRODUCT_CATEGORY ( 'detail', '', ( #52 ) ) ;
#158 = CYLINDRICAL_SURFACE ( 'NONE', #28, 3.250000000000000444 ) ;
#159 = APPLICATION_PROTOCOL_DEFINITION ( 'international standard', 'config_control_design', 1994, #80 ) ;
#160 = ADVANCED_FACE ( 'NONE', ( #164, #25 ), #139, .T. ) ;
#161 = CIRCLE ( 'NONE', #362, 8.000000000000000000 ) ;
#162 = AXIS2_PLACEMENT_3D ( 'NONE', #13, #189, #335 ) ;
#163 = LINE ( 'NONE', #110, #66 ) ;
#164 = FACE_BOUND ( 'NONE', #30, .T. ) ;
#165 = EDGE_CURVE ( 'NONE', #297, #91, #234, .T. ) ;
#166 = CYLINDRICAL_SURFACE ( 'NONE', #77, 8.000000000000000000 ) ;
#167 = ORIENTED_EDGE ( 'NONE', *, *, #31, .F. ) ;
#168 = AXIS2_PLACEMENT_3D ( 'NONE', #368, #185, #155 ) ;
#169 = CARTESIAN_POINT ( 'NONE',  ( 0.000000000000000000, 0.000000000000000000, 5.000000000000000000 ) ) ;
#170 = AXIS2_PLACEMENT_3D ( 'NONE', #219, #135, #75 ) ;
#171 = CARTESIAN_POINT ( 'NONE',  ( 0.000000000000000000, 0.000000000000000000, 0.000000000000000000 ) ) ;
#172 = EDGE_LOOP ( 'NONE', ( #205, #96, #60, #358 ) ) ;
#173 = VERTEX_POINT ( 'NONE', #33 ) ;
#174 = AXIS2_PLACEMENT_3D ( 'NONE', #293, #230, #298 ) ;
#175 = CYLINDRICAL_SURFACE ( 'NONE', #174, 3.250000000000000444 ) ;
#176 = ORIENTED_EDGE ( 'NONE', *, *, #68, .T. ) ;
#177 = DIRECTION ( 'NONE',  ( -0.000000000000000000, -0.000000000000000000, -1.000000000000000000 ) ) ;
#178 = ORIENTED_EDGE ( 'NONE', *, *, #46, .T. ) ;
#179 = CARTESIAN_POINT ( 'NONE',  ( 3.250000000000000444, 3.980102097228898231E-16, 0.000000000000000000 ) ) ;
#180 = ORIENTED_EDGE ( 'NONE', *, *, #31, .T. ) ;
#181 = EDGE_CURVE ( 'NONE', #150, #63, #95, .T. ) ;
#182 = PERSON_AND_ORGANIZATION ( #132, #198 ) ;
#183 = CIRCLE ( 'NONE', #370, 5.000000000000000000 ) ;
#184 = PERSON_AND_ORGANIZATION_ROLE ( 'design_supplier' ) ;
#185 = DIRECTION ( 'NONE',  ( 0.000000000000000000, 0.000000000000000000, 1.000000000000000000 ) ) ;
#186 = APPROVAL ( #14, 'NEURÈENÝ' ) ;
#187 = APPROVAL_DATE_TIME ( #12, #255 ) ;
#188 =( LENGTH_UNIT ( ) NAMED_UNIT ( * ) SI_UNIT ( .MILLI., .METRE. ) );
#189 = DIRECTION ( 'NONE',  ( 0.000000000000000000, -1.000000000000000000, 0.000000000000000000 ) ) ;
#190 = CC_DESIGN_PERSON_AND_ORGANIZATION_ASSIGNMENT ( #241, #301, ( #355 ) ) ;
#191 = DIRECTION ( 'NONE',  ( 0.000000000000000000, 0.000000000000000000, 1.000000000000000000 ) ) ;
#192 = AXIS2_PLACEMENT_3D ( 'NONE', #347, #90, #62 ) ;
#193 = AXIS2_PLACEMENT_3D ( 'NONE', #18, #130, #246 ) ;
#194 = DIRECTION ( 'NONE',  ( -1.000000000000000000, 0.000000000000000000, 0.000000000000000000 ) ) ;
#195 = MANIFOLD_SOLID_BREP ( 'Odebrat vysunutím3', #40 ) ;
#196 = CARTESIAN_POINT ( 'NONE',  ( 3.250000000000000444, 3.980102097228898231E-16, 280.0000000000000000 ) ) ;
#197 = ORIENTED_EDGE ( 'NONE', *, *, #233, .F. ) ;
#198 = ORGANIZATION ( 'NEURÈENÝ', 'NEURÈENÝ', '' ) ;
#199 = DIRECTION ( 'NONE',  ( -0.000000000000000000, -0.000000000000000000, -1.000000000000000000 ) ) ;
#200 = DIRECTION ( 'NONE',  ( 0.000000000000000000, 0.000000000000000000, 1.000000000000000000 ) ) ;
#201 = EDGE_LOOP ( 'NONE', ( #323, #343, #215, #326 ) ) ;
#202 = CARTESIAN_POINT ( 'NONE',  ( 0.000000000000000000, 0.000000000000000000, 280.0000000000000000 ) ) ;
#203 = ORIENTED_EDGE ( 'NONE', *, *, #15, .F. ) ;
#204 = DIRECTION ( 'NONE',  ( 1.000000000000000000, 0.000000000000000000, 0.000000000000000000 ) ) ;
#205 = ORIENTED_EDGE ( 'NONE', *, *, #154, .F. ) ;
#206 = FACE_OUTER_BOUND ( 'NONE', #299, .T. ) ;
#207 = ORIENTED_EDGE ( 'NONE', *, *, #83, .T. ) ;
#208 = CARTESIAN_POINT ( 'NONE',  ( -8.000000000000000000, 0.000000000000000000, 5.000000000000000000 ) ) ;
#209 = ORIENTED_EDGE ( 'NONE', *, *, #137, .T. ) ;
#210 = APPROVAL_ROLE ( '' ) ;
#211 = VECTOR ( 'NONE', #356, 1000.000000000000000 ) ;
#212 = DIRECTION ( 'NONE',  ( 1.000000000000000000, 0.000000000000000000, 0.000000000000000000 ) ) ;
#213 = ADVANCED_FACE ( 'NONE', ( #61 ), #120, .T. ) ;
#214 = COORDINATED_UNIVERSAL_TIME_OFFSET ( 1, 0, .AHEAD. ) ;
#215 = ORIENTED_EDGE ( 'NONE', *, *, #123, .T. ) ;
#216 = COORDINATED_UNIVERSAL_TIME_OFFSET ( 1, 0, .AHEAD. ) ;
#217 = ORIENTED_EDGE ( 'NONE', *, *, #68, .F. ) ;
#218 = DATE_AND_TIME ( #366, #67 ) ;
#219 = CARTESIAN_POINT ( 'NONE',  ( 0.000000000000000000, 0.000000000000000000, 280.0000000000000000 ) ) ;
#220 = CC_DESIGN_DATE_AND_TIME_ASSIGNMENT ( #134, #74, ( #306 ) ) ;
#221 = TOROIDAL_SURFACE ( 'NONE', #292, 5.500000000000000000, 0.5000000000000000000 ) ;
#222 = AXIS2_PLACEMENT_3D ( 'NONE', #223, #365, #336 ) ;
#223 = CARTESIAN_POINT ( 'NONE',  ( 0.000000000000000000, 0.000000000000000000, 0.000000000000000000 ) ) ;
#224 = DIRECTION ( 'NONE',  ( 0.000000000000000000, 0.000000000000000000, -1.000000000000000000 ) ) ;
#225 = CC_DESIGN_SECURITY_CLASSIFICATION ( #355, ( #16 ) ) ;
#226 = DIRECTION ( 'NONE',  ( 1.000000000000000000, 0.000000000000000000, 0.000000000000000000 ) ) ;
#227 = DIRECTION ( 'NONE',  ( 0.000000000000000000, 0.000000000000000000, -1.000000000000000000 ) ) ;
#228 = VECTOR ( 'NONE', #29, 1000.000000000000000 ) ;
#229 = APPROVAL_PERSON_ORGANIZATION ( #131, #295, #247 ) ;
#230 = DIRECTION ( 'NONE',  ( 0.000000000000000000, 0.000000000000000000, -1.000000000000000000 ) ) ;
#231 = CIRCLE ( 'NONE', #69, 5.500000000000000000 ) ;
#232 = EDGE_LOOP ( 'NONE', ( #270, #144 ) ) ;
#233 = EDGE_CURVE ( 'NONE', #91, #63, #161, .T. ) ;
#234 = LINE ( 'NONE', #237, #76 ) ;
#235 = CARTESIAN_POINT ( 'NONE',  ( 0.000000000000000000, 0.000000000000000000, 280.0000000000000000 ) ) ;
#236 = VERTEX_POINT ( 'NONE', #296 ) ;
#237 = CARTESIAN_POINT ( 'NONE',  ( -8.000000000000000000, 0.000000000000000000, 5.000000000000000000 ) ) ;
#238 = VECTOR ( 'NONE', #227, 1000.000000000000000 ) ;
#239 = CALENDAR_DATE ( 2022, 8, 7 ) ;
#240 = CARTESIAN_POINT ( 'NONE',  ( 8.000000000000000000, 9.797174393178825657E-16, 0.000000000000000000 ) ) ;
#241 = PERSON_AND_ORGANIZATION ( #132, #198 ) ;
#242 = TOROIDAL_SURFACE ( 'NONE', #380, 5.500000000000000000, 0.5000000000000000000 ) ;
#243 = CC_DESIGN_APPROVAL ( #295, ( #355 ) ) ;
#244 = ORIENTED_EDGE ( 'NONE', *, *, #37, .T. ) ;
#245 =( NAMED_UNIT ( * ) PLANE_ANGLE_UNIT ( ) SI_UNIT ( $, .RADIAN. ) );
#246 = DIRECTION ( 'NONE',  ( 1.000000000000000000, 0.000000000000000000, 0.000000000000000000 ) ) ;
#247 = APPROVAL_ROLE ( '' ) ;
#248 = DIRECTION ( 'NONE',  ( 1.224646799147353207E-16, 1.000000000000000000, -0.000000000000000000 ) ) ;
#249 = APPROVAL_DATE_TIME ( #101, #186 ) ;
#250 = CARTESIAN_POINT ( 'NONE',  ( 0.000000000000000000, 0.000000000000000000, 0.000000000000000000 ) ) ;
#251 = AXIS2_PLACEMENT_3D ( 'NONE', #133, #248, #367 ) ;
#252 = CARTESIAN_POINT ( 'NONE',  ( -8.000000000000000000, 0.000000000000000000, 0.000000000000000000 ) ) ;
#253 = CARTESIAN_POINT ( 'NONE',  ( 0.000000000000000000, 0.000000000000000000, 5.000000000000000000 ) ) ;
#254 = ORIENTED_EDGE ( 'NONE', *, *, #42, .T. ) ;
#255 = APPROVAL ( #17, 'NEURÈENÝ' ) ;
#256 = DIRECTION ( 'NONE',  ( 0.000000000000000000, 0.000000000000000000, 1.000000000000000000 ) ) ;
#257 = AXIS2_PLACEMENT_3D ( 'NONE', #145, #148, #87 ) ;
#258 = DIRECTION ( 'NONE',  ( 1.000000000000000000, 0.000000000000000000, 0.000000000000000000 ) ) ;
#259 = CARTESIAN_POINT ( 'NONE',  ( 0.000000000000000000, 0.000000000000000000, 5.500000000000005329 ) ) ;
#260 = LINE ( 'NONE', #56, #2 ) ;
#261 = AXIS2_PLACEMENT_3D ( 'NONE', #291, #177, #143 ) ;
#262 = DIRECTION ( 'NONE',  ( 0.000000000000000000, 0.000000000000000000, 1.000000000000000000 ) ) ;
#263 = EDGE_LOOP ( 'NONE', ( #203, #128 ) ) ;
#264 = DIRECTION ( 'NONE',  ( -0.000000000000000000, -0.000000000000000000, -1.000000000000000000 ) ) ;
#265 = EDGE_CURVE ( 'NONE', #65, #118, #268, .T. ) ;
#266 = DIRECTION ( 'NONE',  ( 1.000000000000000000, 0.000000000000000000, -0.000000000000000000 ) ) ;
#267 = ORIENTED_EDGE ( 'NONE', *, *, #83, .F. ) ;
#268 = CIRCLE ( 'NONE', #192, 3.250000000000000444 ) ;
#269 = DIRECTION ( 'NONE',  ( -0.000000000000000000, -0.000000000000000000, -1.000000000000000000 ) ) ;
#270 = ORIENTED_EDGE ( 'NONE', *, *, #345, .F. ) ;
#271 = ADVANCED_FACE ( 'NONE', ( #142, #357 ), #351, .F. ) ;
#272 = DIRECTION ( 'NONE',  ( 0.000000000000000000, 0.000000000000000000, -1.000000000000000000 ) ) ;
#273 = PERSON_AND_ORGANIZATION_ROLE ( 'creator' ) ;
#274 = APPROVAL_STATUS ( 'not_yet_approved' ) ;
#275 = EDGE_LOOP ( 'NONE', ( #305, #122, #313, #58 ) ) ;
#276 = EDGE_CURVE ( 'NONE', #236, #127, #156, .T. ) ;
#277 = COORDINATED_UNIVERSAL_TIME_OFFSET ( 1, 0, .AHEAD. ) ;
#278 = CARTESIAN_POINT ( 'NONE',  ( 3.250000000000000444, 3.980102097228898231E-16, 280.0000000000000000 ) ) ;
#279 = PERSON_AND_ORGANIZATION_ROLE ( 'design_owner' ) ;
#280 = ORIENTED_EDGE ( 'NONE', *, *, #345, .T. ) ;
#281 = FACE_OUTER_BOUND ( 'NONE', #172, .T. ) ;
#282 = CARTESIAN_POINT ( 'NONE',  ( -5.500000000000000000, 6.735557395310442023E-16, 5.000000000000002665 ) ) ;
#283 = EDGE_CURVE ( 'NONE', #342, #173, #107, .T. ) ;
#284 = APPROVAL_DATE_TIME ( #218, #295 ) ;
#285 = LINE ( 'NONE', #26, #228 ) ;
#286 = AXIS2_PLACEMENT_3D ( 'NONE', #369, #153, #45 ) ;
#287 = CYLINDRICAL_SURFACE ( 'NONE', #23, 8.000000000000000000 ) ;
#288 = ORIENTED_EDGE ( 'NONE', *, *, #359, .T. ) ;
#289 = DIRECTION ( 'NONE',  ( 0.000000000000000000, 0.000000000000000000, 1.000000000000000000 ) ) ;
#290 = VERTEX_POINT ( 'NONE', #7 ) ;
#291 = CARTESIAN_POINT ( 'NONE',  ( 0.000000000000000000, 0.000000000000000000, 280.0000000000000000 ) ) ;
#292 = AXIS2_PLACEMENT_3D ( 'NONE', #259, #339, #51 ) ;
#293 = CARTESIAN_POINT ( 'NONE',  ( 0.000000000000000000, 0.000000000000000000, 280.0000000000000000 ) ) ;
#294 = EDGE_LOOP ( 'NONE', ( #93, #288, #207, #378 ) ) ;
#295 = APPROVAL ( #274, 'NEURÈENÝ' ) ;
#296 = CARTESIAN_POINT ( 'NONE',  ( 5.500000000000000000, 0.000000000000000000, 5.000000000000002665 ) ) ;
#297 = VERTEX_POINT ( 'NONE', #208 ) ;
#298 = DIRECTION ( 'NONE',  ( -1.000000000000000000, 0.000000000000000000, 0.000000000000000000 ) ) ;
#299 = EDGE_LOOP ( 'NONE', ( #178, #321 ) ) ;
#300 =( NAMED_UNIT ( * ) SI_UNIT ( $, .STERADIAN. ) SOLID_ANGLE_UNIT ( ) );
#301 = PERSON_AND_ORGANIZATION_ROLE ( 'classification_officer' ) ;
#302 = SECURITY_CLASSIFICATION_LEVEL ( 'unclassified' ) ;
#303 = ORIENTED_EDGE ( 'NONE', *, *, #137, .F. ) ;
#304 = CARTESIAN_POINT ( 'NONE',  ( 5.000000000000000000, 6.123233995736766282E-16, 5.500000000000005329 ) ) ;
#305 = ORIENTED_EDGE ( 'NONE', *, *, #359, .F. ) ;
#306 = PRODUCT_DEFINITION ( 'NEZNÁMÝ', '', #16, #108 ) ;
#307 = LOCAL_TIME ( 16, 46, 2.000000000000000000, #216 ) ;
#308 = CIRCLE ( 'NONE', #193, 8.000000000000000000 ) ;
#309 = DIRECTION ( 'NONE',  ( 1.000000000000000000, 0.000000000000000000, 0.000000000000000000 ) ) ;
#310 = VERTEX_POINT ( 'NONE', #179 ) ;
#311 = UNCERTAINTY_MEASURE_WITH_UNIT (LENGTH_MEASURE( 1.000000000000000082E-05 ), #188, 'distance_accuracy_value', 'NONE');
#312 = DIRECTION ( 'NONE',  ( -0.000000000000000000, -0.000000000000000000, -1.000000000000000000 ) ) ;
#313 = ORIENTED_EDGE ( 'NONE', *, *, #115, .T. ) ;
#314 = EDGE_LOOP ( 'NONE', ( #197, #24 ) ) ;
#315 =( GEOMETRIC_REPRESENTATION_CONTEXT ( 3 ) GLOBAL_UNCERTAINTY_ASSIGNED_CONTEXT ( ( #311 ) ) GLOBAL_UNIT_ASSIGNED_CONTEXT ( ( #188, #245, #300 ) ) REPRESENTATION_CONTEXT ( 'NONE', 'WORKASPACE' ) );
#316 = CARTESIAN_POINT ( 'NONE',  ( 0.000000000000000000, 0.000000000000000000, 5.500000000000005329 ) ) ;
#317 = DIRECTION ( 'NONE',  ( 1.000000000000000000, 0.000000000000000000, 0.000000000000000000 ) ) ;
#318 = DIRECTION ( 'NONE',  ( 1.000000000000000000, 0.000000000000000000, 0.000000000000000000 ) ) ;
#319 = CC_DESIGN_APPROVAL ( #186, ( #16 ) ) ;
#320 = DIRECTION ( 'NONE',  ( 0.000000000000000000, 0.000000000000000000, 1.000000000000000000 ) ) ;
#321 = ORIENTED_EDGE ( 'NONE', *, *, #283, .T. ) ;
#322 = CARTESIAN_POINT ( 'NONE',  ( 0.000000000000000000, 0.000000000000000000, 280.0000000000000000 ) ) ;
#323 = ORIENTED_EDGE ( 'NONE', *, *, #97, .F. ) ;
#324 = CC_DESIGN_PERSON_AND_ORGANIZATION_ASSIGNMENT ( #70, #184, ( #16 ) ) ;
#325 = APPLICATION_PROTOCOL_DEFINITION ( 'international standard', 'config_control_design', 1994, #104 ) ;
#326 = ORIENTED_EDGE ( 'NONE', *, *, #15, .T. ) ;
#327 = AXIS2_PLACEMENT_3D ( 'NONE', #353, #320, #379 ) ;
#328 = CIRCLE ( 'NONE', #136, 5.000000000000000000 ) ;
#329 = CARTESIAN_POINT ( 'NONE',  ( 0.000000000000000000, 0.000000000000000000, 280.0000000000000000 ) ) ;
#330 = DATE_TIME_ROLE ( 'classification_date' ) ;
#331 = FACE_OUTER_BOUND ( 'NONE', #54, .T. ) ;
#332 = COORDINATED_UNIVERSAL_TIME_OFFSET ( 1, 0, .AHEAD. ) ;
#333 = DIRECTION ( 'NONE',  ( 0.000000000000000000, 0.000000000000000000, 1.000000000000000000 ) ) ;
#334 = AXIS2_PLACEMENT_3D ( 'NONE', #235, #264, #5 ) ;
#335 = DIRECTION ( 'NONE',  ( 0.000000000000000000, 0.000000000000000000, -1.000000000000000000 ) ) ;
#336 = DIRECTION ( 'NONE',  ( 1.000000000000000000, 0.000000000000000000, 0.000000000000000000 ) ) ;
#337 = CC_DESIGN_PERSON_AND_ORGANIZATION_ASSIGNMENT ( #102, #279, ( #52 ) ) ;
#338 = SHAPE_DEFINITION_REPRESENTATION ( #375, #94 ) ;
#339 = DIRECTION ( 'NONE',  ( 0.000000000000000000, 0.000000000000000000, 1.000000000000000000 ) ) ;
#340 = CIRCLE ( 'NONE', #344, 3.250000000000000444 ) ;
#341 = CARTESIAN_POINT ( 'NONE',  ( 0.000000000000000000, 0.000000000000000000, 5.000000000000000000 ) ) ;
#342 = VERTEX_POINT ( 'NONE', #124 ) ;
#343 = ORIENTED_EDGE ( 'NONE', *, *, #265, .T. ) ;
#344 = AXIS2_PLACEMENT_3D ( 'NONE', #38, #200, #317 ) ;
#345 = EDGE_CURVE ( 'NONE', #118, #65, #340, .T. ) ;
#346 = CIRCLE ( 'NONE', #162, 0.5000000000000004441 ) ;
#347 = CARTESIAN_POINT ( 'NONE',  ( 0.000000000000000000, 0.000000000000000000, 280.0000000000000000 ) ) ;
#348 = EDGE_LOOP ( 'NONE', ( #381, #267, #176, #303 ) ) ;
#349 = ADVANCED_FACE ( 'NONE', ( #92, #206 ), #146, .T. ) ;
#350 = ADVANCED_FACE ( 'NONE', ( #59 ), #175, .F. ) ;
#351 = PLANE ( 'NONE',  #327 ) ;
#352 = ORIENTED_EDGE ( 'NONE', *, *, #97, .T. ) ;
#353 = CARTESIAN_POINT ( 'NONE',  ( 0.000000000000000000, 0.000000000000000000, 0.000000000000000000 ) ) ;
#354 = EDGE_LOOP ( 'NONE', ( #180, #86 ) ) ;
#355 = SECURITY_CLASSIFICATION ( '', '', #302 ) ;
#356 = DIRECTION ( 'NONE',  ( -0.000000000000000000, -0.000000000000000000, -1.000000000000000000 ) ) ;
#357 = FACE_OUTER_BOUND ( 'NONE', #314, .T. ) ;
#358 = ORIENTED_EDGE ( 'NONE', *, *, #165, .F. ) ;
#359 = EDGE_CURVE ( 'NONE', #342, #71, #260, .T. ) ;
#360 = PERSON_AND_ORGANIZATION ( #132, #198 ) ;
#361 = DIRECTION ( 'NONE',  ( 0.000000000000000000, 0.000000000000000000, 1.000000000000000000 ) ) ;
#362 = AXIS2_PLACEMENT_3D ( 'NONE', #171, #121, #318 ) ;
#363 = PERSON_AND_ORGANIZATION_ROLE ( 'creator' ) ;
#364 = MECHANICAL_CONTEXT ( 'NONE', #80, 'mechanical' ) ;
#365 = DIRECTION ( 'NONE',  ( -0.000000000000000000, -0.000000000000000000, -1.000000000000000000 ) ) ;
#366 = CALENDAR_DATE ( 2022, 8, 7 ) ;
#367 = DIRECTION ( 'NONE',  ( -1.000000000000000000, 1.224646799147351482E-16, 0.000000000000000000 ) ) ;
#368 = CARTESIAN_POINT ( 'NONE',  ( 0.000000000000000000, 0.000000000000000000, 0.000000000000000000 ) ) ;
#369 = CARTESIAN_POINT ( 'NONE',  ( 0.000000000000000000, 0.000000000000000000, 0.000000000000000000 ) ) ;
#370 = AXIS2_PLACEMENT_3D ( 'NONE', #22, #116, #226 ) ;
#371 = DIRECTION ( 'NONE',  ( -1.000000000000000000, 0.000000000000000000, 0.000000000000000000 ) ) ;
#372 = CARTESIAN_POINT ( 'NONE',  ( 8.000000000000000000, 9.797174393178825657E-16, 5.000000000000000000 ) ) ;
#373 = EDGE_LOOP ( 'NONE', ( #280, #352, #244, #43 ) ) ;
#374 = ADVANCED_FACE ( 'NONE', ( #35 ), #10, .T. ) ;
#375 = PRODUCT_DEFINITION_SHAPE ( 'NONE', 'NONE',  #306 ) ;
#376 = LOCAL_TIME ( 16, 46, 2.000000000000000000, #332 ) ;
#377 = CARTESIAN_POINT ( 'NONE',  ( 0.000000000000000000, 0.000000000000000000, 5.000000000000000000 ) ) ;
#378 = ORIENTED_EDGE ( 'NONE', *, *, #115, .F. ) ;
#379 = DIRECTION ( 'NONE',  ( 1.000000000000000000, 0.000000000000000000, -0.000000000000000000 ) ) ;
#380 = AXIS2_PLACEMENT_3D ( 'NONE', #73, #333, #212 ) ;
#381 = ORIENTED_EDGE ( 'NONE', *, *, #42, .F. ) ;
ENDSEC;
END-ISO-10303-21;
