ISO-10303-21;
HEADER;
FILE_DESCRIPTION (( 'STEP AP203' ),
    '1' );
FILE_NAME ('b124.STEP',
    '2022-07-08T15:11:53',
    ( '' ),
    ( '' ),
    'SwSTEP 2.0',
    'SolidWorks 2019',
    '' );
FILE_SCHEMA (( 'CONFIG_CONTROL_DESIGN' ));
ENDSEC;

DATA;
#1 = CIRCLE ( 'NONE', #99, 6.000000000000000888 ) ;
#2 = APPLICATION_PROTOCOL_DEFINITION ( 'international standard', 'config_control_design', 1994, #218 ) ;
#3 = DIRECTION ( 'NONE',  ( 1.000000000000000000, 0.000000000000000000, 0.000000000000000000 ) ) ;
#4 = CYLINDRICAL_SURFACE ( 'NONE', #199, 10.00000000000000000 ) ;
#5 = DIRECTION ( 'NONE',  ( -1.000000000000000000, 0.000000000000000000, 0.000000000000000000 ) ) ;
#6 = ADVANCED_FACE ( 'NONE', ( #174, #80 ), #317, .T. ) ;
#7 = CARTESIAN_POINT ( 'NONE',  ( 6.000000000000000888, 7.347880794884120722E-16, 407.0000000000000000 ) ) ;
#8 = CARTESIAN_POINT ( 'NONE',  ( -2.500000000000000000, 0.000000000000000000, 407.0000000000000000 ) ) ;
#9 = TOROIDAL_SURFACE ( 'NONE', #252, 6.500000000000000888, 0.5000000000000000000 ) ;
#10 = EDGE_CURVE ( 'NONE', #115, #132, #173, .T. ) ;
#11 = DIRECTION ( 'NONE',  ( -0.000000000000000000, -0.000000000000000000, -1.000000000000000000 ) ) ;
#12 = DIRECTION ( 'NONE',  ( 1.000000000000000000, 0.000000000000000000, 0.000000000000000000 ) ) ;
#13 = CIRCLE ( 'NONE', #303, 6.500000000000000888 ) ;
#14 = DIRECTION ( 'NONE',  ( 0.000000000000000000, 0.000000000000000000, 1.000000000000000000 ) ) ;
#15 = ORIENTED_EDGE ( 'NONE', *, *, #172, .T. ) ;
#16 = CC_DESIGN_DATE_AND_TIME_ASSIGNMENT ( #21, #236, ( #302 ) ) ;
#17 = CARTESIAN_POINT ( 'NONE',  ( 6.000000000000000888, 7.347880794884120722E-16, 7.500000000000007105 ) ) ;
#18 =( NAMED_UNIT ( * ) PLANE_ANGLE_UNIT ( ) SI_UNIT ( $, .RADIAN. ) );
#19 = DIRECTION ( 'NONE',  ( 0.000000000000000000, 0.000000000000000000, 1.000000000000000000 ) ) ;
#20 = ORIENTED_EDGE ( 'NONE', *, *, #330, .T. ) ;
#21 = DATE_AND_TIME ( #349, #332 ) ;
#22 = LOCAL_TIME ( 17, 11, 53.00000000000000000, #57 ) ;
#23 = PERSON_AND_ORGANIZATION_ROLE ( 'classification_officer' ) ;
#24 = ORIENTED_EDGE ( 'NONE', *, *, #36, .F. ) ;
#25 = COORDINATED_UNIVERSAL_TIME_OFFSET ( 1, 0, .AHEAD. ) ;
#26 = DIRECTION ( 'NONE',  ( 1.000000000000000000, 0.000000000000000000, -0.000000000000000000 ) ) ;
#27 = ADVANCED_FACE ( 'NONE', ( #145 ), #235, .F. ) ;
#28 = PERSON_AND_ORGANIZATION_ROLE ( 'creator' ) ;
#29 = EDGE_LOOP ( 'NONE', ( #55, #282 ) ) ;
#30 = PERSON_AND_ORGANIZATION ( #102, #109 ) ;
#31 = ORIENTED_EDGE ( 'NONE', *, *, #258, .F. ) ;
#32 = EDGE_LOOP ( 'NONE', ( #251, #24 ) ) ;
#33 = ADVANCED_BREP_SHAPE_REPRESENTATION ( 'b124', ( #141, #154 ), #351 ) ;
#34 = AXIS2_PLACEMENT_3D ( 'NONE', #46, #77, #162 ) ;
#35 = CYLINDRICAL_SURFACE ( 'NONE', #182, 10.00000000000000000 ) ;
#36 = EDGE_CURVE ( 'NONE', #132, #200, #269, .T. ) ;
#37 = CARTESIAN_POINT ( 'NONE',  ( 0.000000000000000000, 0.000000000000000000, 0.000000000000000000 ) ) ;
#38 = CYLINDRICAL_SURFACE ( 'NONE', #168, 2.500000000000000000 ) ;
#39 = EDGE_CURVE ( 'NONE', #138, #165, #237, .T. ) ;
#40 = AXIS2_PLACEMENT_3D ( 'NONE', #248, #51, #314 ) ;
#41 = DIRECTION ( 'NONE',  ( 0.000000000000000000, 0.000000000000000000, 1.000000000000000000 ) ) ;
#42 = CIRCLE ( 'NONE', #92, 10.00000000000000000 ) ;
#43 = CARTESIAN_POINT ( 'NONE',  ( 0.000000000000000000, 0.000000000000000000, 7.500000000000007105 ) ) ;
#44 = CARTESIAN_POINT ( 'NONE',  ( 0.000000000000000000, 0.000000000000000000, 7.500000000000007105 ) ) ;
#45 = EDGE_CURVE ( 'NONE', #115, #347, #352, .T. ) ;
#46 = CARTESIAN_POINT ( 'NONE',  ( 0.000000000000000000, 0.000000000000000000, 407.0000000000000000 ) ) ;
#47 = DIRECTION ( 'NONE',  ( 1.000000000000000000, 0.000000000000000000, 0.000000000000000000 ) ) ;
#48 = ORIENTED_EDGE ( 'NONE', *, *, #39, .T. ) ;
#49 = PRODUCT_DEFINITION_SHAPE ( 'NONE', 'NONE',  #302 ) ;
#50 =( LENGTH_UNIT ( ) NAMED_UNIT ( * ) SI_UNIT ( .MILLI., .METRE. ) );
#51 = DIRECTION ( 'NONE',  ( 0.000000000000000000, -1.000000000000000000, 0.000000000000000000 ) ) ;
#52 = DIRECTION ( 'NONE',  ( 0.000000000000000000, 0.000000000000000000, 1.000000000000000000 ) ) ;
#53 = DIRECTION ( 'NONE',  ( 0.000000000000000000, 0.000000000000000000, 1.000000000000000000 ) ) ;
#54 = CALENDAR_DATE ( 2022, 8, 7 ) ;
#55 = ORIENTED_EDGE ( 'NONE', *, *, #312, .F. ) ;
#56 = ADVANCED_FACE ( 'NONE', ( #185 ), #35, .T. ) ;
#57 = COORDINATED_UNIVERSAL_TIME_OFFSET ( 1, 0, .AHEAD. ) ;
#58 = EDGE_LOOP ( 'NONE', ( #220, #15, #292, #311 ) ) ;
#59 = CARTESIAN_POINT ( 'NONE',  ( 0.000000000000000000, 0.000000000000000000, 407.0000000000000000 ) ) ;
#60 = AXIS2_PLACEMENT_3D ( 'NONE', #360, #120, #243 ) ;
#61 = ORIENTED_EDGE ( 'NONE', *, *, #312, .T. ) ;
#62 = AXIS2_PLACEMENT_3D ( 'NONE', #244, #333, #363 ) ;
#63 = EDGE_CURVE ( 'NONE', #119, #287, #286, .T. ) ;
#64 = DIRECTION ( 'NONE',  ( -0.000000000000000000, -0.000000000000000000, -1.000000000000000000 ) ) ;
#65 = DIRECTION ( 'NONE',  ( -1.000000000000000000, 0.000000000000000000, 0.000000000000000000 ) ) ;
#66 = CARTESIAN_POINT ( 'NONE',  ( 0.000000000000000000, 0.000000000000000000, 407.0000000000000000 ) ) ;
#67 = DIRECTION ( 'NONE',  ( 1.000000000000000000, 0.000000000000000000, 0.000000000000000000 ) ) ;
#68 = DIRECTION ( 'NONE',  ( -0.000000000000000000, -0.000000000000000000, -1.000000000000000000 ) ) ;
#69 = AXIS2_PLACEMENT_3D ( 'NONE', #59, #260, #294 ) ;
#70 = CARTESIAN_POINT ( 'NONE',  ( 0.000000000000000000, 0.000000000000000000, 7.000000000000000000 ) ) ;
#71 = ADVANCED_FACE ( 'NONE', ( #100 ), #155, .F. ) ;
#72 = CARTESIAN_POINT ( 'NONE',  ( -6.500000000000000888, 7.960204194457796463E-16, 7.500000000000007105 ) ) ;
#73 = CARTESIAN_POINT ( 'NONE',  ( -6.000000000000000888, 0.000000000000000000, 7.500000000000007105 ) ) ;
#74 = DIRECTION ( 'NONE',  ( -1.000000000000000000, 1.224646799147351482E-16, 0.000000000000000000 ) ) ;
#75 = AXIS2_PLACEMENT_3D ( 'NONE', #263, #53, #26 ) ;
#76 = EDGE_CURVE ( 'NONE', #287, #354, #152, .T. ) ;
#77 = DIRECTION ( 'NONE',  ( 0.000000000000000000, 0.000000000000000000, 1.000000000000000000 ) ) ;
#78 = EDGE_LOOP ( 'NONE', ( #379, #134, #178, #31 ) ) ;
#79 = PERSON_AND_ORGANIZATION ( #102, #109 ) ;
#80 = FACE_OUTER_BOUND ( 'NONE', #167, .T. ) ;
#81 = EDGE_CURVE ( 'NONE', #374, #354, #234, .T. ) ;
#82 = CALENDAR_DATE ( 2022, 8, 7 ) ;
#83 = ORIENTED_EDGE ( 'NONE', *, *, #76, .T. ) ;
#84 = CC_DESIGN_SECURITY_CLASSIFICATION ( #300, ( #209 ) ) ;
#85 = AXIS2_PLACEMENT_3D ( 'NONE', #149, #266, #3 ) ;
#86 = VERTEX_POINT ( 'NONE', #93 ) ;
#87 = CARTESIAN_POINT ( 'NONE',  ( 0.000000000000000000, 0.000000000000000000, 0.000000000000000000 ) ) ;
#88 = EDGE_LOOP ( 'NONE', ( #223, #297, #83, #205 ) ) ;
#89 = AXIS2_PLACEMENT_3D ( 'NONE', #137, #164, #128 ) ;
#90 = APPLICATION_PROTOCOL_DEFINITION ( 'international standard', 'config_control_design', 1994, #136 ) ;
#91 = ORIENTED_EDGE ( 'NONE', *, *, #153, .T. ) ;
#92 = AXIS2_PLACEMENT_3D ( 'NONE', #344, #131, #281 ) ;
#93 = CARTESIAN_POINT ( 'NONE',  ( -10.00000000000000000, 0.000000000000000000, 7.000000000000000000 ) ) ;
#94 = VECTOR ( 'NONE', #64, 1000.000000000000000 ) ;
#95 = DIRECTION ( 'NONE',  ( -0.000000000000000000, -0.000000000000000000, -1.000000000000000000 ) ) ;
#96 = CC_DESIGN_DATE_AND_TIME_ASSIGNMENT ( #259, #378, ( #300 ) ) ;
#97 = PLANE ( 'NONE',  #62 ) ;
#98 = FACE_BOUND ( 'NONE', #32, .T. ) ;
#99 = AXIS2_PLACEMENT_3D ( 'NONE', #216, #364, #12 ) ;
#100 = FACE_OUTER_BOUND ( 'NONE', #355, .T. ) ;
#101 = CARTESIAN_POINT ( 'NONE',  ( 0.000000000000000000, 0.000000000000000000, 7.000000000000000000 ) ) ;
#102 = PERSON ( 'NEURÈENÝ', 'NEURÈENÝ', 'NEURÈENÝ', ('NEURÈENÝ'), ('NEURÈENÝ'), ('NEURÈENÝ') ) ;
#103 = CC_DESIGN_PERSON_AND_ORGANIZATION_ASSIGNMENT ( #30, #144, ( #209 ) ) ;
#104 = CARTESIAN_POINT ( 'NONE',  ( -2.500000000000000000, 0.000000000000000000, 407.0000000000000000 ) ) ;
#105 = CARTESIAN_POINT ( 'NONE',  ( 6.500000000000000888, 0.000000000000000000, 7.000000000000002665 ) ) ;
#106 = DIRECTION ( 'NONE',  ( 0.000000000000000000, 0.000000000000000000, 1.000000000000000000 ) ) ;
#107 = ORIENTED_EDGE ( 'NONE', *, *, #63, .T. ) ;
#108 = CARTESIAN_POINT ( 'NONE',  ( -10.00000000000000000, 0.000000000000000000, 7.000000000000000000 ) ) ;
#109 = ORGANIZATION ( 'NEURÈENÝ', 'NEURÈENÝ', '' ) ;
#110 = ORIENTED_EDGE ( 'NONE', *, *, #369, .F. ) ;
#111 = PERSON_AND_ORGANIZATION ( #102, #109 ) ;
#112 = ORIENTED_EDGE ( 'NONE', *, *, #309, .F. ) ;
#113 = COORDINATED_UNIVERSAL_TIME_OFFSET ( 1, 0, .AHEAD. ) ;
#114 = ORIENTED_EDGE ( 'NONE', *, *, #320, .F. ) ;
#115 = VERTEX_POINT ( 'NONE', #362 ) ;
#116 = APPROVAL_DATE_TIME ( #380, #272 ) ;
#117 = EDGE_LOOP ( 'NONE', ( #147, #214, #373, #226 ) ) ;
#118 = APPROVAL_DATE_TIME ( #203, #211 ) ;
#119 = VERTEX_POINT ( 'NONE', #361 ) ;
#120 = DIRECTION ( 'NONE',  ( 0.000000000000000000, 0.000000000000000000, 1.000000000000000000 ) ) ;
#121 = CIRCLE ( 'NONE', #150, 2.500000000000000000 ) ;
#122 = ADVANCED_FACE ( 'NONE', ( #206 ), #38, .F. ) ;
#123 = DIRECTION ( 'NONE',  ( -0.000000000000000000, -0.000000000000000000, -1.000000000000000000 ) ) ;
#124 = AXIS2_PLACEMENT_3D ( 'NONE', #70, #370, #135 ) ;
#125 = DIRECTION ( 'NONE',  ( 0.000000000000000000, 0.000000000000000000, -1.000000000000000000 ) ) ;
#126 = CIRCLE ( 'NONE', #177, 0.5000000000000004441 ) ;
#127 = DIRECTION ( 'NONE',  ( 0.000000000000000000, 0.000000000000000000, 1.000000000000000000 ) ) ;
#128 = DIRECTION ( 'NONE',  ( -1.000000000000000000, 0.000000000000000000, 0.000000000000000000 ) ) ;
#129 = EDGE_CURVE ( 'NONE', #200, #132, #121, .T. ) ;
#130 = AXIS2_PLACEMENT_3D ( 'NONE', #278, #14, #253 ) ;
#131 = DIRECTION ( 'NONE',  ( 0.000000000000000000, 0.000000000000000000, 1.000000000000000000 ) ) ;
#132 = VERTEX_POINT ( 'NONE', #161 ) ;
#133 = DIRECTION ( 'NONE',  ( 1.000000000000000000, 0.000000000000000000, -0.000000000000000000 ) ) ;
#134 = ORIENTED_EDGE ( 'NONE', *, *, #369, .T. ) ;
#135 = DIRECTION ( 'NONE',  ( 1.000000000000000000, 0.000000000000000000, 0.000000000000000000 ) ) ;
#136 = APPLICATION_CONTEXT ( 'configuration controlled 3d designs of mechanical parts and assemblies' ) ;
#137 = CARTESIAN_POINT ( 'NONE',  ( 0.000000000000000000, 0.000000000000000000, 407.0000000000000000 ) ) ;
#138 = VERTEX_POINT ( 'NONE', #275 ) ;
#139 = MECHANICAL_CONTEXT ( 'NONE', #218, 'mechanical' ) ;
#140 = VECTOR ( 'NONE', #179, 1000.000000000000000 ) ;
#141 = MANIFOLD_SOLID_BREP ( 'Odebrat vysunutím3', #171 ) ;
#142 = ORIENTED_EDGE ( 'NONE', *, *, #343, .F. ) ;
#143 = ADVANCED_FACE ( 'NONE', ( #180 ), #298, .T. ) ;
#144 = PERSON_AND_ORGANIZATION_ROLE ( 'design_supplier' ) ;
#145 = FACE_OUTER_BOUND ( 'NONE', #117, .T. ) ;
#146 = CALENDAR_DATE ( 2022, 8, 7 ) ;
#147 = ORIENTED_EDGE ( 'NONE', *, *, #10, .F. ) ;
#148 = CALENDAR_DATE ( 2022, 8, 7 ) ;
#149 = CARTESIAN_POINT ( 'NONE',  ( 0.000000000000000000, 0.000000000000000000, 0.000000000000000000 ) ) ;
#150 = AXIS2_PLACEMENT_3D ( 'NONE', #37, #95, #329 ) ;
#151 = EDGE_LOOP ( 'NONE', ( #197, #20 ) ) ;
#152 = LINE ( 'NONE', #358, #94 ) ;
#153 = EDGE_CURVE ( 'NONE', #86, #138, #265, .T. ) ;
#154 = AXIS2_PLACEMENT_3D ( 'NONE', #87, #52, #319 ) ;
#155 = TOROIDAL_SURFACE ( 'NONE', #367, 6.500000000000000888, 0.5000000000000000000 ) ;
#156 = CARTESIAN_POINT ( 'NONE',  ( 0.000000000000000000, 0.000000000000000000, 407.0000000000000000 ) ) ;
#157 = VECTOR ( 'NONE', #125, 1000.000000000000000 ) ;
#158 = DIRECTION ( 'NONE',  ( -1.000000000000000000, 0.000000000000000000, 0.000000000000000000 ) ) ;
#159 = CARTESIAN_POINT ( 'NONE',  ( 0.000000000000000000, 0.000000000000000000, 7.500000000000007105 ) ) ;
#160 = ADVANCED_FACE ( 'NONE', ( #183 ), #4, .T. ) ;
#161 = CARTESIAN_POINT ( 'NONE',  ( 2.500000000000000000, 3.061616997868383141E-16, 0.000000000000000000 ) ) ;
#162 = DIRECTION ( 'NONE',  ( 1.000000000000000000, 0.000000000000000000, 0.000000000000000000 ) ) ;
#163 = AXIS2_PLACEMENT_3D ( 'NONE', #342, #246, #338 ) ;
#164 = DIRECTION ( 'NONE',  ( -0.000000000000000000, -0.000000000000000000, -1.000000000000000000 ) ) ;
#165 = VERTEX_POINT ( 'NONE', #271 ) ;
#166 = APPROVAL ( #175, 'NEURÈENÝ' ) ;
#167 = EDGE_LOOP ( 'NONE', ( #91, #247 ) ) ;
#168 = AXIS2_PLACEMENT_3D ( 'NONE', #335, #181, #158 ) ;
#169 = COORDINATED_UNIVERSAL_TIME_OFFSET ( 1, 0, .AHEAD. ) ;
#170 = PERSON_AND_ORGANIZATION ( #102, #109 ) ;
#171 = CLOSED_SHELL ( 'NONE', ( #122, #288, #268, #160, #56, #6, #190, #143, #215, #71, #27 ) ) ;
#172 = EDGE_CURVE ( 'NONE', #119, #374, #304, .T. ) ;
#173 = LINE ( 'NONE', #324, #222 ) ;
#174 = FACE_BOUND ( 'NONE', #151, .T. ) ;
#175 = APPROVAL_STATUS ( 'not_yet_approved' ) ;
#176 = VERTEX_POINT ( 'NONE', #242 ) ;
#177 = AXIS2_PLACEMENT_3D ( 'NONE', #72, #189, #74 ) ;
#178 = ORIENTED_EDGE ( 'NONE', *, *, #229, .F. ) ;
#179 = DIRECTION ( 'NONE',  ( -0.000000000000000000, -0.000000000000000000, -1.000000000000000000 ) ) ;
#180 = FACE_OUTER_BOUND ( 'NONE', #88, .T. ) ;
#181 = DIRECTION ( 'NONE',  ( 0.000000000000000000, 0.000000000000000000, -1.000000000000000000 ) ) ;
#182 = AXIS2_PLACEMENT_3D ( 'NONE', #306, #68, #65 ) ;
#183 = FACE_OUTER_BOUND ( 'NONE', #328, .T. ) ;
#184 = PRODUCT ( 'b124', 'b124', '', ( #139 ) ) ;
#185 = FACE_OUTER_BOUND ( 'NONE', #279, .T. ) ;
#186 = CIRCLE ( 'NONE', #34, 2.500000000000000000 ) ;
#187 = DIRECTION ( 'NONE',  ( 1.000000000000000000, 0.000000000000000000, 0.000000000000000000 ) ) ;
#188 = CARTESIAN_POINT ( 'NONE',  ( -10.00000000000000000, 0.000000000000000000, 0.000000000000000000 ) ) ;
#189 = DIRECTION ( 'NONE',  ( 1.224646799147353207E-16, 1.000000000000000000, -0.000000000000000000 ) ) ;
#190 = ADVANCED_FACE ( 'NONE', ( #98, #212 ), #97, .F. ) ;
#191 = EDGE_LOOP ( 'NONE', ( #142, #114 ) ) ;
#192 = PLANE ( 'NONE',  #296 ) ;
#193 = LOCAL_TIME ( 17, 11, 53.00000000000000000, #113 ) ;
#194 = EDGE_LOOP ( 'NONE', ( #61, #284, #350, #202 ) ) ;
#195 = EDGE_CURVE ( 'NONE', #347, #200, #273, .T. ) ;
#196 = PERSON_AND_ORGANIZATION_ROLE ( 'creator' ) ;
#197 = ORIENTED_EDGE ( 'NONE', *, *, #229, .T. ) ;
#198 = ORIENTED_EDGE ( 'NONE', *, *, #39, .F. ) ;
#199 = AXIS2_PLACEMENT_3D ( 'NONE', #208, #301, #5 ) ;
#200 = VERTEX_POINT ( 'NONE', #210 ) ;
#201 = PERSON_AND_ORGANIZATION ( #102, #109 ) ;
#202 = ORIENTED_EDGE ( 'NONE', *, *, #195, .F. ) ;
#203 = DATE_AND_TIME ( #148, #261 ) ;
#204 = AXIS2_PLACEMENT_3D ( 'NONE', #250, #219, #365 ) ;
#205 = ORIENTED_EDGE ( 'NONE', *, *, #224, .T. ) ;
#206 = FACE_OUTER_BOUND ( 'NONE', #194, .T. ) ;
#207 = CARTESIAN_POINT ( 'NONE',  ( 0.000000000000000000, 0.000000000000000000, 7.000000000000000000 ) ) ;
#208 = CARTESIAN_POINT ( 'NONE',  ( 0.000000000000000000, 0.000000000000000000, 7.000000000000000000 ) ) ;
#209 = PRODUCT_DEFINITION_FORMATION_WITH_SPECIFIED_SOURCE ( 'LIBOVOLNÝ', '', #184, .NOT_KNOWN. ) ;
#210 = CARTESIAN_POINT ( 'NONE',  ( -2.500000000000000000, 0.000000000000000000, 0.000000000000000000 ) ) ;
#211 = APPROVAL ( #264, 'NEURÈENÝ' ) ;
#212 = FACE_OUTER_BOUND ( 'NONE', #191, .T. ) ;
#213 = FACE_OUTER_BOUND ( 'NONE', #78, .T. ) ;
#214 = ORIENTED_EDGE ( 'NONE', *, *, #45, .T. ) ;
#215 = ADVANCED_FACE ( 'NONE', ( #336, #313 ), #192, .T. ) ;
#216 = CARTESIAN_POINT ( 'NONE',  ( 0.000000000000000000, 0.000000000000000000, 7.500000000000007105 ) ) ;
#217 = DIRECTION ( 'NONE',  ( -0.000000000000000000, -0.000000000000000000, -1.000000000000000000 ) ) ;
#218 = APPLICATION_CONTEXT ( 'configuration controlled 3d designs of mechanical parts and assemblies' ) ;
#219 = DIRECTION ( 'NONE',  ( -0.000000000000000000, -0.000000000000000000, -1.000000000000000000 ) ) ;
#220 = ORIENTED_EDGE ( 'NONE', *, *, #63, .F. ) ;
#221 = CC_DESIGN_APPROVAL ( #211, ( #302 ) ) ;
#222 = VECTOR ( 'NONE', #381, 1000.000000000000000 ) ;
#223 = ORIENTED_EDGE ( 'NONE', *, *, #172, .F. ) ;
#224 = EDGE_CURVE ( 'NONE', #354, #374, #1, .T. ) ;
#225 = PERSON_AND_ORGANIZATION ( #102, #109 ) ;
#226 = ORIENTED_EDGE ( 'NONE', *, *, #129, .T. ) ;
#227 = DATE_AND_TIME ( #82, #238 ) ;
#228 = ORIENTED_EDGE ( 'NONE', *, *, #320, .T. ) ;
#229 = EDGE_CURVE ( 'NONE', #323, #176, #13, .T. ) ;
#230 = PERSON_AND_ORGANIZATION ( #102, #109 ) ;
#231 = AXIS2_PLACEMENT_3D ( 'NONE', #66, #308, #239 ) ;
#232 = ORIENTED_EDGE ( 'NONE', *, *, #343, .T. ) ;
#233 = SHAPE_DEFINITION_REPRESENTATION ( #49, #33 ) ;
#234 = CIRCLE ( 'NONE', #241, 6.000000000000000888 ) ;
#235 = CYLINDRICAL_SURFACE ( 'NONE', #69, 2.500000000000000000 ) ;
#236 = DATE_TIME_ROLE ( 'creation_date' ) ;
#237 = LINE ( 'NONE', #357, #140 ) ;
#238 = LOCAL_TIME ( 17, 11, 53.00000000000000000, #25 ) ;
#239 = DIRECTION ( 'NONE',  ( 1.000000000000000000, 0.000000000000000000, 0.000000000000000000 ) ) ;
#240 = DIRECTION ( 'NONE',  ( 0.000000000000000000, 0.000000000000000000, 1.000000000000000000 ) ) ;
#241 = AXIS2_PLACEMENT_3D ( 'NONE', #159, #240, #187 ) ;
#242 = CARTESIAN_POINT ( 'NONE',  ( -6.500000000000000888, 7.960204194457796463E-16, 7.000000000000002665 ) ) ;
#243 = DIRECTION ( 'NONE',  ( 1.000000000000000000, 0.000000000000000000, 0.000000000000000000 ) ) ;
#244 = CARTESIAN_POINT ( 'NONE',  ( 0.000000000000000000, 0.000000000000000000, 0.000000000000000000 ) ) ;
#245 = CARTESIAN_POINT ( 'NONE',  ( 0.000000000000000000, 0.000000000000000000, 407.0000000000000000 ) ) ;
#246 = DIRECTION ( 'NONE',  ( 0.000000000000000000, 0.000000000000000000, 1.000000000000000000 ) ) ;
#247 = ORIENTED_EDGE ( 'NONE', *, *, #309, .T. ) ;
#248 = CARTESIAN_POINT ( 'NONE',  ( 6.500000000000000888, 0.000000000000000000, 7.500000000000007105 ) ) ;
#249 = AXIS2_PLACEMENT_3D ( 'NONE', #156, #11, #270 ) ;
#250 = CARTESIAN_POINT ( 'NONE',  ( 0.000000000000000000, 0.000000000000000000, 7.000000000000000000 ) ) ;
#251 = ORIENTED_EDGE ( 'NONE', *, *, #129, .F. ) ;
#252 = AXIS2_PLACEMENT_3D ( 'NONE', #44, #106, #345 ) ;
#253 = DIRECTION ( 'NONE',  ( 1.000000000000000000, 0.000000000000000000, 0.000000000000000000 ) ) ;
#254 = ORIENTED_EDGE ( 'NONE', *, *, #359, .F. ) ;
#255 = APPROVAL_ROLE ( '' ) ;
#256 = ORIENTED_EDGE ( 'NONE', *, *, #81, .F. ) ;
#257 = ORIENTED_EDGE ( 'NONE', *, *, #359, .T. ) ;
#258 = EDGE_CURVE ( 'NONE', #374, #323, #291, .T. ) ;
#259 = DATE_AND_TIME ( #54, #193 ) ;
#260 = DIRECTION ( 'NONE',  ( 0.000000000000000000, 0.000000000000000000, -1.000000000000000000 ) ) ;
#261 = LOCAL_TIME ( 17, 11, 53.00000000000000000, #169 ) ;
#262 = APPROVAL_ROLE ( '' ) ;
#263 = CARTESIAN_POINT ( 'NONE',  ( 0.000000000000000000, 0.000000000000000000, 7.000000000000000000 ) ) ;
#264 = APPROVAL_STATUS ( 'not_yet_approved' ) ;
#265 = CIRCLE ( 'NONE', #341, 10.00000000000000000 ) ;
#266 = DIRECTION ( 'NONE',  ( -0.000000000000000000, -0.000000000000000000, -1.000000000000000000 ) ) ;
#267 = EDGE_LOOP ( 'NONE', ( #377, #107 ) ) ;
#268 = ADVANCED_FACE ( 'NONE', ( #276 ), #310, .T. ) ;
#269 = CIRCLE ( 'NONE', #85, 2.500000000000000000 ) ;
#270 = DIRECTION ( 'NONE',  ( -1.000000000000000000, 0.000000000000000000, 0.000000000000000000 ) ) ;
#271 = CARTESIAN_POINT ( 'NONE',  ( 10.00000000000000000, 1.224646799147353256E-15, 0.000000000000000000 ) ) ;
#272 = APPROVAL ( #322, 'NEURÈENÝ' ) ;
#273 = LINE ( 'NONE', #8, #157 ) ;
#274 = DESIGN_CONTEXT ( 'detailed design', #136, 'design' ) ;
#275 = CARTESIAN_POINT ( 'NONE',  ( 10.00000000000000000, 1.224646799147353256E-15, 7.000000000000000000 ) ) ;
#276 = FACE_OUTER_BOUND ( 'NONE', #58, .T. ) ;
#277 = CIRCLE ( 'NONE', #204, 6.500000000000000888 ) ;
#278 = CARTESIAN_POINT ( 'NONE',  ( 0.000000000000000000, 0.000000000000000000, 0.000000000000000000 ) ) ;
#279 = EDGE_LOOP ( 'NONE', ( #198, #368, #257, #232 ) ) ;
#280 = CIRCLE ( 'NONE', #163, 6.000000000000000888 ) ;
#281 = DIRECTION ( 'NONE',  ( 1.000000000000000000, 0.000000000000000000, 0.000000000000000000 ) ) ;
#282 = ORIENTED_EDGE ( 'NONE', *, *, #45, .F. ) ;
#283 = COORDINATED_UNIVERSAL_TIME_OFFSET ( 1, 0, .AHEAD. ) ;
#284 = ORIENTED_EDGE ( 'NONE', *, *, #10, .T. ) ;
#285 = APPROVAL_PERSON_ORGANIZATION ( #225, #166, #346 ) ;
#286 = CIRCLE ( 'NONE', #231, 6.000000000000000888 ) ;
#287 = VERTEX_POINT ( 'NONE', #372 ) ;
#288 = ADVANCED_FACE ( 'NONE', ( #213 ), #9, .F. ) ;
#289 = ORIENTED_EDGE ( 'NONE', *, *, #258, .T. ) ;
#290 = APPROVAL_DATE_TIME ( #227, #166 ) ;
#291 = CIRCLE ( 'NONE', #40, 0.5000000000000004441 ) ;
#292 = ORIENTED_EDGE ( 'NONE', *, *, #81, .T. ) ;
#293 = CC_DESIGN_APPROVAL ( #166, ( #209 ) ) ;
#294 = DIRECTION ( 'NONE',  ( -1.000000000000000000, 0.000000000000000000, 0.000000000000000000 ) ) ;
#295 = EDGE_CURVE ( 'NONE', #287, #119, #280, .T. ) ;
#296 = AXIS2_PLACEMENT_3D ( 'NONE', #245, #19, #133 ) ;
#297 = ORIENTED_EDGE ( 'NONE', *, *, #295, .F. ) ;
#298 = CYLINDRICAL_SURFACE ( 'NONE', #249, 6.000000000000000888 ) ;
#299 = CIRCLE ( 'NONE', #130, 10.00000000000000000 ) ;
#300 = SECURITY_CLASSIFICATION ( '', '', #316 ) ;
#301 = DIRECTION ( 'NONE',  ( -0.000000000000000000, -0.000000000000000000, -1.000000000000000000 ) ) ;
#302 = PRODUCT_DEFINITION ( 'NEZNÁMÝ', '', #209, #274 ) ;
#303 = AXIS2_PLACEMENT_3D ( 'NONE', #101, #371, #47 ) ;
#304 = LINE ( 'NONE', #7, #305 ) ;
#305 = VECTOR ( 'NONE', #123, 1000.000000000000000 ) ;
#306 = CARTESIAN_POINT ( 'NONE',  ( 0.000000000000000000, 0.000000000000000000, 7.000000000000000000 ) ) ;
#307 = CIRCLE ( 'NONE', #124, 10.00000000000000000 ) ;
#308 = DIRECTION ( 'NONE',  ( 0.000000000000000000, 0.000000000000000000, 1.000000000000000000 ) ) ;
#309 = EDGE_CURVE ( 'NONE', #138, #86, #307, .T. ) ;
#310 = CYLINDRICAL_SURFACE ( 'NONE', #89, 6.000000000000000888 ) ;
#311 = ORIENTED_EDGE ( 'NONE', *, *, #76, .F. ) ;
#312 = EDGE_CURVE ( 'NONE', #347, #115, #186, .T. ) ;
#313 = FACE_OUTER_BOUND ( 'NONE', #267, .T. ) ;
#314 = DIRECTION ( 'NONE',  ( 0.000000000000000000, 0.000000000000000000, -1.000000000000000000 ) ) ;
#315 = VERTEX_POINT ( 'NONE', #188 ) ;
#316 = SECURITY_CLASSIFICATION_LEVEL ( 'unclassified' ) ;
#317 = PLANE ( 'NONE',  #75 ) ;
#318 = VECTOR ( 'NONE', #217, 1000.000000000000000 ) ;
#319 = DIRECTION ( 'NONE',  ( 1.000000000000000000, 0.000000000000000000, 0.000000000000000000 ) ) ;
#320 = EDGE_CURVE ( 'NONE', #165, #315, #299, .T. ) ;
#321 = ORIENTED_EDGE ( 'NONE', *, *, #330, .F. ) ;
#322 = APPROVAL_STATUS ( 'not_yet_approved' ) ;
#323 = VERTEX_POINT ( 'NONE', #105 ) ;
#324 = CARTESIAN_POINT ( 'NONE',  ( 2.500000000000000000, 3.061616997868383141E-16, 407.0000000000000000 ) ) ;
#325 = CC_DESIGN_PERSON_AND_ORGANIZATION_ASSIGNMENT ( #79, #196, ( #209 ) ) ;
#326 = APPROVAL_PERSON_ORGANIZATION ( #230, #272, #262 ) ;
#327 = PERSON_AND_ORGANIZATION_ROLE ( 'design_owner' ) ;
#328 = EDGE_LOOP ( 'NONE', ( #112, #48, #228, #254 ) ) ;
#329 = DIRECTION ( 'NONE',  ( 1.000000000000000000, 0.000000000000000000, 0.000000000000000000 ) ) ;
#330 = EDGE_CURVE ( 'NONE', #176, #323, #277, .T. ) ;
#331 = DIRECTION ( 'NONE',  ( 1.000000000000000000, 0.000000000000000000, 0.000000000000000000 ) ) ;
#332 = LOCAL_TIME ( 17, 11, 53.00000000000000000, #283 ) ;
#333 = DIRECTION ( 'NONE',  ( 0.000000000000000000, 0.000000000000000000, 1.000000000000000000 ) ) ;
#334 = UNCERTAINTY_MEASURE_WITH_UNIT (LENGTH_MEASURE( 1.000000000000000082E-05 ), #50, 'distance_accuracy_value', 'NONE');
#335 = CARTESIAN_POINT ( 'NONE',  ( 0.000000000000000000, 0.000000000000000000, 407.0000000000000000 ) ) ;
#336 = FACE_BOUND ( 'NONE', #29, .T. ) ;
#337 = CC_DESIGN_PERSON_AND_ORGANIZATION_ASSIGNMENT ( #201, #28, ( #302 ) ) ;
#338 = DIRECTION ( 'NONE',  ( 1.000000000000000000, 0.000000000000000000, 0.000000000000000000 ) ) ;
#339 = APPROVAL_PERSON_ORGANIZATION ( #376, #211, #255 ) ;
#340 = LINE ( 'NONE', #108, #318 ) ;
#341 = AXIS2_PLACEMENT_3D ( 'NONE', #207, #127, #331 ) ;
#342 = CARTESIAN_POINT ( 'NONE',  ( 0.000000000000000000, 0.000000000000000000, 407.0000000000000000 ) ) ;
#343 = EDGE_CURVE ( 'NONE', #315, #165, #42, .T. ) ;
#344 = CARTESIAN_POINT ( 'NONE',  ( 0.000000000000000000, 0.000000000000000000, 0.000000000000000000 ) ) ;
#345 = DIRECTION ( 'NONE',  ( 1.000000000000000000, 0.000000000000000000, 0.000000000000000000 ) ) ;
#346 = APPROVAL_ROLE ( '' ) ;
#347 = VERTEX_POINT ( 'NONE', #104 ) ;
#348 = CC_DESIGN_PERSON_AND_ORGANIZATION_ASSIGNMENT ( #111, #327, ( #184 ) ) ;
#349 = CALENDAR_DATE ( 2022, 8, 7 ) ;
#350 = ORIENTED_EDGE ( 'NONE', *, *, #36, .T. ) ;
#351 =( GEOMETRIC_REPRESENTATION_CONTEXT ( 3 ) GLOBAL_UNCERTAINTY_ASSIGNED_CONTEXT ( ( #334 ) ) GLOBAL_UNIT_ASSIGNED_CONTEXT ( ( #50, #18, #353 ) ) REPRESENTATION_CONTEXT ( 'NONE', 'WORKASPACE' ) );
#352 = CIRCLE ( 'NONE', #60, 2.500000000000000000 ) ;
#353 =( NAMED_UNIT ( * ) SI_UNIT ( $, .STERADIAN. ) SOLID_ANGLE_UNIT ( ) );
#354 = VERTEX_POINT ( 'NONE', #73 ) ;
#355 = EDGE_LOOP ( 'NONE', ( #110, #256, #289, #321 ) ) ;
#356 = CC_DESIGN_PERSON_AND_ORGANIZATION_ASSIGNMENT ( #170, #23, ( #300 ) ) ;
#357 = CARTESIAN_POINT ( 'NONE',  ( 10.00000000000000000, 1.224646799147353256E-15, 7.000000000000000000 ) ) ;
#358 = CARTESIAN_POINT ( 'NONE',  ( -6.000000000000000888, 0.000000000000000000, 407.0000000000000000 ) ) ;
#359 = EDGE_CURVE ( 'NONE', #86, #315, #340, .T. ) ;
#360 = CARTESIAN_POINT ( 'NONE',  ( 0.000000000000000000, 0.000000000000000000, 407.0000000000000000 ) ) ;
#361 = CARTESIAN_POINT ( 'NONE',  ( 6.000000000000000888, 7.347880794884120722E-16, 407.0000000000000000 ) ) ;
#362 = CARTESIAN_POINT ( 'NONE',  ( 2.500000000000000000, 3.061616997868383141E-16, 407.0000000000000000 ) ) ;
#363 = DIRECTION ( 'NONE',  ( 1.000000000000000000, 0.000000000000000000, -0.000000000000000000 ) ) ;
#364 = DIRECTION ( 'NONE',  ( 0.000000000000000000, 0.000000000000000000, 1.000000000000000000 ) ) ;
#365 = DIRECTION ( 'NONE',  ( 1.000000000000000000, 0.000000000000000000, 0.000000000000000000 ) ) ;
#366 = CC_DESIGN_APPROVAL ( #272, ( #300 ) ) ;
#367 = AXIS2_PLACEMENT_3D ( 'NONE', #43, #41, #67 ) ;
#368 = ORIENTED_EDGE ( 'NONE', *, *, #153, .F. ) ;
#369 = EDGE_CURVE ( 'NONE', #354, #176, #126, .T. ) ;
#370 = DIRECTION ( 'NONE',  ( 0.000000000000000000, 0.000000000000000000, 1.000000000000000000 ) ) ;
#371 = DIRECTION ( 'NONE',  ( -0.000000000000000000, -0.000000000000000000, -1.000000000000000000 ) ) ;
#372 = CARTESIAN_POINT ( 'NONE',  ( -6.000000000000000888, 0.000000000000000000, 407.0000000000000000 ) ) ;
#373 = ORIENTED_EDGE ( 'NONE', *, *, #195, .T. ) ;
#374 = VERTEX_POINT ( 'NONE', #17 ) ;
#375 = PRODUCT_RELATED_PRODUCT_CATEGORY ( 'detail', '', ( #184 ) ) ;
#376 = PERSON_AND_ORGANIZATION ( #102, #109 ) ;
#377 = ORIENTED_EDGE ( 'NONE', *, *, #295, .T. ) ;
#378 = DATE_TIME_ROLE ( 'classification_date' ) ;
#379 = ORIENTED_EDGE ( 'NONE', *, *, #224, .F. ) ;
#380 = DATE_AND_TIME ( #146, #22 ) ;
#381 = DIRECTION ( 'NONE',  ( 0.000000000000000000, 0.000000000000000000, -1.000000000000000000 ) ) ;
ENDSEC;
END-ISO-10303-21;
