ISO-10303-21;
HEADER;
FILE_DESCRIPTION (( 'STEP AP203' ),
    '1' );
FILE_NAME ('c7b7.STEP',
    '2022-07-08T15:49:12',
    ( '' ),
    ( '' ),
    'SwSTEP 2.0',
    'SolidWorks 2019',
    '' );
FILE_SCHEMA (( 'CONFIG_CONTROL_DESIGN' ));
ENDSEC;

DATA;
#1 = ADVANCED_FACE ( 'NONE', ( #128 ), #64, .F. ) ;
#2 = PERSON_AND_ORGANIZATION ( #85, #218 ) ;
#3 = ORIENTED_EDGE ( 'NONE', *, *, #279, .F. ) ;
#4 = AXIS2_PLACEMENT_3D ( 'NONE', #363, #160, #75 ) ;
#5 = CARTESIAN_POINT ( 'NONE',  ( 0.000000000000000000, 0.000000000000000000, 0.000000000000000000 ) ) ;
#6 = ORIENTED_EDGE ( 'NONE', *, *, #292, .F. ) ;
#7 = ADVANCED_FACE ( 'NONE', ( #10, #305 ), #158, .T. ) ;
#8 = VERTEX_POINT ( 'NONE', #148 ) ;
#9 = PERSON_AND_ORGANIZATION ( #85, #218 ) ;
#10 = FACE_BOUND ( 'NONE', #88, .T. ) ;
#11 = AXIS2_PLACEMENT_3D ( 'NONE', #268, #291, #141 ) ;
#12 = CARTESIAN_POINT ( 'NONE',  ( 0.000000000000000000, 0.000000000000000000, 403.0000000000000000 ) ) ;
#13 = DIRECTION ( 'NONE',  ( 0.000000000000000000, 0.000000000000000000, 1.000000000000000000 ) ) ;
#14 = CIRCLE ( 'NONE', #180, 1.100000000000000089 ) ;
#15 = CARTESIAN_POINT ( 'NONE',  ( 0.000000000000000000, 0.000000000000000000, 403.0000000000000000 ) ) ;
#16 = DIRECTION ( 'NONE',  ( 1.000000000000000000, 0.000000000000000000, 0.000000000000000000 ) ) ;
#17 = EDGE_CURVE ( 'NONE', #190, #139, #41, .T. ) ;
#18 = DIRECTION ( 'NONE',  ( 0.000000000000000000, 0.000000000000000000, -1.000000000000000000 ) ) ;
#19 = DIRECTION ( 'NONE',  ( 1.000000000000000000, 0.000000000000000000, 0.000000000000000000 ) ) ;
#20 = CIRCLE ( 'NONE', #30, 4.000000000000000000 ) ;
#21 = CARTESIAN_POINT ( 'NONE',  ( 0.000000000000000000, 0.000000000000000000, 3.300000000000025135 ) ) ;
#22 = ORIENTED_EDGE ( 'NONE', *, *, #279, .T. ) ;
#23 = CARTESIAN_POINT ( 'NONE',  ( 0.000000000000000000, 0.000000000000000000, 3.300000000000025135 ) ) ;
#24 = ORIENTED_EDGE ( 'NONE', *, *, #232, .F. ) ;
#25 = CARTESIAN_POINT ( 'NONE',  ( 0.000000000000000000, 0.000000000000000000, 3.000000000000000000 ) ) ;
#26 = ORIENTED_EDGE ( 'NONE', *, *, #208, .T. ) ;
#27 = TOROIDAL_SURFACE ( 'NONE', #223, 2.299999999999999822, 0.2999999999999999889 ) ;
#28 = CARTESIAN_POINT ( 'NONE',  ( 1.100000000000000089, 1.347111479062088503E-16, 0.000000000000000000 ) ) ;
#29 = APPLICATION_CONTEXT ( 'configuration controlled 3d designs of mechanical parts and assemblies' ) ;
#30 = AXIS2_PLACEMENT_3D ( 'NONE', #380, #170, #342 ) ;
#31 = APPROVAL_STATUS ( 'not_yet_approved' ) ;
#32 = ORIENTED_EDGE ( 'NONE', *, *, #365, .T. ) ;
#33 = AXIS2_PLACEMENT_3D ( 'NONE', #15, #283, #110 ) ;
#34 = PERSON_AND_ORGANIZATION_ROLE ( 'design_supplier' ) ;
#35 = VERTEX_POINT ( 'NONE', #106 ) ;
#36 = PERSON_AND_ORGANIZATION_ROLE ( 'creator' ) ;
#37 = EDGE_LOOP ( 'NONE', ( #375, #122 ) ) ;
#38 = AXIS2_PLACEMENT_3D ( 'NONE', #25, #374, #319 ) ;
#39 = ADVANCED_FACE ( 'NONE', ( #73 ), #254, .T. ) ;
#40 = PERSON_AND_ORGANIZATION ( #85, #218 ) ;
#41 = CIRCLE ( 'NONE', #238, 2.000000000000000000 ) ;
#42 = ORIENTED_EDGE ( 'NONE', *, *, #155, .F. ) ;
#43 = VERTEX_POINT ( 'NONE', #51 ) ;
#44 = LOCAL_TIME ( 17, 49, 12.00000000000000000, #147 ) ;
#45 = ADVANCED_FACE ( 'NONE', ( #311 ), #368, .T. ) ;
#46 = LINE ( 'NONE', #132, #344 ) ;
#47 = PLANE ( 'NONE',  #59 ) ;
#48 = DIRECTION ( 'NONE',  ( 0.000000000000000000, 0.000000000000000000, -1.000000000000000000 ) ) ;
#50 = EDGE_CURVE ( 'NONE', #325, #269, #46, .T. ) ;
#49 = AXIS2_PLACEMENT_3D ( 'NONE', #224, #78, #18 ) ;
#51 = CARTESIAN_POINT ( 'NONE',  ( 4.000000000000000000, 4.898587196589412829E-16, 0.000000000000000000 ) ) ;
#52 = DIRECTION ( 'NONE',  ( 1.000000000000000000, 0.000000000000000000, 0.000000000000000000 ) ) ;
#53 = EDGE_CURVE ( 'NONE', #56, #103, #326, .T. ) ;
#54 = CIRCLE ( 'NONE', #273, 1.100000000000000089 ) ;
#55 = CARTESIAN_POINT ( 'NONE',  ( 0.000000000000000000, 0.000000000000000000, 3.000000000000000000 ) ) ;
#56 = VERTEX_POINT ( 'NONE', #167 ) ;
#57 = DIRECTION ( 'NONE',  ( 0.000000000000000000, 0.000000000000000000, -1.000000000000000000 ) ) ;
#58 = DIRECTION ( 'NONE',  ( 1.000000000000000000, 0.000000000000000000, 0.000000000000000000 ) ) ;
#59 = AXIS2_PLACEMENT_3D ( 'NONE', #111, #258, #107 ) ;
#60 = CARTESIAN_POINT ( 'NONE',  ( 2.299999999999999822, 0.000000000000000000, 3.000000000000012434 ) ) ;
#61 = ORIENTED_EDGE ( 'NONE', *, *, #292, .T. ) ;
#62 = ORIENTED_EDGE ( 'NONE', *, *, #208, .F. ) ;
#63 = EDGE_CURVE ( 'NONE', #351, #43, #165, .T. ) ;
#64 = CYLINDRICAL_SURFACE ( 'NONE', #146, 1.100000000000000089 ) ;
#65 = DATE_TIME_ROLE ( 'creation_date' ) ;
#66 = DIRECTION ( 'NONE',  ( -1.000000000000000000, 0.000000000000000000, 0.000000000000000000 ) ) ;
#67 = APPROVAL_PERSON_ORGANIZATION ( #2, #298, #121 ) ;
#68 = SECURITY_CLASSIFICATION_LEVEL ( 'unclassified' ) ;
#69 = ORIENTED_EDGE ( 'NONE', *, *, #243, .F. ) ;
#70 = DATE_TIME_ROLE ( 'classification_date' ) ;
#71 = AXIS2_PLACEMENT_3D ( 'NONE', #194, #366, #338 ) ;
#72 = PRODUCT_DEFINITION ( 'NEZNÁMÝ', '', #249, #313 ) ;
#73 = FACE_OUTER_BOUND ( 'NONE', #96, .T. ) ;
#74 = CC_DESIGN_APPROVAL ( #183, ( #249 ) ) ;
#75 = DIRECTION ( 'NONE',  ( -1.000000000000000000, 1.224646799147353207E-16, 0.000000000000000000 ) ) ;
#76 = APPROVAL_DATE_TIME ( #98, #176 ) ;
#77 = DIRECTION ( 'NONE',  ( -0.000000000000000000, -0.000000000000000000, -1.000000000000000000 ) ) ;
#78 = DIRECTION ( 'NONE',  ( 0.000000000000000000, -1.000000000000000000, 0.000000000000000000 ) ) ;
#79 = CC_DESIGN_APPROVAL ( #176, ( #372 ) ) ;
#80 = CARTESIAN_POINT ( 'NONE',  ( -2.000000000000000000, 0.000000000000000000, 403.0000000000000000 ) ) ;
#81 = MANIFOLD_SOLID_BREP ( 'Odebrat vysunutím3', #162 ) ;
#82 = FACE_OUTER_BOUND ( 'NONE', #276, .T. ) ;
#83 = ORIENTED_EDGE ( 'NONE', *, *, #365, .F. ) ;
#84 = ORIENTED_EDGE ( 'NONE', *, *, #127, .T. ) ;
#85 = PERSON ( 'NEURÈENÝ', 'NEURÈENÝ', 'NEURÈENÝ', ('NEURÈENÝ'), ('NEURÈENÝ'), ('NEURÈENÝ') ) ;
#86 = CC_DESIGN_SECURITY_CLASSIFICATION ( #372, ( #249 ) ) ;
#87 = CARTESIAN_POINT ( 'NONE',  ( 1.100000000000000089, 1.347111479062088503E-16, 403.0000000000000000 ) ) ;
#88 = EDGE_LOOP ( 'NONE', ( #6, #69 ) ) ;
#89 = FACE_OUTER_BOUND ( 'NONE', #189, .T. ) ;
#90 = ADVANCED_FACE ( 'NONE', ( #341 ), #164, .T. ) ;
#91 = APPLICATION_CONTEXT ( 'configuration controlled 3d designs of mechanical parts and assemblies' ) ;
#92 = DIRECTION ( 'NONE',  ( 0.000000000000000000, 0.000000000000000000, 1.000000000000000000 ) ) ;
#93 = EDGE_LOOP ( 'NONE', ( #362, #153, #327, #99 ) ) ;
#94 = APPROVAL_ROLE ( '' ) ;
#95 = LOCAL_TIME ( 17, 49, 12.00000000000000000, #210 ) ;
#96 = EDGE_LOOP ( 'NONE', ( #172, #234, #101, #3 ) ) ;
#97 = EDGE_CURVE ( 'NONE', #351, #203, #199, .T. ) ;
#98 = DATE_AND_TIME ( #324, #44 ) ;
#99 = ORIENTED_EDGE ( 'NONE', *, *, #127, .F. ) ;
#100 = DIRECTION ( 'NONE',  ( 1.000000000000000000, 0.000000000000000000, 0.000000000000000000 ) ) ;
#101 = ORIENTED_EDGE ( 'NONE', *, *, #53, .T. ) ;
#102 = PERSON_AND_ORGANIZATION_ROLE ( 'classification_officer' ) ;
#103 = VERTEX_POINT ( 'NONE', #284 ) ;
#104 = CALENDAR_DATE ( 2022, 8, 7 ) ;
#105 = CC_DESIGN_PERSON_AND_ORGANIZATION_ASSIGNMENT ( #9, #332, ( #321 ) ) ;
#106 = CARTESIAN_POINT ( 'NONE',  ( -2.299999999999999822, 2.816687638038912056E-16, 3.000000000000012434 ) ) ;
#107 = DIRECTION ( 'NONE',  ( 1.000000000000000000, 0.000000000000000000, -0.000000000000000000 ) ) ;
#108 = CIRCLE ( 'NONE', #150, 2.299999999999999822 ) ;
#109 = CC_DESIGN_APPROVAL ( #298, ( #72 ) ) ;
#110 = DIRECTION ( 'NONE',  ( -1.000000000000000000, 0.000000000000000000, 0.000000000000000000 ) ) ;
#111 = CARTESIAN_POINT ( 'NONE',  ( 0.000000000000000000, 0.000000000000000000, 3.000000000000000000 ) ) ;
#112 = DIRECTION ( 'NONE',  ( -0.000000000000000000, -0.000000000000000000, -1.000000000000000000 ) ) ;
#113 = CIRCLE ( 'NONE', #248, 2.000000000000000000 ) ;
#114 = DIRECTION ( 'NONE',  ( 1.000000000000000000, 0.000000000000000000, 0.000000000000000000 ) ) ;
#115 = CARTESIAN_POINT ( 'NONE',  ( 0.000000000000000000, 0.000000000000000000, 403.0000000000000000 ) ) ;
#116 = ORIENTED_EDGE ( 'NONE', *, *, #239, .F. ) ;
#117 = AXIS2_PLACEMENT_3D ( 'NONE', #241, #353, #299 ) ;
#118 = DIRECTION ( 'NONE',  ( -1.000000000000000000, 0.000000000000000000, 0.000000000000000000 ) ) ;
#119 = ORIENTED_EDGE ( 'NONE', *, *, #155, .T. ) ;
#120 = PLANE ( 'NONE',  #188 ) ;
#121 = APPROVAL_ROLE ( '' ) ;
#122 = ORIENTED_EDGE ( 'NONE', *, *, #131, .F. ) ;
#123 = APPLICATION_PROTOCOL_DEFINITION ( 'international standard', 'config_control_design', 1994, #29 ) ;
#124 = ORIENTED_EDGE ( 'NONE', *, *, #228, .T. ) ;
#125 = PERSON_AND_ORGANIZATION ( #85, #218 ) ;
#126 = APPLICATION_PROTOCOL_DEFINITION ( 'international standard', 'config_control_design', 1994, #91 ) ;
#127 = EDGE_CURVE ( 'NONE', #203, #175, #130, .T. ) ;
#128 = FACE_OUTER_BOUND ( 'NONE', #356, .T. ) ;
#129 = CARTESIAN_POINT ( 'NONE',  ( -4.000000000000000000, 0.000000000000000000, 3.000000000000000000 ) ) ;
#130 = LINE ( 'NONE', #133, #297 ) ;
#131 = EDGE_CURVE ( 'NONE', #269, #289, #14, .T. ) ;
#132 = CARTESIAN_POINT ( 'NONE',  ( 1.100000000000000089, 1.347111479062088503E-16, 403.0000000000000000 ) ) ;
#133 = CARTESIAN_POINT ( 'NONE',  ( -4.000000000000000000, 0.000000000000000000, 3.000000000000000000 ) ) ;
#134 = LINE ( 'NONE', #370, #173 ) ;
#135 = AXIS2_PLACEMENT_3D ( 'NONE', #339, #255, #282 ) ;
#136 = FACE_OUTER_BOUND ( 'NONE', #220, .T. ) ;
#137 = ADVANCED_FACE ( 'NONE', ( #308, #369 ), #47, .T. ) ;
#138 = LINE ( 'NONE', #206, #306 ) ;
#139 = VERTEX_POINT ( 'NONE', #80 ) ;
#140 = FACE_OUTER_BOUND ( 'NONE', #178, .T. ) ;
#141 = DIRECTION ( 'NONE',  ( -1.000000000000000000, 0.000000000000000000, 0.000000000000000000 ) ) ;
#142 = APPROVAL_PERSON_ORGANIZATION ( #40, #183, #154 ) ;
#143 = CARTESIAN_POINT ( 'NONE',  ( 0.000000000000000000, 0.000000000000000000, 403.0000000000000000 ) ) ;
#144 = APPROVAL_DATE_TIME ( #187, #183 ) ;
#145 = EDGE_LOOP ( 'NONE', ( #83, #26, #24, #42 ) ) ;
#146 = AXIS2_PLACEMENT_3D ( 'NONE', #12, #186, #66 ) ;
#147 = COORDINATED_UNIVERSAL_TIME_OFFSET ( 1, 0, .AHEAD. ) ;
#148 = CARTESIAN_POINT ( 'NONE',  ( -1.100000000000000089, 0.000000000000000000, 403.0000000000000000 ) ) ;
#149 = EDGE_CURVE ( 'NONE', #139, #190, #113, .T. ) ;
#150 = AXIS2_PLACEMENT_3D ( 'NONE', #55, #318, #174 ) ;
#151 = COORDINATED_UNIVERSAL_TIME_OFFSET ( 1, 0, .AHEAD. ) ;
#152 = AXIS2_PLACEMENT_3D ( 'NONE', #23, #92, #320 ) ;
#153 = ORIENTED_EDGE ( 'NONE', *, *, #63, .T. ) ;
#154 = APPROVAL_ROLE ( '' ) ;
#155 = EDGE_CURVE ( 'NONE', #56, #264, #215, .T. ) ;
#156 = CALENDAR_DATE ( 2022, 8, 7 ) ;
#157 = ORIENTED_EDGE ( 'NONE', *, *, #168, .T. ) ;
#158 = PLANE ( 'NONE',  #117 ) ;
#159 = AXIS2_PLACEMENT_3D ( 'NONE', #263, #378, #231 ) ;
#160 = DIRECTION ( 'NONE',  ( 1.224646799147353207E-16, 1.000000000000000000, -0.000000000000000000 ) ) ;
#161 = EDGE_CURVE ( 'NONE', #190, #56, #134, .T. ) ;
#162 = CLOSED_SHELL ( 'NONE', ( #304, #222, #39, #45, #354, #137, #376, #90, #7, #267, #1 ) ) ;
#163 = SHAPE_DEFINITION_REPRESENTATION ( #171, #290 ) ;
#164 = CYLINDRICAL_SURFACE ( 'NONE', #33, 2.000000000000000000 ) ;
#165 = LINE ( 'NONE', #193, #310 ) ;
#166 = AXIS2_PLACEMENT_3D ( 'NONE', #115, #345, #114 ) ;
#167 = CARTESIAN_POINT ( 'NONE',  ( 2.000000000000000000, 2.449293598294706414E-16, 3.300000000000025135 ) ) ;
#168 = EDGE_CURVE ( 'NONE', #35, #264, #322, .T. ) ;
#169 = CARTESIAN_POINT ( 'NONE',  ( -4.000000000000000000, 0.000000000000000000, 0.000000000000000000 ) ) ;
#170 = DIRECTION ( 'NONE',  ( 0.000000000000000000, 0.000000000000000000, 1.000000000000000000 ) ) ;
#171 = PRODUCT_DEFINITION_SHAPE ( 'NONE', 'NONE',  #72 ) ;
#172 = ORIENTED_EDGE ( 'NONE', *, *, #17, .F. ) ;
#173 = VECTOR ( 'NONE', #337, 1000.000000000000000 ) ;
#174 = DIRECTION ( 'NONE',  ( 1.000000000000000000, 0.000000000000000000, 0.000000000000000000 ) ) ;
#175 = VERTEX_POINT ( 'NONE', #169 ) ;
#176 = APPROVAL ( #295, 'NEURÈENÝ' ) ;
#177 = CYLINDRICAL_SURFACE ( 'NONE', #11, 4.000000000000000000 ) ;
#178 = EDGE_LOOP ( 'NONE', ( #61, #280, #219, #262 ) ) ;
#179 = DIRECTION ( 'NONE',  ( 1.000000000000000000, 0.000000000000000000, 0.000000000000000000 ) ) ;
#180 = AXIS2_PLACEMENT_3D ( 'NONE', #314, #226, #257 ) ;
#181 = AXIS2_PLACEMENT_3D ( 'NONE', #143, #57, #118 ) ;
#182 = DIRECTION ( 'NONE',  ( -0.000000000000000000, -0.000000000000000000, -1.000000000000000000 ) ) ;
#183 = APPROVAL ( #303, 'NEURÈENÝ' ) ;
#184 = PERSON_AND_ORGANIZATION_ROLE ( 'creator' ) ;
#185 = AXIS2_PLACEMENT_3D ( 'NONE', #229, #13, #16 ) ;
#186 = DIRECTION ( 'NONE',  ( 0.000000000000000000, 0.000000000000000000, -1.000000000000000000 ) ) ;
#187 = DATE_AND_TIME ( #156, #225 ) ;
#188 = AXIS2_PLACEMENT_3D ( 'NONE', #350, #200, #205 ) ;
#189 = EDGE_LOOP ( 'NONE', ( #251, #333 ) ) ;
#190 = VERTEX_POINT ( 'NONE', #285 ) ;
#191 = ORIENTED_EDGE ( 'NONE', *, *, #53, .F. ) ;
#192 = CARTESIAN_POINT ( 'NONE',  ( 0.000000000000000000, 0.000000000000000000, 3.000000000000000000 ) ) ;
#193 = CARTESIAN_POINT ( 'NONE',  ( 4.000000000000000000, 4.898587196589412829E-16, 3.000000000000000000 ) ) ;
#194 = CARTESIAN_POINT ( 'NONE',  ( 0.000000000000000000, 0.000000000000000000, 403.0000000000000000 ) ) ;
#195 = DIRECTION ( 'NONE',  ( 1.000000000000000000, 0.000000000000000000, 0.000000000000000000 ) ) ;
#196 =( GEOMETRIC_REPRESENTATION_CONTEXT ( 3 ) GLOBAL_UNCERTAINTY_ASSIGNED_CONTEXT ( ( #323 ) ) GLOBAL_UNIT_ASSIGNED_CONTEXT ( ( #213, #357, #352 ) ) REPRESENTATION_CONTEXT ( 'NONE', 'WORKASPACE' ) );
#197 = CC_DESIGN_PERSON_AND_ORGANIZATION_ASSIGNMENT ( #125, #36, ( #72 ) ) ;
#198 = DIRECTION ( 'NONE',  ( -0.000000000000000000, -0.000000000000000000, -1.000000000000000000 ) ) ;
#199 = CIRCLE ( 'NONE', #185, 4.000000000000000000 ) ;
#200 = DIRECTION ( 'NONE',  ( 0.000000000000000000, 0.000000000000000000, 1.000000000000000000 ) ) ;
#201 = CC_DESIGN_PERSON_AND_ORGANIZATION_ASSIGNMENT ( #302, #34, ( #249 ) ) ;
#202 = CARTESIAN_POINT ( 'NONE',  ( 0.000000000000000000, 0.000000000000000000, 403.0000000000000000 ) ) ;
#203 = VERTEX_POINT ( 'NONE', #129 ) ;
#204 = CARTESIAN_POINT ( 'NONE',  ( 4.000000000000000000, 4.898587196589412829E-16, 3.000000000000000000 ) ) ;
#205 = DIRECTION ( 'NONE',  ( 1.000000000000000000, 0.000000000000000000, -0.000000000000000000 ) ) ;
#206 = CARTESIAN_POINT ( 'NONE',  ( -2.000000000000000000, 0.000000000000000000, 403.0000000000000000 ) ) ;
#207 = EDGE_LOOP ( 'NONE', ( #329, #211 ) ) ;
#208 = EDGE_CURVE ( 'NONE', #103, #35, #317, .T. ) ;
#209 = CIRCLE ( 'NONE', #242, 4.000000000000000000 ) ;
#210 = COORDINATED_UNIVERSAL_TIME_OFFSET ( 1, 0, .AHEAD. ) ;
#211 = ORIENTED_EDGE ( 'NONE', *, *, #17, .T. ) ;
#212 = ORIENTED_EDGE ( 'NONE', *, *, #50, .F. ) ;
#213 =( LENGTH_UNIT ( ) NAMED_UNIT ( * ) SI_UNIT ( .MILLI., .METRE. ) );
#214 = ORIENTED_EDGE ( 'NONE', *, *, #243, .T. ) ;
#215 = CIRCLE ( 'NONE', #49, 0.2999999999999999334 ) ;
#216 = AXIS2_PLACEMENT_3D ( 'NONE', #5, #330, #100 ) ;
#217 = DATE_AND_TIME ( #104, #335 ) ;
#218 = ORGANIZATION ( 'NEURÈENÝ', 'NEURÈENÝ', '' ) ;
#219 = ORIENTED_EDGE ( 'NONE', *, *, #131, .T. ) ;
#220 = EDGE_LOOP ( 'NONE', ( #62, #191, #119, #300 ) ) ;
#221 = DIRECTION ( 'NONE',  ( 0.000000000000000000, 0.000000000000000000, 1.000000000000000000 ) ) ;
#222 = ADVANCED_FACE ( 'NONE', ( #259 ), #27, .F. ) ;
#223 = AXIS2_PLACEMENT_3D ( 'NONE', #21, #373, #58 ) ;
#224 = CARTESIAN_POINT ( 'NONE',  ( 2.299999999999999822, 0.000000000000000000, 3.300000000000025135 ) ) ;
#225 = LOCAL_TIME ( 17, 49, 12.00000000000000000, #151 ) ;
#226 = DIRECTION ( 'NONE',  ( -0.000000000000000000, -0.000000000000000000, -1.000000000000000000 ) ) ;
#227 = DIRECTION ( 'NONE',  ( 1.000000000000000000, 0.000000000000000000, 0.000000000000000000 ) ) ;
#228 = EDGE_CURVE ( 'NONE', #289, #269, #54, .T. ) ;
#229 = CARTESIAN_POINT ( 'NONE',  ( 0.000000000000000000, 0.000000000000000000, 3.000000000000000000 ) ) ;
#230 = AXIS2_PLACEMENT_3D ( 'NONE', #202, #288, #179 ) ;
#231 = DIRECTION ( 'NONE',  ( 1.000000000000000000, 0.000000000000000000, 0.000000000000000000 ) ) ;
#232 = EDGE_CURVE ( 'NONE', #264, #35, #108, .T. ) ;
#233 = CARTESIAN_POINT ( 'NONE',  ( 0.000000000000000000, 0.000000000000000000, 0.000000000000000000 ) ) ;
#234 = ORIENTED_EDGE ( 'NONE', *, *, #161, .T. ) ;
#235 = DIRECTION ( 'NONE',  ( 0.000000000000000000, 0.000000000000000000, -1.000000000000000000 ) ) ;
#236 = FACE_BOUND ( 'NONE', #37, .T. ) ;
#237 = LINE ( 'NONE', #377, #379 ) ;
#238 = AXIS2_PLACEMENT_3D ( 'NONE', #271, #281, #195 ) ;
#239 = EDGE_CURVE ( 'NONE', #203, #351, #367, .T. ) ;
#240 = DATE_AND_TIME ( #328, #95 ) ;
#241 = CARTESIAN_POINT ( 'NONE',  ( 0.000000000000000000, 0.000000000000000000, 403.0000000000000000 ) ) ;
#242 = AXIS2_PLACEMENT_3D ( 'NONE', #293, #316, #19 ) ;
#243 = EDGE_CURVE ( 'NONE', #325, #8, #274, .T. ) ;
#244 = APPROVAL_DATE_TIME ( #217, #298 ) ;
#245 = ORIENTED_EDGE ( 'NONE', *, *, #63, .F. ) ;
#246 = COORDINATED_UNIVERSAL_TIME_OFFSET ( 1, 0, .AHEAD. ) ;
#247 = ORIENTED_EDGE ( 'NONE', *, *, #97, .T. ) ;
#248 = AXIS2_PLACEMENT_3D ( 'NONE', #307, #221, #227 ) ;
#249 = PRODUCT_DEFINITION_FORMATION_WITH_SPECIFIED_SOURCE ( 'LIBOVOLNÝ', '', #321, .NOT_KNOWN. ) ;
#250 = CALENDAR_DATE ( 2022, 8, 7 ) ;
#251 = ORIENTED_EDGE ( 'NONE', *, *, #253, .F. ) ;
#252 = DIRECTION ( 'NONE',  ( -0.000000000000000000, -0.000000000000000000, -1.000000000000000000 ) ) ;
#253 = EDGE_CURVE ( 'NONE', #175, #43, #209, .T. ) ;
#254 = CYLINDRICAL_SURFACE ( 'NONE', #71, 2.000000000000000000 ) ;
#255 = DIRECTION ( 'NONE',  ( 0.000000000000000000, 0.000000000000000000, 1.000000000000000000 ) ) ;
#256 = APPROVAL_PERSON_ORGANIZATION ( #355, #176, #94 ) ;
#257 = DIRECTION ( 'NONE',  ( 1.000000000000000000, 0.000000000000000000, 0.000000000000000000 ) ) ;
#258 = DIRECTION ( 'NONE',  ( 0.000000000000000000, 0.000000000000000000, 1.000000000000000000 ) ) ;
#259 = FACE_OUTER_BOUND ( 'NONE', #145, .T. ) ;
#260 = DIRECTION ( 'NONE',  ( -0.000000000000000000, -0.000000000000000000, -1.000000000000000000 ) ) ;
#261 = CYLINDRICAL_SURFACE ( 'NONE', #181, 1.100000000000000089 ) ;
#262 = ORIENTED_EDGE ( 'NONE', *, *, #309, .F. ) ;
#263 = CARTESIAN_POINT ( 'NONE',  ( 0.000000000000000000, 0.000000000000000000, 3.300000000000025135 ) ) ;
#264 = VERTEX_POINT ( 'NONE', #60 ) ;
#265 = AXIS2_PLACEMENT_3D ( 'NONE', #334, #198, #52 ) ;
#266 = LOCAL_TIME ( 17, 49, 12.00000000000000000, #277 ) ;
#267 = ADVANCED_FACE ( 'NONE', ( #136 ), #301, .F. ) ;
#268 = CARTESIAN_POINT ( 'NONE',  ( 0.000000000000000000, 0.000000000000000000, 3.000000000000000000 ) ) ;
#269 = VERTEX_POINT ( 'NONE', #28 ) ;
#270 = MECHANICAL_CONTEXT ( 'NONE', #29, 'mechanical' ) ;
#271 = CARTESIAN_POINT ( 'NONE',  ( 0.000000000000000000, 0.000000000000000000, 403.0000000000000000 ) ) ;
#272 = PRODUCT_RELATED_PRODUCT_CATEGORY ( 'detail', '', ( #321 ) ) ;
#273 = AXIS2_PLACEMENT_3D ( 'NONE', #233, #182, #286 ) ;
#274 = CIRCLE ( 'NONE', #230, 1.100000000000000089 ) ;
#275 = PERSON_AND_ORGANIZATION ( #85, #218 ) ;
#276 = EDGE_LOOP ( 'NONE', ( #245, #116, #84, #346 ) ) ;
#277 = COORDINATED_UNIVERSAL_TIME_OFFSET ( 1, 0, .AHEAD. ) ;
#278 = ORIENTED_EDGE ( 'NONE', *, *, #161, .F. ) ;
#279 = EDGE_CURVE ( 'NONE', #139, #103, #138, .T. ) ;
#280 = ORIENTED_EDGE ( 'NONE', *, *, #50, .T. ) ;
#281 = DIRECTION ( 'NONE',  ( 0.000000000000000000, 0.000000000000000000, 1.000000000000000000 ) ) ;
#282 = DIRECTION ( 'NONE',  ( 1.000000000000000000, 0.000000000000000000, 0.000000000000000000 ) ) ;
#283 = DIRECTION ( 'NONE',  ( -0.000000000000000000, -0.000000000000000000, -1.000000000000000000 ) ) ;
#284 = CARTESIAN_POINT ( 'NONE',  ( -2.000000000000000000, 0.000000000000000000, 3.300000000000025135 ) ) ;
#285 = CARTESIAN_POINT ( 'NONE',  ( 2.000000000000000000, 2.449293598294706414E-16, 403.0000000000000000 ) ) ;
#286 = DIRECTION ( 'NONE',  ( 1.000000000000000000, 0.000000000000000000, 0.000000000000000000 ) ) ;
#287 = CC_DESIGN_PERSON_AND_ORGANIZATION_ASSIGNMENT ( #275, #184, ( #249 ) ) ;
#288 = DIRECTION ( 'NONE',  ( 0.000000000000000000, 0.000000000000000000, 1.000000000000000000 ) ) ;
#289 = VERTEX_POINT ( 'NONE', #349 ) ;
#290 = ADVANCED_BREP_SHAPE_REPRESENTATION ( 'c7b7', ( #81, #216 ), #196 ) ;
#291 = DIRECTION ( 'NONE',  ( -0.000000000000000000, -0.000000000000000000, -1.000000000000000000 ) ) ;
#292 = EDGE_CURVE ( 'NONE', #8, #325, #294, .T. ) ;
#293 = CARTESIAN_POINT ( 'NONE',  ( 0.000000000000000000, 0.000000000000000000, 0.000000000000000000 ) ) ;
#294 = CIRCLE ( 'NONE', #166, 1.100000000000000089 ) ;
#295 = APPROVAL_STATUS ( 'not_yet_approved' ) ;
#296 = ORIENTED_EDGE ( 'NONE', *, *, #309, .T. ) ;
#297 = VECTOR ( 'NONE', #77, 1000.000000000000000 ) ;
#298 = APPROVAL ( #31, 'NEURÈENÝ' ) ;
#299 = DIRECTION ( 'NONE',  ( 1.000000000000000000, 0.000000000000000000, -0.000000000000000000 ) ) ;
#300 = ORIENTED_EDGE ( 'NONE', *, *, #168, .F. ) ;
#301 = TOROIDAL_SURFACE ( 'NONE', #152, 2.299999999999999822, 0.2999999999999999889 ) ;
#302 = PERSON_AND_ORGANIZATION ( #85, #218 ) ;
#303 = APPROVAL_STATUS ( 'not_yet_approved' ) ;
#304 = ADVANCED_FACE ( 'NONE', ( #140 ), #261, .F. ) ;
#305 = FACE_OUTER_BOUND ( 'NONE', #207, .T. ) ;
#306 = VECTOR ( 'NONE', #260, 1000.000000000000000 ) ;
#307 = CARTESIAN_POINT ( 'NONE',  ( 0.000000000000000000, 0.000000000000000000, 403.0000000000000000 ) ) ;
#308 = FACE_BOUND ( 'NONE', #343, .T. ) ;
#309 = EDGE_CURVE ( 'NONE', #8, #289, #237, .T. ) ;
#310 = VECTOR ( 'NONE', #252, 1000.000000000000000 ) ;
#311 = FACE_OUTER_BOUND ( 'NONE', #93, .T. ) ;
#312 = DIRECTION ( 'NONE',  ( -1.000000000000000000, 0.000000000000000000, 0.000000000000000000 ) ) ;
#313 = DESIGN_CONTEXT ( 'detailed design', #91, 'design' ) ;
#314 = CARTESIAN_POINT ( 'NONE',  ( 0.000000000000000000, 0.000000000000000000, 0.000000000000000000 ) ) ;
#315 = ORIENTED_EDGE ( 'NONE', *, *, #239, .T. ) ;
#316 = DIRECTION ( 'NONE',  ( 0.000000000000000000, 0.000000000000000000, 1.000000000000000000 ) ) ;
#317 = CIRCLE ( 'NONE', #4, 0.2999999999999999334 ) ;
#318 = DIRECTION ( 'NONE',  ( -0.000000000000000000, -0.000000000000000000, -1.000000000000000000 ) ) ;
#319 = DIRECTION ( 'NONE',  ( 1.000000000000000000, 0.000000000000000000, 0.000000000000000000 ) ) ;
#320 = DIRECTION ( 'NONE',  ( 1.000000000000000000, 0.000000000000000000, 0.000000000000000000 ) ) ;
#321 = PRODUCT ( 'c7b7', 'c7b7', '', ( #270 ) ) ;
#322 = CIRCLE ( 'NONE', #265, 2.299999999999999822 ) ;
#323 = UNCERTAINTY_MEASURE_WITH_UNIT (LENGTH_MEASURE( 1.000000000000000082E-05 ), #213, 'distance_accuracy_value', 'NONE');
#324 = CALENDAR_DATE ( 2022, 8, 7 ) ;
#325 = VERTEX_POINT ( 'NONE', #87 ) ;
#326 = CIRCLE ( 'NONE', #135, 2.000000000000000000 ) ;
#327 = ORIENTED_EDGE ( 'NONE', *, *, #371, .T. ) ;
#328 = CALENDAR_DATE ( 2022, 8, 7 ) ;
#329 = ORIENTED_EDGE ( 'NONE', *, *, #149, .T. ) ;
#330 = DIRECTION ( 'NONE',  ( 0.000000000000000000, 0.000000000000000000, 1.000000000000000000 ) ) ;
#331 = CC_DESIGN_DATE_AND_TIME_ASSIGNMENT ( #361, #70, ( #372 ) ) ;
#332 = PERSON_AND_ORGANIZATION_ROLE ( 'design_owner' ) ;
#333 = ORIENTED_EDGE ( 'NONE', *, *, #371, .F. ) ;
#334 = CARTESIAN_POINT ( 'NONE',  ( 0.000000000000000000, 0.000000000000000000, 3.000000000000000000 ) ) ;
#335 = LOCAL_TIME ( 17, 49, 12.00000000000000000, #246 ) ;
#336 = CC_DESIGN_DATE_AND_TIME_ASSIGNMENT ( #240, #65, ( #72 ) ) ;
#337 = DIRECTION ( 'NONE',  ( -0.000000000000000000, -0.000000000000000000, -1.000000000000000000 ) ) ;
#338 = DIRECTION ( 'NONE',  ( -1.000000000000000000, 0.000000000000000000, 0.000000000000000000 ) ) ;
#339 = CARTESIAN_POINT ( 'NONE',  ( 0.000000000000000000, 0.000000000000000000, 3.300000000000025135 ) ) ;
#340 = CIRCLE ( 'NONE', #159, 2.000000000000000000 ) ;
#341 = FACE_OUTER_BOUND ( 'NONE', #358, .T. ) ;
#342 = DIRECTION ( 'NONE',  ( 1.000000000000000000, 0.000000000000000000, 0.000000000000000000 ) ) ;
#343 = EDGE_LOOP ( 'NONE', ( #360, #157 ) ) ;
#344 = VECTOR ( 'NONE', #48, 1000.000000000000000 ) ;
#345 = DIRECTION ( 'NONE',  ( 0.000000000000000000, 0.000000000000000000, 1.000000000000000000 ) ) ;
#346 = ORIENTED_EDGE ( 'NONE', *, *, #253, .T. ) ;
#347 = CC_DESIGN_PERSON_AND_ORGANIZATION_ASSIGNMENT ( #359, #102, ( #372 ) ) ;
#348 = EDGE_LOOP ( 'NONE', ( #315, #247 ) ) ;
#349 = CARTESIAN_POINT ( 'NONE',  ( -1.100000000000000089, 0.000000000000000000, 0.000000000000000000 ) ) ;
#350 = CARTESIAN_POINT ( 'NONE',  ( 0.000000000000000000, 0.000000000000000000, 0.000000000000000000 ) ) ;
#351 = VERTEX_POINT ( 'NONE', #204 ) ;
#352 =( NAMED_UNIT ( * ) SI_UNIT ( $, .STERADIAN. ) SOLID_ANGLE_UNIT ( ) );
#353 = DIRECTION ( 'NONE',  ( 0.000000000000000000, 0.000000000000000000, 1.000000000000000000 ) ) ;
#354 = ADVANCED_FACE ( 'NONE', ( #82 ), #177, .T. ) ;
#355 = PERSON_AND_ORGANIZATION ( #85, #218 ) ;
#356 = EDGE_LOOP ( 'NONE', ( #212, #214, #296, #124 ) ) ;
#357 =( NAMED_UNIT ( * ) PLANE_ANGLE_UNIT ( ) SI_UNIT ( $, .RADIAN. ) );
#358 = EDGE_LOOP ( 'NONE', ( #278, #381, #22, #32 ) ) ;
#359 = PERSON_AND_ORGANIZATION ( #85, #218 ) ;
#360 = ORIENTED_EDGE ( 'NONE', *, *, #232, .T. ) ;
#361 = DATE_AND_TIME ( #250, #266 ) ;
#362 = ORIENTED_EDGE ( 'NONE', *, *, #97, .F. ) ;
#363 = CARTESIAN_POINT ( 'NONE',  ( -2.299999999999999822, 2.816687638038912056E-16, 3.300000000000025135 ) ) ;
#364 = AXIS2_PLACEMENT_3D ( 'NONE', #192, #112, #312 ) ;
#365 = EDGE_CURVE ( 'NONE', #103, #56, #340, .T. ) ;
#366 = DIRECTION ( 'NONE',  ( -0.000000000000000000, -0.000000000000000000, -1.000000000000000000 ) ) ;
#367 = CIRCLE ( 'NONE', #38, 4.000000000000000000 ) ;
#368 = CYLINDRICAL_SURFACE ( 'NONE', #364, 4.000000000000000000 ) ;
#369 = FACE_OUTER_BOUND ( 'NONE', #348, .T. ) ;
#370 = CARTESIAN_POINT ( 'NONE',  ( 2.000000000000000000, 2.449293598294706414E-16, 403.0000000000000000 ) ) ;
#371 = EDGE_CURVE ( 'NONE', #43, #175, #20, .T. ) ;
#372 = SECURITY_CLASSIFICATION ( '', '', #68 ) ;
#373 = DIRECTION ( 'NONE',  ( 0.000000000000000000, 0.000000000000000000, 1.000000000000000000 ) ) ;
#374 = DIRECTION ( 'NONE',  ( 0.000000000000000000, 0.000000000000000000, 1.000000000000000000 ) ) ;
#375 = ORIENTED_EDGE ( 'NONE', *, *, #228, .F. ) ;
#376 = ADVANCED_FACE ( 'NONE', ( #236, #89 ), #120, .F. ) ;
#377 = CARTESIAN_POINT ( 'NONE',  ( -1.100000000000000089, 0.000000000000000000, 403.0000000000000000 ) ) ;
#378 = DIRECTION ( 'NONE',  ( 0.000000000000000000, 0.000000000000000000, 1.000000000000000000 ) ) ;
#379 = VECTOR ( 'NONE', #235, 1000.000000000000000 ) ;
#380 = CARTESIAN_POINT ( 'NONE',  ( 0.000000000000000000, 0.000000000000000000, 0.000000000000000000 ) ) ;
#381 = ORIENTED_EDGE ( 'NONE', *, *, #149, .F. ) ;
ENDSEC;
END-ISO-10303-21;
