ISO-10303-21;
HEADER;
FILE_DESCRIPTION (( 'STEP AP203' ),
    '1' );
FILE_NAME ('8ce5.STEP',
    '2022-07-08T15:24:09',
    ( '' ),
    ( '' ),
    'SwSTEP 2.0',
    'SolidWorks 2019',
    '' );
FILE_SCHEMA (( 'CONFIG_CONTROL_DESIGN' ));
ENDSEC;

DATA;
#1 = CARTESIAN_POINT ( 'NONE',  ( 0.000000000000000000, 0.000000000000000000, 5.500000000000005329 ) ) ;
#2 = CARTESIAN_POINT ( 'NONE',  ( 7.000000000000000000, 8.572527594031473190E-16, 5.000000000000000000 ) ) ;
#3 = EDGE_CURVE ( 'NONE', #246, #116, #177, .T. ) ;
#4 = CARTESIAN_POINT ( 'NONE',  ( 4.000000000000000000, 4.898587196589412829E-16, 205.0000000000000284 ) ) ;
#5 = CIRCLE ( 'NONE', #348, 2.250000000000000000 ) ;
#6 = CARTESIAN_POINT ( 'NONE',  ( 0.000000000000000000, 0.000000000000000000, 5.000000000000000000 ) ) ;
#7 = FACE_BOUND ( 'NONE', #230, .T. ) ;
#8 = VECTOR ( 'NONE', #170, 1000.000000000000000 ) ;
#9 = CARTESIAN_POINT ( 'NONE',  ( 0.000000000000000000, 0.000000000000000000, 205.0000000000000284 ) ) ;
#10 = ORIENTED_EDGE ( 'NONE', *, *, #81, .F. ) ;
#11 = AXIS2_PLACEMENT_3D ( 'NONE', #14, #223, #158 ) ;
#12 = LINE ( 'NONE', #42, #235 ) ;
#13 = EDGE_CURVE ( 'NONE', #105, #347, #353, .T. ) ;
#14 = CARTESIAN_POINT ( 'NONE',  ( 0.000000000000000000, 0.000000000000000000, 205.0000000000000284 ) ) ;
#15 = VERTEX_POINT ( 'NONE', #85 ) ;
#16 = DIRECTION ( 'NONE',  ( -0.000000000000000000, -0.000000000000000000, -1.000000000000000000 ) ) ;
#17 = PERSON ( 'NEURÈENÝ', 'NEURÈENÝ', 'NEURÈENÝ', ('NEURÈENÝ'), ('NEURÈENÝ'), ('NEURÈENÝ') ) ;
#18 = CARTESIAN_POINT ( 'NONE',  ( -4.500000000000000888, 5.510910596163088569E-16, 5.000000000000002665 ) ) ;
#19 =( NAMED_UNIT ( * ) SI_UNIT ( $, .STERADIAN. ) SOLID_ANGLE_UNIT ( ) );
#20 = CYLINDRICAL_SURFACE ( 'NONE', #163, 4.000000000000000000 ) ;
#21 = APPROVAL_DATE_TIME ( #286, #279 ) ;
#22 = CARTESIAN_POINT ( 'NONE',  ( 0.000000000000000000, 0.000000000000000000, 205.0000000000000284 ) ) ;
#23 = AXIS2_PLACEMENT_3D ( 'NONE', #100, #216, #338 ) ;
#24 = PERSON_AND_ORGANIZATION ( #17, #221 ) ;
#25 = VERTEX_POINT ( 'NONE', #259 ) ;
#26 = EDGE_CURVE ( 'NONE', #15, #28, #226, .T. ) ;
#27 = COORDINATED_UNIVERSAL_TIME_OFFSET ( 1, 0, .AHEAD. ) ;
#28 = VERTEX_POINT ( 'NONE', #18 ) ;
#29 = DIRECTION ( 'NONE',  ( -0.000000000000000000, -0.000000000000000000, -1.000000000000000000 ) ) ;
#30 = SECURITY_CLASSIFICATION ( '', '', #292 ) ;
#31 = CYLINDRICAL_SURFACE ( 'NONE', #355, 2.250000000000000000 ) ;
#32 = CARTESIAN_POINT ( 'NONE',  ( 4.000000000000000000, 4.898587196589412829E-16, 5.500000000000005329 ) ) ;
#33 = ADVANCED_FACE ( 'NONE', ( #349 ), #35, .F. ) ;
#34 = FACE_OUTER_BOUND ( 'NONE', #90, .T. ) ;
#35 = TOROIDAL_SURFACE ( 'NONE', #300, 4.500000000000000888, 0.5000000000000000000 ) ;
#36 = FACE_OUTER_BOUND ( 'NONE', #318, .T. ) ;
#37 = AXIS2_PLACEMENT_3D ( 'NONE', #141, #180, #297 ) ;
#38 = EDGE_CURVE ( 'NONE', #25, #246, #97, .T. ) ;
#39 = FACE_OUTER_BOUND ( 'NONE', #187, .T. ) ;
#40 = CARTESIAN_POINT ( 'NONE',  ( 0.000000000000000000, 0.000000000000000000, 5.000000000000000000 ) ) ;
#41 = VERTEX_POINT ( 'NONE', #369 ) ;
#42 = CARTESIAN_POINT ( 'NONE',  ( 7.000000000000000000, 8.572527594031473190E-16, 5.000000000000000000 ) ) ;
#43 = VECTOR ( 'NONE', #73, 1000.000000000000000 ) ;
#44 = CARTESIAN_POINT ( 'NONE',  ( 0.000000000000000000, 0.000000000000000000, 5.000000000000000000 ) ) ;
#45 = ORIENTED_EDGE ( 'NONE', *, *, #129, .F. ) ;
#46 = ADVANCED_FACE ( 'NONE', ( #283 ), #20, .T. ) ;
#47 = DIRECTION ( 'NONE',  ( 0.000000000000000000, 0.000000000000000000, -1.000000000000000000 ) ) ;
#48 = APPLICATION_PROTOCOL_DEFINITION ( 'international standard', 'config_control_design', 1994, #285 ) ;
#49 = ORIENTED_EDGE ( 'NONE', *, *, #335, .F. ) ;
#50 = CC_DESIGN_PERSON_AND_ORGANIZATION_ASSIGNMENT ( #24, #55, ( #184 ) ) ;
#51 = PERSON_AND_ORGANIZATION_ROLE ( 'creator' ) ;
#52 = ORIENTED_EDGE ( 'NONE', *, *, #197, .F. ) ;
#53 = DATE_AND_TIME ( #132, #209 ) ;
#54 = ORIENTED_EDGE ( 'NONE', *, *, #276, .T. ) ;
#55 = PERSON_AND_ORGANIZATION_ROLE ( 'creator' ) ;
#56 = EDGE_LOOP ( 'NONE', ( #316, #201 ) ) ;
#57 = AXIS2_PLACEMENT_3D ( 'NONE', #113, #234, #172 ) ;
#58 = CC_DESIGN_PERSON_AND_ORGANIZATION_ASSIGNMENT ( #227, #342, ( #30 ) ) ;
#59 = AXIS2_PLACEMENT_3D ( 'NONE', #174, #317, #164 ) ;
#60 = COORDINATED_UNIVERSAL_TIME_OFFSET ( 1, 0, .AHEAD. ) ;
#61 = ORIENTED_EDGE ( 'NONE', *, *, #350, .F. ) ;
#62 = ORIENTED_EDGE ( 'NONE', *, *, #276, .F. ) ;
#63 = CARTESIAN_POINT ( 'NONE',  ( 4.500000000000000888, 0.000000000000000000, 5.000000000000002665 ) ) ;
#64 = AXIS2_PLACEMENT_3D ( 'NONE', #220, #337, #361 ) ;
#65 = ADVANCED_FACE ( 'NONE', ( #343 ), #331, .F. ) ;
#66 = CARTESIAN_POINT ( 'NONE',  ( 4.000000000000000000, 4.898587196589412829E-16, 205.0000000000000284 ) ) ;
#67 = DIRECTION ( 'NONE',  ( 1.000000000000000000, 0.000000000000000000, 0.000000000000000000 ) ) ;
#68 = CYLINDRICAL_SURFACE ( 'NONE', #123, 7.000000000000000000 ) ;
#69 = DIRECTION ( 'NONE',  ( 1.000000000000000000, 0.000000000000000000, 0.000000000000000000 ) ) ;
#70 = CIRCLE ( 'NONE', #23, 4.000000000000000000 ) ;
#71 = ORIENTED_EDGE ( 'NONE', *, *, #13, .F. ) ;
#72 = CARTESIAN_POINT ( 'NONE',  ( -7.000000000000000000, 0.000000000000000000, 5.000000000000000000 ) ) ;
#73 = DIRECTION ( 'NONE',  ( 0.000000000000000000, 0.000000000000000000, -1.000000000000000000 ) ) ;
#74 = ADVANCED_FACE ( 'NONE', ( #351, #36 ), #236, .F. ) ;
#75 = PRODUCT_DEFINITION_SHAPE ( 'NONE', 'NONE',  #184 ) ;
#76 = CIRCLE ( 'NONE', #64, 2.250000000000000000 ) ;
#77 = CARTESIAN_POINT ( 'NONE',  ( -7.000000000000000000, 0.000000000000000000, 5.000000000000000000 ) ) ;
#78 = ORIENTED_EDGE ( 'NONE', *, *, #197, .T. ) ;
#79 = APPROVAL_STATUS ( 'not_yet_approved' ) ;
#80 = EDGE_LOOP ( 'NONE', ( #323, #217, #319, #88 ) ) ;
#81 = EDGE_CURVE ( 'NONE', #15, #168, #109, .T. ) ;
#82 = APPROVAL_ROLE ( '' ) ;
#83 = ORIENTED_EDGE ( 'NONE', *, *, #311, .F. ) ;
#84 = LOCAL_TIME ( 17, 24, 9.000000000000000000, #108 ) ;
#85 = CARTESIAN_POINT ( 'NONE',  ( -4.000000000000000000, 0.000000000000000000, 5.500000000000005329 ) ) ;
#86 = ADVANCED_BREP_SHAPE_REPRESENTATION ( '8ce5', ( #147, #59 ), #166 ) ;
#87 = DATE_AND_TIME ( #115, #238 ) ;
#88 = ORIENTED_EDGE ( 'NONE', *, *, #210, .F. ) ;
#89 = CALENDAR_DATE ( 2022, 8, 7 ) ;
#90 = EDGE_LOOP ( 'NONE', ( #224, #367, #275, #222 ) ) ;
#91 = VECTOR ( 'NONE', #29, 1000.000000000000000 ) ;
#92 = DIRECTION ( 'NONE',  ( 0.000000000000000000, 0.000000000000000000, 1.000000000000000000 ) ) ;
#93 = LINE ( 'NONE', #66, #91 ) ;
#94 = CARTESIAN_POINT ( 'NONE',  ( 0.000000000000000000, 0.000000000000000000, 5.000000000000000000 ) ) ;
#95 = CARTESIAN_POINT ( 'NONE',  ( 4.500000000000000888, 0.000000000000000000, 5.500000000000005329 ) ) ;
#96 = LINE ( 'NONE', #211, #142 ) ;
#97 = CIRCLE ( 'NONE', #271, 2.250000000000000000 ) ;
#98 = PLANE ( 'NONE',  #11 ) ;
#99 = LOCAL_TIME ( 17, 24, 9.000000000000000000, #198 ) ;
#100 = CARTESIAN_POINT ( 'NONE',  ( 0.000000000000000000, 0.000000000000000000, 205.0000000000000284 ) ) ;
#101 = ORIENTED_EDGE ( 'NONE', *, *, #176, .T. ) ;
#102 = PRODUCT_RELATED_PRODUCT_CATEGORY ( 'detail', '', ( #284 ) ) ;
#103 = LINE ( 'NONE', #219, #43 ) ;
#104 = FACE_OUTER_BOUND ( 'NONE', #310, .T. ) ;
#105 = VERTEX_POINT ( 'NONE', #2 ) ;
#106 = DIRECTION ( 'NONE',  ( -1.000000000000000000, 0.000000000000000000, 0.000000000000000000 ) ) ;
#107 = EDGE_LOOP ( 'NONE', ( #10, #306, #52, #378 ) ) ;
#108 = COORDINATED_UNIVERSAL_TIME_OFFSET ( 1, 0, .AHEAD. ) ;
#109 = CIRCLE ( 'NONE', #313, 4.000000000000000000 ) ;
#110 = DIRECTION ( 'NONE',  ( 0.000000000000000000, 0.000000000000000000, 1.000000000000000000 ) ) ;
#111 = PRODUCT_DEFINITION_FORMATION_WITH_SPECIFIED_SOURCE ( 'LIBOVOLNÝ', '', #284, .NOT_KNOWN. ) ;
#112 = APPROVAL_DATE_TIME ( #280, #257 ) ;
#113 = CARTESIAN_POINT ( 'NONE',  ( 0.000000000000000000, 0.000000000000000000, 5.000000000000000000 ) ) ;
#114 = EDGE_CURVE ( 'NONE', #41, #15, #96, .T. ) ;
#115 = CALENDAR_DATE ( 2022, 8, 7 ) ;
#116 = VERTEX_POINT ( 'NONE', #332 ) ;
#117 = DIRECTION ( 'NONE',  ( -1.000000000000000000, 1.224646799147351482E-16, 0.000000000000000000 ) ) ;
#118 = DIRECTION ( 'NONE',  ( -0.000000000000000000, -0.000000000000000000, -1.000000000000000000 ) ) ;
#119 = EDGE_CURVE ( 'NONE', #168, #15, #154, .T. ) ;
#120 = CARTESIAN_POINT ( 'NONE',  ( 0.000000000000000000, 0.000000000000000000, 0.000000000000000000 ) ) ;
#121 = DIRECTION ( 'NONE',  ( 0.000000000000000000, 0.000000000000000000, 1.000000000000000000 ) ) ;
#122 = DESIGN_CONTEXT ( 'detailed design', #137, 'design' ) ;
#123 = AXIS2_PLACEMENT_3D ( 'NONE', #178, #118, #328 ) ;
#124 = DIRECTION ( 'NONE',  ( 0.000000000000000000, 0.000000000000000000, 1.000000000000000000 ) ) ;
#125 = DIRECTION ( 'NONE',  ( 0.000000000000000000, 0.000000000000000000, 1.000000000000000000 ) ) ;
#126 = AXIS2_PLACEMENT_3D ( 'NONE', #6, #144, #237 ) ;
#127 = ADVANCED_FACE ( 'NONE', ( #145 ), #68, .T. ) ;
#128 = DIRECTION ( 'NONE',  ( -0.000000000000000000, -0.000000000000000000, -1.000000000000000000 ) ) ;
#129 = EDGE_CURVE ( 'NONE', #336, #374, #341, .T. ) ;
#130 = CIRCLE ( 'NONE', #179, 7.000000000000000000 ) ;
#131 = DIRECTION ( 'NONE',  ( 1.000000000000000000, 0.000000000000000000, 0.000000000000000000 ) ) ;
#132 = CALENDAR_DATE ( 2022, 8, 7 ) ;
#133 = CARTESIAN_POINT ( 'NONE',  ( 0.000000000000000000, 0.000000000000000000, 205.0000000000000284 ) ) ;
#134 = ORIENTED_EDGE ( 'NONE', *, *, #114, .T. ) ;
#135 = PERSON_AND_ORGANIZATION_ROLE ( 'design_owner' ) ;
#136 = ORIENTED_EDGE ( 'NONE', *, *, #119, .T. ) ;
#137 = APPLICATION_CONTEXT ( 'configuration controlled 3d designs of mechanical parts and assemblies' ) ;
#138 = DATE_TIME_ROLE ( 'classification_date' ) ;
#139 = ORIENTED_EDGE ( 'NONE', *, *, #311, .T. ) ;
#140 = ADVANCED_FACE ( 'NONE', ( #34 ), #294, .F. ) ;
#141 = CARTESIAN_POINT ( 'NONE',  ( 0.000000000000000000, 0.000000000000000000, 205.0000000000000284 ) ) ;
#142 = VECTOR ( 'NONE', #330, 1000.000000000000000 ) ;
#143 = LOCAL_TIME ( 17, 24, 9.000000000000000000, #193 ) ;
#144 = DIRECTION ( 'NONE',  ( -0.000000000000000000, -0.000000000000000000, -1.000000000000000000 ) ) ;
#145 = FACE_OUTER_BOUND ( 'NONE', #376, .T. ) ;
#146 = CARTESIAN_POINT ( 'NONE',  ( 0.000000000000000000, 0.000000000000000000, 5.500000000000005329 ) ) ;
#147 = MANIFOLD_SOLID_BREP ( 'Odebrat vysunutím3', #194 ) ;
#148 = AXIS2_PLACEMENT_3D ( 'NONE', #40, #16, #359 ) ;
#149 = CARTESIAN_POINT ( 'NONE',  ( 0.000000000000000000, 0.000000000000000000, 0.000000000000000000 ) ) ;
#150 = CARTESIAN_POINT ( 'NONE',  ( 7.000000000000000000, 8.572527594031473190E-16, 0.000000000000000000 ) ) ;
#151 =( NAMED_UNIT ( * ) PLANE_ANGLE_UNIT ( ) SI_UNIT ( $, .RADIAN. ) );
#152 = ADVANCED_FACE ( 'NONE', ( #181 ), #31, .F. ) ;
#153 = ORIENTED_EDGE ( 'NONE', *, *, #344, .F. ) ;
#154 = CIRCLE ( 'NONE', #358, 4.000000000000000000 ) ;
#155 = DIRECTION ( 'NONE',  ( 1.000000000000000000, 0.000000000000000000, 0.000000000000000000 ) ) ;
#156 = VECTOR ( 'NONE', #305, 1000.000000000000000 ) ;
#157 = EDGE_LOOP ( 'NONE', ( #78, #255 ) ) ;
#158 = DIRECTION ( 'NONE',  ( 1.000000000000000000, 0.000000000000000000, -0.000000000000000000 ) ) ;
#159 = ORIENTED_EDGE ( 'NONE', *, *, #176, .F. ) ;
#160 = CC_DESIGN_DATE_AND_TIME_ASSIGNMENT ( #53, #138, ( #30 ) ) ;
#161 = CARTESIAN_POINT ( 'NONE',  ( 0.000000000000000000, 0.000000000000000000, 0.000000000000000000 ) ) ;
#162 = VERTEX_POINT ( 'NONE', #4 ) ;
#163 = AXIS2_PLACEMENT_3D ( 'NONE', #133, #371, #228 ) ;
#164 = DIRECTION ( 'NONE',  ( 1.000000000000000000, 0.000000000000000000, 0.000000000000000000 ) ) ;
#165 = ORIENTED_EDGE ( 'NONE', *, *, #171, .F. ) ;
#166 =( GEOMETRIC_REPRESENTATION_CONTEXT ( 3 ) GLOBAL_UNCERTAINTY_ASSIGNED_CONTEXT ( ( #298 ) ) GLOBAL_UNIT_ASSIGNED_CONTEXT ( ( #302, #151, #19 ) ) REPRESENTATION_CONTEXT ( 'NONE', 'WORKASPACE' ) );
#167 = PERSON_AND_ORGANIZATION ( #17, #221 ) ;
#168 = VERTEX_POINT ( 'NONE', #32 ) ;
#169 = APPROVAL_ROLE ( '' ) ;
#170 = DIRECTION ( 'NONE',  ( 0.000000000000000000, 0.000000000000000000, -1.000000000000000000 ) ) ;
#171 = EDGE_CURVE ( 'NONE', #41, #162, #249, .T. ) ;
#172 = DIRECTION ( 'NONE',  ( 1.000000000000000000, 0.000000000000000000, 0.000000000000000000 ) ) ;
#173 = AXIS2_PLACEMENT_3D ( 'NONE', #212, #124, #69 ) ;
#174 = CARTESIAN_POINT ( 'NONE',  ( 0.000000000000000000, 0.000000000000000000, 0.000000000000000000 ) ) ;
#175 = EDGE_LOOP ( 'NONE', ( #339, #289, #340, #365 ) ) ;
#176 = EDGE_CURVE ( 'NONE', #162, #168, #93, .T. ) ;
#177 = LINE ( 'NONE', #254, #8 ) ;
#178 = CARTESIAN_POINT ( 'NONE',  ( 0.000000000000000000, 0.000000000000000000, 5.000000000000000000 ) ) ;
#179 = AXIS2_PLACEMENT_3D ( 'NONE', #44, #186, #189 ) ;
#180 = DIRECTION ( 'NONE',  ( 0.000000000000000000, 0.000000000000000000, -1.000000000000000000 ) ) ;
#181 = FACE_OUTER_BOUND ( 'NONE', #175, .T. ) ;
#182 = AXIS2_PLACEMENT_3D ( 'NONE', #9, #242, #106 ) ;
#183 = LINE ( 'NONE', #72, #156 ) ;
#184 = PRODUCT_DEFINITION ( 'NEZNÁMÝ', '', #111, #122 ) ;
#185 = DIRECTION ( 'NONE',  ( 0.000000000000000000, 0.000000000000000000, 1.000000000000000000 ) ) ;
#186 = DIRECTION ( 'NONE',  ( 0.000000000000000000, 0.000000000000000000, 1.000000000000000000 ) ) ;
#187 = EDGE_LOOP ( 'NONE', ( #322, #244 ) ) ;
#188 = AXIS2_PLACEMENT_3D ( 'NONE', #293, #261, #117 ) ;
#189 = DIRECTION ( 'NONE',  ( 1.000000000000000000, 0.000000000000000000, 0.000000000000000000 ) ) ;
#190 = CIRCLE ( 'NONE', #327, 4.500000000000000888 ) ;
#191 = FACE_OUTER_BOUND ( 'NONE', #308, .T. ) ;
#192 = VERTEX_POINT ( 'NONE', #63 ) ;
#193 = COORDINATED_UNIVERSAL_TIME_OFFSET ( 1, 0, .AHEAD. ) ;
#194 = CLOSED_SHELL ( 'NONE', ( #140, #65, #46, #324, #127, #205, #74, #252, #329, #33, #152 ) ) ;
#195 = CARTESIAN_POINT ( 'NONE',  ( 0.000000000000000000, 0.000000000000000000, 5.500000000000005329 ) ) ;
#196 = CIRCLE ( 'NONE', #290, 0.5000000000000004441 ) ;
#197 = EDGE_CURVE ( 'NONE', #192, #28, #307, .T. ) ;
#198 = COORDINATED_UNIVERSAL_TIME_OFFSET ( 1, 0, .AHEAD. ) ;
#199 = EDGE_LOOP ( 'NONE', ( #153, #49 ) ) ;
#200 = PERSON_AND_ORGANIZATION ( #17, #221 ) ;
#201 = ORIENTED_EDGE ( 'NONE', *, *, #13, .T. ) ;
#202 = DATE_TIME_ROLE ( 'creation_date' ) ;
#203 = VERTEX_POINT ( 'NONE', #265 ) ;
#204 = AXIS2_PLACEMENT_3D ( 'NONE', #120, #92, #213 ) ;
#205 = ADVANCED_FACE ( 'NONE', ( #240, #208 ), #326, .T. ) ;
#206 = DIRECTION ( 'NONE',  ( 0.000000000000000000, 0.000000000000000000, 1.000000000000000000 ) ) ;
#207 = DIRECTION ( 'NONE',  ( 0.000000000000000000, 0.000000000000000000, -1.000000000000000000 ) ) ;
#208 = FACE_OUTER_BOUND ( 'NONE', #56, .T. ) ;
#209 = LOCAL_TIME ( 17, 24, 9.000000000000000000, #27 ) ;
#210 = EDGE_CURVE ( 'NONE', #28, #192, #190, .T. ) ;
#211 = CARTESIAN_POINT ( 'NONE',  ( -4.000000000000000000, 0.000000000000000000, 205.0000000000000284 ) ) ;
#212 = CARTESIAN_POINT ( 'NONE',  ( 0.000000000000000000, 0.000000000000000000, 205.0000000000000284 ) ) ;
#213 = DIRECTION ( 'NONE',  ( 1.000000000000000000, 0.000000000000000000, 0.000000000000000000 ) ) ;
#214 = CC_DESIGN_PERSON_AND_ORGANIZATION_ASSIGNMENT ( #167, #321, ( #111 ) ) ;
#215 = CIRCLE ( 'NONE', #229, 2.250000000000000000 ) ;
#216 = DIRECTION ( 'NONE',  ( 0.000000000000000000, 0.000000000000000000, 1.000000000000000000 ) ) ;
#217 = ORIENTED_EDGE ( 'NONE', *, *, #119, .F. ) ;
#218 = ORIENTED_EDGE ( 'NONE', *, *, #241, .F. ) ;
#219 = CARTESIAN_POINT ( 'NONE',  ( -2.250000000000000000, 0.000000000000000000, 205.0000000000000284 ) ) ;
#220 = CARTESIAN_POINT ( 'NONE',  ( 0.000000000000000000, 0.000000000000000000, 0.000000000000000000 ) ) ;
#221 = ORGANIZATION ( 'NEURÈENÝ', 'NEURÈENÝ', '' ) ;
#222 = ORIENTED_EDGE ( 'NONE', *, *, #320, .F. ) ;
#223 = DIRECTION ( 'NONE',  ( 0.000000000000000000, 0.000000000000000000, 1.000000000000000000 ) ) ;
#224 = ORIENTED_EDGE ( 'NONE', *, *, #38, .T. ) ;
#225 = EDGE_CURVE ( 'NONE', #168, #192, #196, .T. ) ;
#226 = CIRCLE ( 'NONE', #188, 0.5000000000000004441 ) ;
#227 = PERSON_AND_ORGANIZATION ( #17, #221 ) ;
#228 = DIRECTION ( 'NONE',  ( -1.000000000000000000, 0.000000000000000000, 0.000000000000000000 ) ) ;
#229 = AXIS2_PLACEMENT_3D ( 'NONE', #277, #128, #248 ) ;
#230 = EDGE_LOOP ( 'NONE', ( #272, #218 ) ) ;
#231 = PERSON_AND_ORGANIZATION ( #17, #221 ) ;
#232 = EDGE_CURVE ( 'NONE', #347, #105, #130, .T. ) ;
#233 = ORIENTED_EDGE ( 'NONE', *, *, #266, .F. ) ;
#234 = DIRECTION ( 'NONE',  ( 0.000000000000000000, 0.000000000000000000, 1.000000000000000000 ) ) ;
#235 = VECTOR ( 'NONE', #366, 1000.000000000000000 ) ;
#236 = PLANE ( 'NONE',  #379 ) ;
#237 = DIRECTION ( 'NONE',  ( 1.000000000000000000, 0.000000000000000000, 0.000000000000000000 ) ) ;
#238 = LOCAL_TIME ( 17, 24, 9.000000000000000000, #60 ) ;
#239 = DIRECTION ( 'NONE',  ( -0.000000000000000000, -0.000000000000000000, -1.000000000000000000 ) ) ;
#240 = FACE_BOUND ( 'NONE', #157, .T. ) ;
#241 = EDGE_CURVE ( 'NONE', #246, #25, #5, .T. ) ;
#242 = DIRECTION ( 'NONE',  ( -0.000000000000000000, -0.000000000000000000, -1.000000000000000000 ) ) ;
#243 = APPROVAL_PERSON_ORGANIZATION ( #260, #279, #169 ) ;
#244 = ORIENTED_EDGE ( 'NONE', *, *, #350, .T. ) ;
#245 = CYLINDRICAL_SURFACE ( 'NONE', #182, 4.000000000000000000 ) ;
#246 = VERTEX_POINT ( 'NONE', #270 ) ;
#247 = CC_DESIGN_PERSON_AND_ORGANIZATION_ASSIGNMENT ( #315, #51, ( #111 ) ) ;
#248 = DIRECTION ( 'NONE',  ( 1.000000000000000000, 0.000000000000000000, 0.000000000000000000 ) ) ;
#249 = CIRCLE ( 'NONE', #173, 4.000000000000000000 ) ;
#250 = CYLINDRICAL_SURFACE ( 'NONE', #148, 7.000000000000000000 ) ;
#251 = ORIENTED_EDGE ( 'NONE', *, *, #81, .T. ) ;
#252 = ADVANCED_FACE ( 'NONE', ( #191 ), #245, .T. ) ;
#253 = APPROVAL_STATUS ( 'not_yet_approved' ) ;
#254 = CARTESIAN_POINT ( 'NONE',  ( 2.250000000000000000, 2.755455298081544285E-16, 205.0000000000000284 ) ) ;
#255 = ORIENTED_EDGE ( 'NONE', *, *, #210, .T. ) ;
#256 = CC_DESIGN_SECURITY_CLASSIFICATION ( #30, ( #111 ) ) ;
#257 = APPROVAL ( #375, 'NEURÈENÝ' ) ;
#258 = CALENDAR_DATE ( 2022, 8, 7 ) ;
#259 = CARTESIAN_POINT ( 'NONE',  ( -2.250000000000000000, 0.000000000000000000, 205.0000000000000284 ) ) ;
#260 = PERSON_AND_ORGANIZATION ( #17, #221 ) ;
#261 = DIRECTION ( 'NONE',  ( 1.224646799147353207E-16, 1.000000000000000000, -0.000000000000000000 ) ) ;
#262 = AXIS2_PLACEMENT_3D ( 'NONE', #1, #125, #299 ) ;
#263 = CARTESIAN_POINT ( 'NONE',  ( 0.000000000000000000, 0.000000000000000000, 5.500000000000005329 ) ) ;
#264 = AXIS2_PLACEMENT_3D ( 'NONE', #161, #185, #362 ) ;
#265 = CARTESIAN_POINT ( 'NONE',  ( -2.250000000000000000, 0.000000000000000000, 0.000000000000000000 ) ) ;
#266 = EDGE_CURVE ( 'NONE', #347, #336, #183, .T. ) ;
#267 = DIRECTION ( 'NONE',  ( 0.000000000000000000, 0.000000000000000000, 1.000000000000000000 ) ) ;
#268 = CARTESIAN_POINT ( 'NONE',  ( 0.000000000000000000, 0.000000000000000000, 205.0000000000000284 ) ) ;
#269 = DIRECTION ( 'NONE',  ( -1.000000000000000000, 0.000000000000000000, 0.000000000000000000 ) ) ;
#270 = CARTESIAN_POINT ( 'NONE',  ( 2.250000000000000000, 2.755455298081544285E-16, 205.0000000000000284 ) ) ;
#271 = AXIS2_PLACEMENT_3D ( 'NONE', #22, #206, #131 ) ;
#272 = ORIENTED_EDGE ( 'NONE', *, *, #38, .F. ) ;
#273 = CC_DESIGN_APPROVAL ( #257, ( #184 ) ) ;
#274 = CARTESIAN_POINT ( 'NONE',  ( 0.000000000000000000, 0.000000000000000000, 205.0000000000000284 ) ) ;
#275 = ORIENTED_EDGE ( 'NONE', *, *, #335, .T. ) ;
#276 = EDGE_CURVE ( 'NONE', #105, #374, #12, .T. ) ;
#277 = CARTESIAN_POINT ( 'NONE',  ( 0.000000000000000000, 0.000000000000000000, 0.000000000000000000 ) ) ;
#278 = EDGE_LOOP ( 'NONE', ( #61, #101, #136, #345 ) ) ;
#279 = APPROVAL ( #253, 'NEURÈENÝ' ) ;
#280 = DATE_AND_TIME ( #258, #99 ) ;
#281 = ORIENTED_EDGE ( 'NONE', *, *, #266, .T. ) ;
#282 = MECHANICAL_CONTEXT ( 'NONE', #285, 'mechanical' ) ;
#283 = FACE_OUTER_BOUND ( 'NONE', #278, .T. ) ;
#284 = PRODUCT ( '8ce5', '8ce5', '', ( #282 ) ) ;
#285 = APPLICATION_CONTEXT ( 'configuration controlled 3d designs of mechanical parts and assemblies' ) ;
#286 = DATE_AND_TIME ( #312, #84 ) ;
#287 = DIRECTION ( 'NONE',  ( 1.000000000000000000, 0.000000000000000000, 0.000000000000000000 ) ) ;
#288 = APPLICATION_PROTOCOL_DEFINITION ( 'international standard', 'config_control_design', 1994, #137 ) ;
#289 = ORIENTED_EDGE ( 'NONE', *, *, #241, .T. ) ;
#290 = AXIS2_PLACEMENT_3D ( 'NONE', #95, #309, #47 ) ;
#291 = CC_DESIGN_DATE_AND_TIME_ASSIGNMENT ( #87, #202, ( #184 ) ) ;
#292 = SECURITY_CLASSIFICATION_LEVEL ( 'unclassified' ) ;
#293 = CARTESIAN_POINT ( 'NONE',  ( -4.500000000000000888, 5.510910596163089556E-16, 5.500000000000005329 ) ) ;
#294 = CYLINDRICAL_SURFACE ( 'NONE', #37, 2.250000000000000000 ) ;
#295 = CC_DESIGN_APPROVAL ( #279, ( #30 ) ) ;
#296 = CARTESIAN_POINT ( 'NONE',  ( 0.000000000000000000, 0.000000000000000000, 5.000000000000000000 ) ) ;
#297 = DIRECTION ( 'NONE',  ( -1.000000000000000000, 0.000000000000000000, 0.000000000000000000 ) ) ;
#298 = UNCERTAINTY_MEASURE_WITH_UNIT (LENGTH_MEASURE( 1.000000000000000082E-05 ), #302, 'distance_accuracy_value', 'NONE');
#299 = DIRECTION ( 'NONE',  ( 1.000000000000000000, 0.000000000000000000, 0.000000000000000000 ) ) ;
#300 = AXIS2_PLACEMENT_3D ( 'NONE', #195, #110, #287 ) ;
#301 = AXIS2_PLACEMENT_3D ( 'NONE', #296, #121, #354 ) ;
#302 =( LENGTH_UNIT ( ) NAMED_UNIT ( * ) SI_UNIT ( .MILLI., .METRE. ) );
#303 = DIRECTION ( 'NONE',  ( 0.000000000000000000, 0.000000000000000000, 1.000000000000000000 ) ) ;
#304 = ORIENTED_EDGE ( 'NONE', *, *, #129, .T. ) ;
#305 = DIRECTION ( 'NONE',  ( -0.000000000000000000, -0.000000000000000000, -1.000000000000000000 ) ) ;
#306 = ORIENTED_EDGE ( 'NONE', *, *, #26, .T. ) ;
#307 = CIRCLE ( 'NONE', #126, 4.500000000000000888 ) ;
#308 = EDGE_LOOP ( 'NONE', ( #159, #165, #134, #251 ) ) ;
#309 = DIRECTION ( 'NONE',  ( 0.000000000000000000, -1.000000000000000000, 0.000000000000000000 ) ) ;
#310 = EDGE_LOOP ( 'NONE', ( #71, #54, #139, #233 ) ) ;
#311 = EDGE_CURVE ( 'NONE', #374, #336, #333, .T. ) ;
#312 = CALENDAR_DATE ( 2022, 8, 7 ) ;
#313 = AXIS2_PLACEMENT_3D ( 'NONE', #263, #381, #357 ) ;
#314 = APPROVAL_PERSON_ORGANIZATION ( #231, #372, #346 ) ;
#315 = PERSON_AND_ORGANIZATION ( #17, #221 ) ;
#316 = ORIENTED_EDGE ( 'NONE', *, *, #232, .T. ) ;
#317 = DIRECTION ( 'NONE',  ( 0.000000000000000000, 0.000000000000000000, 1.000000000000000000 ) ) ;
#318 = EDGE_LOOP ( 'NONE', ( #45, #83 ) ) ;
#319 = ORIENTED_EDGE ( 'NONE', *, *, #225, .T. ) ;
#320 = EDGE_CURVE ( 'NONE', #25, #203, #103, .T. ) ;
#321 = PERSON_AND_ORGANIZATION_ROLE ( 'design_supplier' ) ;
#322 = ORIENTED_EDGE ( 'NONE', *, *, #171, .T. ) ;
#323 = ORIENTED_EDGE ( 'NONE', *, *, #26, .F. ) ;
#324 = ADVANCED_FACE ( 'NONE', ( #104 ), #250, .T. ) ;
#325 = DIRECTION ( 'NONE',  ( 1.000000000000000000, 0.000000000000000000, -0.000000000000000000 ) ) ;
#326 = PLANE ( 'NONE',  #301 ) ;
#327 = AXIS2_PLACEMENT_3D ( 'NONE', #94, #239, #356 ) ;
#328 = DIRECTION ( 'NONE',  ( -1.000000000000000000, 0.000000000000000000, 0.000000000000000000 ) ) ;
#329 = ADVANCED_FACE ( 'NONE', ( #7, #39 ), #98, .T. ) ;
#330 = DIRECTION ( 'NONE',  ( -0.000000000000000000, -0.000000000000000000, -1.000000000000000000 ) ) ;
#331 = TOROIDAL_SURFACE ( 'NONE', #262, 4.500000000000000888, 0.5000000000000000000 ) ;
#332 = CARTESIAN_POINT ( 'NONE',  ( 2.250000000000000000, 2.755455298081544285E-16, 0.000000000000000000 ) ) ;
#333 = CIRCLE ( 'NONE', #264, 7.000000000000000000 ) ;
#334 = ORIENTED_EDGE ( 'NONE', *, *, #232, .F. ) ;
#335 = EDGE_CURVE ( 'NONE', #116, #203, #215, .T. ) ;
#336 = VERTEX_POINT ( 'NONE', #364 ) ;
#337 = DIRECTION ( 'NONE',  ( -0.000000000000000000, -0.000000000000000000, -1.000000000000000000 ) ) ;
#338 = DIRECTION ( 'NONE',  ( 1.000000000000000000, 0.000000000000000000, 0.000000000000000000 ) ) ;
#339 = ORIENTED_EDGE ( 'NONE', *, *, #3, .F. ) ;
#340 = ORIENTED_EDGE ( 'NONE', *, *, #320, .T. ) ;
#341 = CIRCLE ( 'NONE', #204, 7.000000000000000000 ) ;
#342 = PERSON_AND_ORGANIZATION_ROLE ( 'classification_officer' ) ;
#343 = FACE_OUTER_BOUND ( 'NONE', #107, .T. ) ;
#344 = EDGE_CURVE ( 'NONE', #203, #116, #76, .T. ) ;
#345 = ORIENTED_EDGE ( 'NONE', *, *, #114, .F. ) ;
#346 = APPROVAL_ROLE ( '' ) ;
#347 = VERTEX_POINT ( 'NONE', #77 ) ;
#348 = AXIS2_PLACEMENT_3D ( 'NONE', #274, #303, #155 ) ;
#349 = FACE_OUTER_BOUND ( 'NONE', #80, .T. ) ;
#350 = EDGE_CURVE ( 'NONE', #162, #41, #70, .T. ) ;
#351 = FACE_BOUND ( 'NONE', #199, .T. ) ;
#352 = DIRECTION ( 'NONE',  ( 0.000000000000000000, 0.000000000000000000, 1.000000000000000000 ) ) ;
#353 = CIRCLE ( 'NONE', #57, 7.000000000000000000 ) ;
#354 = DIRECTION ( 'NONE',  ( 1.000000000000000000, 0.000000000000000000, -0.000000000000000000 ) ) ;
#355 = AXIS2_PLACEMENT_3D ( 'NONE', #268, #207, #269 ) ;
#356 = DIRECTION ( 'NONE',  ( 1.000000000000000000, 0.000000000000000000, 0.000000000000000000 ) ) ;
#357 = DIRECTION ( 'NONE',  ( 1.000000000000000000, 0.000000000000000000, 0.000000000000000000 ) ) ;
#358 = AXIS2_PLACEMENT_3D ( 'NONE', #146, #352, #67 ) ;
#359 = DIRECTION ( 'NONE',  ( -1.000000000000000000, 0.000000000000000000, 0.000000000000000000 ) ) ;
#360 = CC_DESIGN_APPROVAL ( #372, ( #111 ) ) ;
#361 = DIRECTION ( 'NONE',  ( 1.000000000000000000, 0.000000000000000000, 0.000000000000000000 ) ) ;
#362 = DIRECTION ( 'NONE',  ( 1.000000000000000000, 0.000000000000000000, 0.000000000000000000 ) ) ;
#363 = CC_DESIGN_PERSON_AND_ORGANIZATION_ASSIGNMENT ( #370, #135, ( #284 ) ) ;
#364 = CARTESIAN_POINT ( 'NONE',  ( -7.000000000000000000, 0.000000000000000000, 0.000000000000000000 ) ) ;
#365 = ORIENTED_EDGE ( 'NONE', *, *, #344, .T. ) ;
#366 = DIRECTION ( 'NONE',  ( -0.000000000000000000, -0.000000000000000000, -1.000000000000000000 ) ) ;
#367 = ORIENTED_EDGE ( 'NONE', *, *, #3, .T. ) ;
#368 = DATE_AND_TIME ( #89, #143 ) ;
#369 = CARTESIAN_POINT ( 'NONE',  ( -4.000000000000000000, 0.000000000000000000, 205.0000000000000284 ) ) ;
#370 = PERSON_AND_ORGANIZATION ( #17, #221 ) ;
#371 = DIRECTION ( 'NONE',  ( -0.000000000000000000, -0.000000000000000000, -1.000000000000000000 ) ) ;
#372 = APPROVAL ( #79, 'NEURÈENÝ' ) ;
#373 = APPROVAL_DATE_TIME ( #368, #372 ) ;
#374 = VERTEX_POINT ( 'NONE', #150 ) ;
#375 = APPROVAL_STATUS ( 'not_yet_approved' ) ;
#376 = EDGE_LOOP ( 'NONE', ( #62, #334, #281, #304 ) ) ;
#377 = SHAPE_DEFINITION_REPRESENTATION ( #75, #86 ) ;
#378 = ORIENTED_EDGE ( 'NONE', *, *, #225, .F. ) ;
#379 = AXIS2_PLACEMENT_3D ( 'NONE', #149, #267, #325 ) ;
#380 = APPROVAL_PERSON_ORGANIZATION ( #200, #257, #82 ) ;
#381 = DIRECTION ( 'NONE',  ( 0.000000000000000000, 0.000000000000000000, 1.000000000000000000 ) ) ;
ENDSEC;
END-ISO-10303-21;
