ISO-10303-21;
HEADER;
FILE_DESCRIPTION (( 'STEP AP203' ),
    '1' );
FILE_NAME ('8925.STEP',
    '2022-07-08T15:05:16',
    ( '' ),
    ( '' ),
    'SwSTEP 2.0',
    'SolidWorks 2019',
    '' );
FILE_SCHEMA (( 'CONFIG_CONTROL_DESIGN' ));
ENDSEC;

DATA;
#1 = CARTESIAN_POINT ( 'NONE',  ( 0.000000000000000000, 0.000000000000000000, 0.000000000000000000 ) ) ;
#2 = VERTEX_POINT ( 'NONE', #110 ) ;
#3 = AXIS2_PLACEMENT_3D ( 'NONE', #149, #175, #83 ) ;
#4 = SHAPE_DEFINITION_REPRESENTATION ( #345, #381 ) ;
#5 = ORIENTED_EDGE ( 'NONE', *, *, #262, .F. ) ;
#6 = EDGE_CURVE ( 'NONE', #357, #359, #224, .T. ) ;
#7 = APPROVAL_ROLE ( '' ) ;
#8 = CARTESIAN_POINT ( 'NONE',  ( 8.000000000000000000, 9.797174393178825657E-16, 0.000000000000000000 ) ) ;
#9 = UNCERTAINTY_MEASURE_WITH_UNIT (LENGTH_MEASURE( 1.000000000000000082E-05 ), #93, 'distance_accuracy_value', 'NONE');
#10 = DIRECTION ( 'NONE',  ( 1.000000000000000000, 0.000000000000000000, 0.000000000000000000 ) ) ;
#11 = DIRECTION ( 'NONE',  ( 0.000000000000000000, 0.000000000000000000, -1.000000000000000000 ) ) ;
#12 = VECTOR ( 'NONE', #368, 1000.000000000000000 ) ;
#13 = PERSON_AND_ORGANIZATION ( #300, #56 ) ;
#14 = VERTEX_POINT ( 'NONE', #8 ) ;
#15 = CARTESIAN_POINT ( 'NONE',  ( -8.000000000000000000, 0.000000000000000000, 0.000000000000000000 ) ) ;
#16 = CARTESIAN_POINT ( 'NONE',  ( -5.000000000000000000, 0.000000000000000000, 5.500000000000005329 ) ) ;
#17 = EDGE_CURVE ( 'NONE', #14, #152, #206, .T. ) ;
#18 = CIRCLE ( 'NONE', #311, 5.500000000000000000 ) ;
#19 = EDGE_CURVE ( 'NONE', #189, #188, #244, .T. ) ;
#20 = CARTESIAN_POINT ( 'NONE',  ( 0.000000000000000000, 0.000000000000000000, 205.0000000000000284 ) ) ;
#21 = CARTESIAN_POINT ( 'NONE',  ( 0.000000000000000000, 0.000000000000000000, 5.000000000000000000 ) ) ;
#22 = CC_DESIGN_PERSON_AND_ORGANIZATION_ASSIGNMENT ( #13, #169, ( #78 ) ) ;
#23 = CARTESIAN_POINT ( 'NONE',  ( 2.750000000000000000, 3.367778697655221012E-16, 205.0000000000000284 ) ) ;
#24 = AXIS2_PLACEMENT_3D ( 'NONE', #350, #260, #265 ) ;
#25 = PERSON_AND_ORGANIZATION_ROLE ( 'design_owner' ) ;
#26 = CARTESIAN_POINT ( 'NONE',  ( 0.000000000000000000, 0.000000000000000000, 205.0000000000000284 ) ) ;
#27 = ORIENTED_EDGE ( 'NONE', *, *, #6, .F. ) ;
#28 = DIRECTION ( 'NONE',  ( 0.000000000000000000, 0.000000000000000000, 1.000000000000000000 ) ) ;
#29 = APPROVAL_PERSON_ORGANIZATION ( #40, #135, #7 ) ;
#30 = ADVANCED_FACE ( 'NONE', ( #332 ), #335, .T. ) ;
#31 = ORIENTED_EDGE ( 'NONE', *, *, #123, .F. ) ;
#32 = AXIS2_PLACEMENT_3D ( 'NONE', #195, #37, #69 ) ;
#33 = DIRECTION ( 'NONE',  ( 1.000000000000000000, 0.000000000000000000, 0.000000000000000000 ) ) ;
#34 = ORIENTED_EDGE ( 'NONE', *, *, #362, .T. ) ;
#35 = APPROVAL_STATUS ( 'not_yet_approved' ) ;
#36 = EDGE_CURVE ( 'NONE', #317, #188, #339, .T. ) ;
#37 = DIRECTION ( 'NONE',  ( 0.000000000000000000, 0.000000000000000000, 1.000000000000000000 ) ) ;
#38 = COORDINATED_UNIVERSAL_TIME_OFFSET ( 1, 0, .AHEAD. ) ;
#39 = ORIENTED_EDGE ( 'NONE', *, *, #36, .T. ) ;
#40 = PERSON_AND_ORGANIZATION ( #300, #56 ) ;
#41 = DIRECTION ( 'NONE',  ( -0.000000000000000000, -0.000000000000000000, -1.000000000000000000 ) ) ;
#42 = PERSON_AND_ORGANIZATION ( #300, #56 ) ;
#43 = CARTESIAN_POINT ( 'NONE',  ( 0.000000000000000000, 0.000000000000000000, 205.0000000000000284 ) ) ;
#44 = DATE_AND_TIME ( #104, #268 ) ;
#45 = TOROIDAL_SURFACE ( 'NONE', #286, 5.500000000000000000, 0.5000000000000000000 ) ;
#46 = ORIENTED_EDGE ( 'NONE', *, *, #307, .F. ) ;
#47 = LINE ( 'NONE', #23, #12 ) ;
#48 = DIRECTION ( 'NONE',  ( 0.000000000000000000, 0.000000000000000000, -1.000000000000000000 ) ) ;
#49 = ADVANCED_FACE ( 'NONE', ( #172, #75 ), #162, .T. ) ;
#50 = ADVANCED_FACE ( 'NONE', ( #79 ), #167, .F. ) ;
#51 = DIRECTION ( 'NONE',  ( 1.000000000000000000, 0.000000000000000000, 0.000000000000000000 ) ) ;
#52 = SECURITY_CLASSIFICATION ( '', '', #266 ) ;
#53 = DIRECTION ( 'NONE',  ( 1.000000000000000000, 0.000000000000000000, 0.000000000000000000 ) ) ;
#54 = DIRECTION ( 'NONE',  ( 1.000000000000000000, 0.000000000000000000, 0.000000000000000000 ) ) ;
#55 = FACE_OUTER_BOUND ( 'NONE', #216, .T. ) ;
#56 = ORGANIZATION ( 'NEURÈENÝ', 'NEURÈENÝ', '' ) ;
#57 = CARTESIAN_POINT ( 'NONE',  ( 2.750000000000000000, 3.367778697655221012E-16, 205.0000000000000284 ) ) ;
#58 = ORIENTED_EDGE ( 'NONE', *, *, #289, .F. ) ;
#59 = AXIS2_PLACEMENT_3D ( 'NONE', #43, #225, #10 ) ;
#60 = CARTESIAN_POINT ( 'NONE',  ( 0.000000000000000000, 0.000000000000000000, 5.000000000000000000 ) ) ;
#61 = ORIENTED_EDGE ( 'NONE', *, *, #124, .T. ) ;
#62 = EDGE_CURVE ( 'NONE', #189, #107, #115, .T. ) ;
#63 = VERTEX_POINT ( 'NONE', #196 ) ;
#64 = AXIS2_PLACEMENT_3D ( 'NONE', #26, #257, #290 ) ;
#65 = CARTESIAN_POINT ( 'NONE',  ( 5.000000000000000000, 6.123233995736766282E-16, 205.0000000000000284 ) ) ;
#66 = EDGE_LOOP ( 'NONE', ( #161, #34 ) ) ;
#67 = COORDINATED_UNIVERSAL_TIME_OFFSET ( 1, 0, .AHEAD. ) ;
#68 = CIRCLE ( 'NONE', #3, 0.5000000000000004441 ) ;
#69 = DIRECTION ( 'NONE',  ( 1.000000000000000000, 0.000000000000000000, -0.000000000000000000 ) ) ;
#70 = CIRCLE ( 'NONE', #24, 5.500000000000000000 ) ;
#71 = APPROVAL_ROLE ( '' ) ;
#72 = DIRECTION ( 'NONE',  ( 1.000000000000000000, 0.000000000000000000, 0.000000000000000000 ) ) ;
#73 = VECTOR ( 'NONE', #253, 1000.000000000000000 ) ;
#74 = CALENDAR_DATE ( 2022, 8, 7 ) ;
#75 = FACE_OUTER_BOUND ( 'NONE', #210, .T. ) ;
#76 = APPROVAL ( #303, 'NEURÈENÝ' ) ;
#77 = DIRECTION ( 'NONE',  ( -0.000000000000000000, -0.000000000000000000, -1.000000000000000000 ) ) ;
#78 = PRODUCT_DEFINITION_FORMATION_WITH_SPECIFIED_SOURCE ( 'LIBOVOLNÝ', '', #174, .NOT_KNOWN. ) ;
#79 = FACE_OUTER_BOUND ( 'NONE', #337, .T. ) ;
#80 = EDGE_CURVE ( 'NONE', #317, #2, #326, .T. ) ;
#81 = DIRECTION ( 'NONE',  ( 0.000000000000000000, 0.000000000000000000, 1.000000000000000000 ) ) ;
#82 = CARTESIAN_POINT ( 'NONE',  ( 8.000000000000000000, 9.797174393178825657E-16, 5.000000000000000000 ) ) ;
#83 = DIRECTION ( 'NONE',  ( 0.000000000000000000, 0.000000000000000000, -1.000000000000000000 ) ) ;
#84 =( GEOMETRIC_REPRESENTATION_CONTEXT ( 3 ) GLOBAL_UNCERTAINTY_ASSIGNED_CONTEXT ( ( #9 ) ) GLOBAL_UNIT_ASSIGNED_CONTEXT ( ( #93, #352, #125 ) ) REPRESENTATION_CONTEXT ( 'NONE', 'WORKASPACE' ) );
#85 = AXIS2_PLACEMENT_3D ( 'NONE', #232, #281, #53 ) ;
#86 = DIRECTION ( 'NONE',  ( -1.000000000000000000, 0.000000000000000000, 0.000000000000000000 ) ) ;
#87 = AXIS2_PLACEMENT_3D ( 'NONE', #226, #41, #136 ) ;
#88 = FACE_OUTER_BOUND ( 'NONE', #92, .T. ) ;
#89 = EDGE_LOOP ( 'NONE', ( #329, #327 ) ) ;
#90 = DIRECTION ( 'NONE',  ( 0.000000000000000000, 0.000000000000000000, 1.000000000000000000 ) ) ;
#91 = EDGE_CURVE ( 'NONE', #157, #152, #101, .T. ) ;
#92 = EDGE_LOOP ( 'NONE', ( #353, #39, #61, #375 ) ) ;
#93 =( LENGTH_UNIT ( ) NAMED_UNIT ( * ) SI_UNIT ( .MILLI., .METRE. ) );
#94 = ORIENTED_EDGE ( 'NONE', *, *, #153, .T. ) ;
#95 = EDGE_CURVE ( 'NONE', #157, #103, #318, .T. ) ;
#96 = CC_DESIGN_APPROVAL ( #76, ( #78 ) ) ;
#97 = PERSON_AND_ORGANIZATION ( #300, #56 ) ;
#98 = ORIENTED_EDGE ( 'NONE', *, *, #262, .T. ) ;
#99 = DESIGN_CONTEXT ( 'detailed design', #245, 'design' ) ;
#100 = APPROVAL_DATE_TIME ( #328, #76 ) ;
#101 = LINE ( 'NONE', #310, #154 ) ;
#102 = COORDINATED_UNIVERSAL_TIME_OFFSET ( 1, 0, .AHEAD. ) ;
#103 = VERTEX_POINT ( 'NONE', #82 ) ;
#104 = CALENDAR_DATE ( 2022, 8, 7 ) ;
#105 = AXIS2_PLACEMENT_3D ( 'NONE', #283, #341, #250 ) ;
#106 = PRODUCT_DEFINITION ( 'NEZNÁMÝ', '', #78, #99 ) ;
#107 = VERTEX_POINT ( 'NONE', #173 ) ;
#108 = CIRCLE ( 'NONE', #85, 5.000000000000000000 ) ;
#109 = AXIS2_PLACEMENT_3D ( 'NONE', #363, #247, #72 ) ;
#110 = CARTESIAN_POINT ( 'NONE',  ( -5.000000000000000000, 0.000000000000000000, 205.0000000000000284 ) ) ;
#111 = DIRECTION ( 'NONE',  ( 1.000000000000000000, 0.000000000000000000, 0.000000000000000000 ) ) ;
#112 = CC_DESIGN_SECURITY_CLASSIFICATION ( #52, ( #78 ) ) ;
#113 = FACE_OUTER_BOUND ( 'NONE', #185, .T. ) ;
#114 = CARTESIAN_POINT ( 'NONE',  ( 0.000000000000000000, 0.000000000000000000, 5.000000000000000000 ) ) ;
#115 = CIRCLE ( 'NONE', #133, 0.5000000000000004441 ) ;
#116 = DIRECTION ( 'NONE',  ( 1.000000000000000000, 0.000000000000000000, 0.000000000000000000 ) ) ;
#117 = FACE_OUTER_BOUND ( 'NONE', #264, .T. ) ;
#118 = CC_DESIGN_APPROVAL ( #280, ( #106 ) ) ;
#119 = VECTOR ( 'NONE', #48, 1000.000000000000000 ) ;
#120 = DIRECTION ( 'NONE',  ( -1.000000000000000000, 0.000000000000000000, 0.000000000000000000 ) ) ;
#121 = PERSON_AND_ORGANIZATION ( #300, #56 ) ;
#122 = EDGE_LOOP ( 'NONE', ( #58, #132, #219, #209 ) ) ;
#123 = EDGE_CURVE ( 'NONE', #188, #63, #68, .T. ) ;
#124 = EDGE_CURVE ( 'NONE', #188, #189, #108, .T. ) ;
#125 =( NAMED_UNIT ( * ) SI_UNIT ( $, .STERADIAN. ) SOLID_ANGLE_UNIT ( ) );
#126 = LOCAL_TIME ( 17, 5, 16.00000000000000000, #102 ) ;
#127 = DIRECTION ( 'NONE',  ( 1.000000000000000000, 0.000000000000000000, 0.000000000000000000 ) ) ;
#128 = ORIENTED_EDGE ( 'NONE', *, *, #62, .T. ) ;
#129 = FACE_BOUND ( 'NONE', #89, .T. ) ;
#130 = DIRECTION ( 'NONE',  ( 0.000000000000000000, 0.000000000000000000, 1.000000000000000000 ) ) ;
#131 = TOROIDAL_SURFACE ( 'NONE', #159, 5.500000000000000000, 0.5000000000000000000 ) ;
#132 = ORIENTED_EDGE ( 'NONE', *, *, #348, .T. ) ;
#133 = AXIS2_PLACEMENT_3D ( 'NONE', #248, #142, #296 ) ;
#134 = ORIENTED_EDGE ( 'NONE', *, *, #201, .T. ) ;
#135 = APPROVAL ( #35, 'NEURÈENÝ' ) ;
#136 = DIRECTION ( 'NONE',  ( -1.000000000000000000, 0.000000000000000000, 0.000000000000000000 ) ) ;
#137 = LOCAL_TIME ( 17, 5, 16.00000000000000000, #325 ) ;
#138 = CIRCLE ( 'NONE', #158, 2.750000000000000000 ) ;
#139 = DIRECTION ( 'NONE',  ( -1.000000000000000000, 0.000000000000000000, 0.000000000000000000 ) ) ;
#140 = AXIS2_PLACEMENT_3D ( 'NONE', #235, #90, #208 ) ;
#141 = VECTOR ( 'NONE', #77, 1000.000000000000000 ) ;
#142 = DIRECTION ( 'NONE',  ( 1.224646799147353207E-16, 1.000000000000000000, -0.000000000000000000 ) ) ;
#143 = CARTESIAN_POINT ( 'NONE',  ( 5.000000000000000000, 6.123233995736766282E-16, 5.500000000000005329 ) ) ;
#144 = CARTESIAN_POINT ( 'NONE',  ( 0.000000000000000000, 0.000000000000000000, 0.000000000000000000 ) ) ;
#145 = CIRCLE ( 'NONE', #191, 2.750000000000000000 ) ;
#146 = DIRECTION ( 'NONE',  ( 1.000000000000000000, 0.000000000000000000, -0.000000000000000000 ) ) ;
#147 = EDGE_CURVE ( 'NONE', #359, #294, #176, .T. ) ;
#148 = CARTESIAN_POINT ( 'NONE',  ( 2.750000000000000000, 3.367778697655221012E-16, 0.000000000000000000 ) ) ;
#149 = CARTESIAN_POINT ( 'NONE',  ( 5.500000000000000000, 0.000000000000000000, 5.500000000000005329 ) ) ;
#150 = AXIS2_PLACEMENT_3D ( 'NONE', #254, #205, #54 ) ;
#151 = CARTESIAN_POINT ( 'NONE',  ( 0.000000000000000000, 0.000000000000000000, 205.0000000000000284 ) ) ;
#152 = VERTEX_POINT ( 'NONE', #15 ) ;
#153 = EDGE_CURVE ( 'NONE', #152, #14, #299, .T. ) ;
#154 = VECTOR ( 'NONE', #180, 1000.000000000000000 ) ;
#155 = LINE ( 'NONE', #156, #197 ) ;
#156 = CARTESIAN_POINT ( 'NONE',  ( 8.000000000000000000, 9.797174393178825657E-16, 5.000000000000000000 ) ) ;
#157 = VERTEX_POINT ( 'NONE', #227 ) ;
#158 = AXIS2_PLACEMENT_3D ( 'NONE', #144, #252, #51 ) ;
#159 = AXIS2_PLACEMENT_3D ( 'NONE', #316, #28, #33 ) ;
#160 = ORIENTED_EDGE ( 'NONE', *, *, #95, .T. ) ;
#161 = ORIENTED_EDGE ( 'NONE', *, *, #207, .T. ) ;
#162 = PLANE ( 'NONE',  #32 ) ;
#163 = PERSON_AND_ORGANIZATION_ROLE ( 'creator' ) ;
#164 = EDGE_LOOP ( 'NONE', ( #351, #272, #321, #94 ) ) ;
#165 = AXIS2_PLACEMENT_3D ( 'NONE', #114, #371, #116 ) ;
#166 = ORIENTED_EDGE ( 'NONE', *, *, #19, .F. ) ;
#167 = CYLINDRICAL_SURFACE ( 'NONE', #278, 2.750000000000000000 ) ;
#168 = MANIFOLD_SOLID_BREP ( 'Odebrat vysunutím3', #194 ) ;
#169 = PERSON_AND_ORGANIZATION_ROLE ( 'design_supplier' ) ;
#170 = ADVANCED_FACE ( 'NONE', ( #346 ), #313, .T. ) ;
#171 = AXIS2_PLACEMENT_3D ( 'NONE', #20, #284, #120 ) ;
#172 = FACE_BOUND ( 'NONE', #238, .T. ) ;
#173 = CARTESIAN_POINT ( 'NONE',  ( -5.500000000000000000, 6.735557395310442023E-16, 5.000000000000002665 ) ) ;
#174 = PRODUCT ( '8925', '8925', '', ( #239 ) ) ;
#175 = DIRECTION ( 'NONE',  ( 0.000000000000000000, -1.000000000000000000, 0.000000000000000000 ) ) ;
#176 = LINE ( 'NONE', #279, #119 ) ;
#177 = AXIS2_PLACEMENT_3D ( 'NONE', #21, #342, #146 ) ;
#178 = ADVANCED_FACE ( 'NONE', ( #255 ), #372, .F. ) ;
#179 = FACE_OUTER_BOUND ( 'NONE', #164, .T. ) ;
#180 = DIRECTION ( 'NONE',  ( -0.000000000000000000, -0.000000000000000000, -1.000000000000000000 ) ) ;
#181 = DIRECTION ( 'NONE',  ( 1.000000000000000000, 0.000000000000000000, 0.000000000000000000 ) ) ;
#182 = CARTESIAN_POINT ( 'NONE',  ( -2.750000000000000000, 0.000000000000000000, 205.0000000000000284 ) ) ;
#183 = EDGE_LOOP ( 'NONE', ( #223, #98, #366, #380 ) ) ;
#184 = CARTESIAN_POINT ( 'NONE',  ( -2.750000000000000000, 0.000000000000000000, 0.000000000000000000 ) ) ;
#185 = EDGE_LOOP ( 'NONE', ( #166, #128, #377, #31 ) ) ;
#186 = ORIENTED_EDGE ( 'NONE', *, *, #19, .T. ) ;
#187 = DIRECTION ( 'NONE',  ( -0.000000000000000000, -0.000000000000000000, -1.000000000000000000 ) ) ;
#188 = VERTEX_POINT ( 'NONE', #143 ) ;
#189 = VERTEX_POINT ( 'NONE', #16 ) ;
#190 = EDGE_CURVE ( 'NONE', #259, #294, #138, .T. ) ;
#191 = AXIS2_PLACEMENT_3D ( 'NONE', #285, #347, #343 ) ;
#192 = PERSON_AND_ORGANIZATION_ROLE ( 'creator' ) ;
#193 = CARTESIAN_POINT ( 'NONE',  ( 0.000000000000000000, 0.000000000000000000, 5.500000000000005329 ) ) ;
#194 = CLOSED_SHELL ( 'NONE', ( #178, #274, #315, #170, #217, #234, #373, #30, #49, #293, #50 ) ) ;
#195 = CARTESIAN_POINT ( 'NONE',  ( 0.000000000000000000, 0.000000000000000000, 205.0000000000000284 ) ) ;
#196 = CARTESIAN_POINT ( 'NONE',  ( 5.500000000000000000, 0.000000000000000000, 5.000000000000002665 ) ) ;
#197 = VECTOR ( 'NONE', #187, 1000.000000000000000 ) ;
#198 = CYLINDRICAL_SURFACE ( 'NONE', #105, 8.000000000000000000 ) ;
#199 = DIRECTION ( 'NONE',  ( 1.000000000000000000, 0.000000000000000000, 0.000000000000000000 ) ) ;
#200 = CARTESIAN_POINT ( 'NONE',  ( 0.000000000000000000, 0.000000000000000000, 0.000000000000000000 ) ) ;
#201 = EDGE_CURVE ( 'NONE', #294, #259, #145, .T. ) ;
#202 = CC_DESIGN_PERSON_AND_ORGANIZATION_ASSIGNMENT ( #42, #192, ( #106 ) ) ;
#203 = LOCAL_TIME ( 17, 5, 16.00000000000000000, #275 ) ;
#204 = LINE ( 'NONE', #312, #73 ) ;
#205 = DIRECTION ( 'NONE',  ( 0.000000000000000000, 0.000000000000000000, 1.000000000000000000 ) ) ;
#206 = CIRCLE ( 'NONE', #109, 8.000000000000000000 ) ;
#207 = EDGE_CURVE ( 'NONE', #63, #107, #18, .T. ) ;
#208 = DIRECTION ( 'NONE',  ( 1.000000000000000000, 0.000000000000000000, -0.000000000000000000 ) ) ;
#209 = ORIENTED_EDGE ( 'NONE', *, *, #91, .F. ) ;
#210 = EDGE_LOOP ( 'NONE', ( #243, #267 ) ) ;
#211 = ORIENTED_EDGE ( 'NONE', *, *, #362, .F. ) ;
#212 = EDGE_CURVE ( 'NONE', #2, #189, #204, .T. ) ;
#213 = CARTESIAN_POINT ( 'NONE',  ( 0.000000000000000000, 0.000000000000000000, 5.500000000000005329 ) ) ;
#214 = ORIENTED_EDGE ( 'NONE', *, *, #153, .F. ) ;
#215 = AXIS2_PLACEMENT_3D ( 'NONE', #60, #233, #287 ) ;
#216 = EDGE_LOOP ( 'NONE', ( #214, #323 ) ) ;
#217 = ADVANCED_FACE ( 'NONE', ( #179 ), #198, .T. ) ;
#218 = DATE_AND_TIME ( #74, #203 ) ;
#219 = ORIENTED_EDGE ( 'NONE', *, *, #17, .T. ) ;
#220 = PERSON_AND_ORGANIZATION ( #300, #56 ) ;
#221 = DIRECTION ( 'NONE',  ( 1.000000000000000000, 0.000000000000000000, 0.000000000000000000 ) ) ;
#222 = LOCAL_TIME ( 17, 5, 16.00000000000000000, #67 ) ;
#223 = ORIENTED_EDGE ( 'NONE', *, *, #261, .T. ) ;
#224 = CIRCLE ( 'NONE', #59, 2.750000000000000000 ) ;
#225 = DIRECTION ( 'NONE',  ( 0.000000000000000000, 0.000000000000000000, 1.000000000000000000 ) ) ;
#226 = CARTESIAN_POINT ( 'NONE',  ( 0.000000000000000000, 0.000000000000000000, 205.0000000000000284 ) ) ;
#227 = CARTESIAN_POINT ( 'NONE',  ( -8.000000000000000000, 0.000000000000000000, 5.000000000000000000 ) ) ;
#228 = DIRECTION ( 'NONE',  ( -0.000000000000000000, -0.000000000000000000, -1.000000000000000000 ) ) ;
#229 = DIRECTION ( 'NONE',  ( -0.000000000000000000, -0.000000000000000000, -1.000000000000000000 ) ) ;
#230 = DIRECTION ( 'NONE',  ( 1.000000000000000000, 0.000000000000000000, 0.000000000000000000 ) ) ;
#231 = CIRCLE ( 'NONE', #215, 8.000000000000000000 ) ;
#232 = CARTESIAN_POINT ( 'NONE',  ( 0.000000000000000000, 0.000000000000000000, 5.500000000000005329 ) ) ;
#233 = DIRECTION ( 'NONE',  ( 0.000000000000000000, 0.000000000000000000, 1.000000000000000000 ) ) ;
#234 = ADVANCED_FACE ( 'NONE', ( #308, #117 ), #370, .T. ) ;
#235 = CARTESIAN_POINT ( 'NONE',  ( 0.000000000000000000, 0.000000000000000000, 0.000000000000000000 ) ) ;
#236 = ORIENTED_EDGE ( 'NONE', *, *, #147, .T. ) ;
#237 = FACE_OUTER_BOUND ( 'NONE', #270, .T. ) ;
#238 = EDGE_LOOP ( 'NONE', ( #364, #27 ) ) ;
#239 = MECHANICAL_CONTEXT ( 'NONE', #273, 'mechanical' ) ;
#240 = ORIENTED_EDGE ( 'NONE', *, *, #6, .T. ) ;
#241 = AXIS2_PLACEMENT_3D ( 'NONE', #151, #376, #181 ) ;
#242 = CALENDAR_DATE ( 2022, 8, 7 ) ;
#243 = ORIENTED_EDGE ( 'NONE', *, *, #307, .T. ) ;
#244 = CIRCLE ( 'NONE', #271, 5.000000000000000000 ) ;
#245 = APPLICATION_CONTEXT ( 'configuration controlled 3d designs of mechanical parts and assemblies' ) ;
#246 = EDGE_LOOP ( 'NONE', ( #298, #46, #354, #186 ) ) ;
#247 = DIRECTION ( 'NONE',  ( 0.000000000000000000, 0.000000000000000000, 1.000000000000000000 ) ) ;
#248 = CARTESIAN_POINT ( 'NONE',  ( -5.500000000000000000, 6.735557395310442023E-16, 5.500000000000005329 ) ) ;
#249 = DIRECTION ( 'NONE',  ( 0.000000000000000000, 0.000000000000000000, 1.000000000000000000 ) ) ;
#250 = DIRECTION ( 'NONE',  ( -1.000000000000000000, 0.000000000000000000, 0.000000000000000000 ) ) ;
#251 = CC_DESIGN_PERSON_AND_ORGANIZATION_ASSIGNMENT ( #97, #163, ( #78 ) ) ;
#252 = DIRECTION ( 'NONE',  ( -0.000000000000000000, -0.000000000000000000, -1.000000000000000000 ) ) ;
#253 = DIRECTION ( 'NONE',  ( -0.000000000000000000, -0.000000000000000000, -1.000000000000000000 ) ) ;
#254 = CARTESIAN_POINT ( 'NONE',  ( 0.000000000000000000, 0.000000000000000000, 205.0000000000000284 ) ) ;
#255 = FACE_OUTER_BOUND ( 'NONE', #183, .T. ) ;
#256 = AXIS2_PLACEMENT_3D ( 'NONE', #200, #81, #199 ) ;
#257 = DIRECTION ( 'NONE',  ( -0.000000000000000000, -0.000000000000000000, -1.000000000000000000 ) ) ;
#258 = AXIS2_PLACEMENT_3D ( 'NONE', #306, #249, #111 ) ;
#259 = VERTEX_POINT ( 'NONE', #148 ) ;
#260 = DIRECTION ( 'NONE',  ( -0.000000000000000000, -0.000000000000000000, -1.000000000000000000 ) ) ;
#261 = EDGE_CURVE ( 'NONE', #359, #357, #355, .T. ) ;
#262 = EDGE_CURVE ( 'NONE', #357, #259, #47, .T. ) ;
#263 = PLANE ( 'NONE',  #140 ) ;
#264 = EDGE_LOOP ( 'NONE', ( #160, #277 ) ) ;
#265 = DIRECTION ( 'NONE',  ( 1.000000000000000000, 0.000000000000000000, 0.000000000000000000 ) ) ;
#266 = SECURITY_CLASSIFICATION_LEVEL ( 'unclassified' ) ;
#267 = ORIENTED_EDGE ( 'NONE', *, *, #80, .T. ) ;
#268 = LOCAL_TIME ( 17, 5, 16.00000000000000000, #38 ) ;
#269 = DATE_AND_TIME ( #301, #222 ) ;
#270 = EDGE_LOOP ( 'NONE', ( #367, #319, #288, #211 ) ) ;
#271 = AXIS2_PLACEMENT_3D ( 'NONE', #193, #302, #221 ) ;
#272 = ORIENTED_EDGE ( 'NONE', *, *, #95, .F. ) ;
#273 = APPLICATION_CONTEXT ( 'configuration controlled 3d designs of mechanical parts and assemblies' ) ;
#274 = ADVANCED_FACE ( 'NONE', ( #113 ), #131, .F. ) ;
#275 = COORDINATED_UNIVERSAL_TIME_OFFSET ( 1, 0, .AHEAD. ) ;
#276 = CARTESIAN_POINT ( 'NONE',  ( 0.000000000000000000, 0.000000000000000000, 205.0000000000000284 ) ) ;
#277 = ORIENTED_EDGE ( 'NONE', *, *, #289, .T. ) ;
#278 = AXIS2_PLACEMENT_3D ( 'NONE', #276, #11, #139 ) ;
#279 = CARTESIAN_POINT ( 'NONE',  ( -2.750000000000000000, 0.000000000000000000, 205.0000000000000284 ) ) ;
#280 = APPROVAL ( #356, 'NEURÈENÝ' ) ;
#281 = DIRECTION ( 'NONE',  ( 0.000000000000000000, 0.000000000000000000, 1.000000000000000000 ) ) ;
#282 = AXIS2_PLACEMENT_3D ( 'NONE', #1, #130, #379 ) ;
#283 = CARTESIAN_POINT ( 'NONE',  ( 0.000000000000000000, 0.000000000000000000, 5.000000000000000000 ) ) ;
#284 = DIRECTION ( 'NONE',  ( 0.000000000000000000, 0.000000000000000000, -1.000000000000000000 ) ) ;
#285 = CARTESIAN_POINT ( 'NONE',  ( 0.000000000000000000, 0.000000000000000000, 0.000000000000000000 ) ) ;
#286 = AXIS2_PLACEMENT_3D ( 'NONE', #213, #349, #127 ) ;
#287 = DIRECTION ( 'NONE',  ( 1.000000000000000000, 0.000000000000000000, 0.000000000000000000 ) ) ;
#288 = ORIENTED_EDGE ( 'NONE', *, *, #123, .T. ) ;
#289 = EDGE_CURVE ( 'NONE', #103, #157, #231, .T. ) ;
#290 = DIRECTION ( 'NONE',  ( -1.000000000000000000, 0.000000000000000000, 0.000000000000000000 ) ) ;
#291 = APPROVAL_PERSON_ORGANIZATION ( #336, #76, #365 ) ;
#292 = CC_DESIGN_APPROVAL ( #135, ( #52 ) ) ;
#293 = ADVANCED_FACE ( 'NONE', ( #237 ), #45, .F. ) ;
#294 = VERTEX_POINT ( 'NONE', #184 ) ;
#295 = CALENDAR_DATE ( 2022, 8, 7 ) ;
#296 = DIRECTION ( 'NONE',  ( -1.000000000000000000, 1.224646799147351482E-16, 0.000000000000000000 ) ) ;
#297 = DATE_TIME_ROLE ( 'creation_date' ) ;
#298 = ORIENTED_EDGE ( 'NONE', *, *, #36, .F. ) ;
#299 = CIRCLE ( 'NONE', #256, 8.000000000000000000 ) ;
#300 = PERSON ( 'NEURÈENÝ', 'NEURÈENÝ', 'NEURÈENÝ', ('NEURÈENÝ'), ('NEURÈENÝ'), ('NEURÈENÝ') ) ;
#301 = CALENDAR_DATE ( 2022, 8, 7 ) ;
#302 = DIRECTION ( 'NONE',  ( 0.000000000000000000, 0.000000000000000000, 1.000000000000000000 ) ) ;
#303 = APPROVAL_STATUS ( 'not_yet_approved' ) ;
#304 = CARTESIAN_POINT ( 'NONE',  ( 5.000000000000000000, 6.123233995736766282E-16, 205.0000000000000284 ) ) ;
#305 = DATE_TIME_ROLE ( 'classification_date' ) ;
#306 = CARTESIAN_POINT ( 'NONE',  ( 0.000000000000000000, 0.000000000000000000, 205.0000000000000284 ) ) ;
#307 = EDGE_CURVE ( 'NONE', #2, #317, #340, .T. ) ;
#308 = FACE_BOUND ( 'NONE', #66, .T. ) ;
#309 = CARTESIAN_POINT ( 'NONE',  ( 0.000000000000000000, 0.000000000000000000, 5.000000000000000000 ) ) ;
#310 = CARTESIAN_POINT ( 'NONE',  ( -8.000000000000000000, 0.000000000000000000, 5.000000000000000000 ) ) ;
#311 = AXIS2_PLACEMENT_3D ( 'NONE', #369, #228, #230 ) ;
#312 = CARTESIAN_POINT ( 'NONE',  ( -5.000000000000000000, 0.000000000000000000, 205.0000000000000284 ) ) ;
#313 = CYLINDRICAL_SURFACE ( 'NONE', #324, 8.000000000000000000 ) ;
#314 = PERSON_AND_ORGANIZATION ( #300, #56 ) ;
#315 = ADVANCED_FACE ( 'NONE', ( #88 ), #322, .T. ) ;
#316 = CARTESIAN_POINT ( 'NONE',  ( 0.000000000000000000, 0.000000000000000000, 5.500000000000005329 ) ) ;
#317 = VERTEX_POINT ( 'NONE', #65 ) ;
#318 = CIRCLE ( 'NONE', #165, 8.000000000000000000 ) ;
#319 = ORIENTED_EDGE ( 'NONE', *, *, #124, .F. ) ;
#320 = APPLICATION_PROTOCOL_DEFINITION ( 'international standard', 'config_control_design', 1994, #273 ) ;
#321 = ORIENTED_EDGE ( 'NONE', *, *, #91, .T. ) ;
#322 = CYLINDRICAL_SURFACE ( 'NONE', #64, 5.000000000000000000 ) ;
#323 = ORIENTED_EDGE ( 'NONE', *, *, #17, .F. ) ;
#324 = AXIS2_PLACEMENT_3D ( 'NONE', #309, #229, #86 ) ;
#325 = COORDINATED_UNIVERSAL_TIME_OFFSET ( 1, 0, .AHEAD. ) ;
#326 = CIRCLE ( 'NONE', #258, 5.000000000000000000 ) ;
#327 = ORIENTED_EDGE ( 'NONE', *, *, #190, .F. ) ;
#328 = DATE_AND_TIME ( #242, #137 ) ;
#329 = ORIENTED_EDGE ( 'NONE', *, *, #201, .F. ) ;
#330 = APPROVAL_DATE_TIME ( #358, #135 ) ;
#331 = PRODUCT_RELATED_PRODUCT_CATEGORY ( 'detail', '', ( #174 ) ) ;
#332 = FACE_OUTER_BOUND ( 'NONE', #246, .T. ) ;
#333 = CC_DESIGN_DATE_AND_TIME_ASSIGNMENT ( #218, #297, ( #106 ) ) ;
#334 = APPROVAL_DATE_TIME ( #44, #280 ) ;
#335 = CYLINDRICAL_SURFACE ( 'NONE', #87, 5.000000000000000000 ) ;
#336 = PERSON_AND_ORGANIZATION ( #300, #56 ) ;
#337 = EDGE_LOOP ( 'NONE', ( #5, #240, #236, #134 ) ) ;
#338 = CC_DESIGN_PERSON_AND_ORGANIZATION_ASSIGNMENT ( #220, #361, ( #52 ) ) ;
#339 = LINE ( 'NONE', #304, #141 ) ;
#340 = CIRCLE ( 'NONE', #241, 5.000000000000000000 ) ;
#341 = DIRECTION ( 'NONE',  ( -0.000000000000000000, -0.000000000000000000, -1.000000000000000000 ) ) ;
#342 = DIRECTION ( 'NONE',  ( 0.000000000000000000, 0.000000000000000000, 1.000000000000000000 ) ) ;
#343 = DIRECTION ( 'NONE',  ( 1.000000000000000000, 0.000000000000000000, 0.000000000000000000 ) ) ;
#344 = APPROVAL_PERSON_ORGANIZATION ( #121, #280, #71 ) ;
#345 = PRODUCT_DEFINITION_SHAPE ( 'NONE', 'NONE',  #106 ) ;
#346 = FACE_OUTER_BOUND ( 'NONE', #122, .T. ) ;
#347 = DIRECTION ( 'NONE',  ( -0.000000000000000000, -0.000000000000000000, -1.000000000000000000 ) ) ;
#348 = EDGE_CURVE ( 'NONE', #103, #14, #155, .T. ) ;
#349 = DIRECTION ( 'NONE',  ( 0.000000000000000000, 0.000000000000000000, 1.000000000000000000 ) ) ;
#350 = CARTESIAN_POINT ( 'NONE',  ( 0.000000000000000000, 0.000000000000000000, 5.000000000000000000 ) ) ;
#351 = ORIENTED_EDGE ( 'NONE', *, *, #348, .F. ) ;
#352 =( NAMED_UNIT ( * ) PLANE_ANGLE_UNIT ( ) SI_UNIT ( $, .RADIAN. ) );
#353 = ORIENTED_EDGE ( 'NONE', *, *, #80, .F. ) ;
#354 = ORIENTED_EDGE ( 'NONE', *, *, #212, .T. ) ;
#355 = CIRCLE ( 'NONE', #150, 2.750000000000000000 ) ;
#356 = APPROVAL_STATUS ( 'not_yet_approved' ) ;
#357 = VERTEX_POINT ( 'NONE', #57 ) ;
#358 = DATE_AND_TIME ( #295, #126 ) ;
#359 = VERTEX_POINT ( 'NONE', #182 ) ;
#360 = CC_DESIGN_PERSON_AND_ORGANIZATION_ASSIGNMENT ( #314, #25, ( #174 ) ) ;
#361 = PERSON_AND_ORGANIZATION_ROLE ( 'classification_officer' ) ;
#362 = EDGE_CURVE ( 'NONE', #107, #63, #70, .T. ) ;
#363 = CARTESIAN_POINT ( 'NONE',  ( 0.000000000000000000, 0.000000000000000000, 0.000000000000000000 ) ) ;
#364 = ORIENTED_EDGE ( 'NONE', *, *, #261, .F. ) ;
#365 = APPROVAL_ROLE ( '' ) ;
#366 = ORIENTED_EDGE ( 'NONE', *, *, #190, .T. ) ;
#367 = ORIENTED_EDGE ( 'NONE', *, *, #62, .F. ) ;
#368 = DIRECTION ( 'NONE',  ( 0.000000000000000000, 0.000000000000000000, -1.000000000000000000 ) ) ;
#369 = CARTESIAN_POINT ( 'NONE',  ( 0.000000000000000000, 0.000000000000000000, 5.000000000000000000 ) ) ;
#370 = PLANE ( 'NONE',  #177 ) ;
#371 = DIRECTION ( 'NONE',  ( 0.000000000000000000, 0.000000000000000000, 1.000000000000000000 ) ) ;
#372 = CYLINDRICAL_SURFACE ( 'NONE', #171, 2.750000000000000000 ) ;
#373 = ADVANCED_FACE ( 'NONE', ( #129, #55 ), #263, .F. ) ;
#374 = APPLICATION_PROTOCOL_DEFINITION ( 'international standard', 'config_control_design', 1994, #245 ) ;
#375 = ORIENTED_EDGE ( 'NONE', *, *, #212, .F. ) ;
#376 = DIRECTION ( 'NONE',  ( 0.000000000000000000, 0.000000000000000000, 1.000000000000000000 ) ) ;
#377 = ORIENTED_EDGE ( 'NONE', *, *, #207, .F. ) ;
#378 = CC_DESIGN_DATE_AND_TIME_ASSIGNMENT ( #269, #305, ( #52 ) ) ;
#379 = DIRECTION ( 'NONE',  ( 1.000000000000000000, 0.000000000000000000, 0.000000000000000000 ) ) ;
#380 = ORIENTED_EDGE ( 'NONE', *, *, #147, .F. ) ;
#381 = ADVANCED_BREP_SHAPE_REPRESENTATION ( '8925', ( #168, #282 ), #84 ) ;
ENDSEC;
END-ISO-10303-21;
