ISO-10303-21;
HEADER;
FILE_DESCRIPTION (( 'STEP AP203' ),
    '1' );
FILE_NAME ('e31b.STEP',
    '2022-07-08T15:09:10',
    ( '' ),
    ( '' ),
    'SwSTEP 2.0',
    'SolidWorks 2019',
    '' );
FILE_SCHEMA (( 'CONFIG_CONTROL_DESIGN' ));
ENDSEC;

DATA;
#1 = ORIENTED_EDGE ( 'NONE', *, *, #317, .T. ) ;
#2 = CC_DESIGN_PERSON_AND_ORGANIZATION_ASSIGNMENT ( #175, #237, ( #239 ) ) ;
#3 = DIRECTION ( 'NONE',  ( -0.000000000000000000, -0.000000000000000000, -1.000000000000000000 ) ) ;
#4 = ORIENTED_EDGE ( 'NONE', *, *, #310, .T. ) ;
#5 = CARTESIAN_POINT ( 'NONE',  ( 7.000000000000000000, 8.572527594031473190E-16, 5.000000000000000000 ) ) ;
#6 = ORIENTED_EDGE ( 'NONE', *, *, #128, .F. ) ;
#7 = CIRCLE ( 'NONE', #118, 4.000000000000000000 ) ;
#8 = EDGE_CURVE ( 'NONE', #356, #372, #131, .T. ) ;
#9 = ORIENTED_EDGE ( 'NONE', *, *, #283, .T. ) ;
#10 = FACE_BOUND ( 'NONE', #41, .T. ) ;
#11 = AXIS2_PLACEMENT_3D ( 'NONE', #328, #87, #202 ) ;
#12 = AXIS2_PLACEMENT_3D ( 'NONE', #158, #276, #246 ) ;
#13 = CARTESIAN_POINT ( 'NONE',  ( 2.600000000000000089, 3.184081677783118191E-16, 205.0000000000000284 ) ) ;
#14 = DIRECTION ( 'NONE',  ( 0.000000000000000000, 0.000000000000000000, -1.000000000000000000 ) ) ;
#15 = CARTESIAN_POINT ( 'NONE',  ( 7.000000000000000000, 8.572527594031473190E-16, 5.000000000000000000 ) ) ;
#16 = CYLINDRICAL_SURFACE ( 'NONE', #145, 4.000000000000000000 ) ;
#17 = ORIENTED_EDGE ( 'NONE', *, *, #253, .T. ) ;
#18 = AXIS2_PLACEMENT_3D ( 'NONE', #218, #213, #355 ) ;
#19 = CARTESIAN_POINT ( 'NONE',  ( -4.000000000000000000, 0.000000000000000000, 5.500000000000005329 ) ) ;
#20 = ADVANCED_FACE ( 'NONE', ( #10, #257 ), #344, .F. ) ;
#21 = PERSON_AND_ORGANIZATION ( #139, #217 ) ;
#22 = PERSON_AND_ORGANIZATION_ROLE ( 'design_owner' ) ;
#23 = PERSON_AND_ORGANIZATION ( #139, #217 ) ;
#24 = CIRCLE ( 'NONE', #124, 4.000000000000000000 ) ;
#25 = CYLINDRICAL_SURFACE ( 'NONE', #11, 7.000000000000000000 ) ;
#26 = CARTESIAN_POINT ( 'NONE',  ( 0.000000000000000000, 0.000000000000000000, 0.000000000000000000 ) ) ;
#27 = CIRCLE ( 'NONE', #81, 7.000000000000000000 ) ;
#28 = ORIENTED_EDGE ( 'NONE', *, *, #178, .F. ) ;
#29 = AXIS2_PLACEMENT_3D ( 'NONE', #104, #280, #221 ) ;
#30 = EDGE_CURVE ( 'NONE', #64, #367, #199, .T. ) ;
#31 = COORDINATED_UNIVERSAL_TIME_OFFSET ( 1, 0, .AHEAD. ) ;
#32 = LINE ( 'NONE', #302, #330 ) ;
#33 = EDGE_LOOP ( 'NONE', ( #285, #241 ) ) ;
#34 = CARTESIAN_POINT ( 'NONE',  ( -4.500000000000000888, 5.510910596163088569E-16, 5.000000000000002665 ) ) ;
#35 = VERTEX_POINT ( 'NONE', #170 ) ;
#36 = CARTESIAN_POINT ( 'NONE',  ( -4.000000000000000000, 0.000000000000000000, 205.0000000000000284 ) ) ;
#37 = ADVANCED_FACE ( 'NONE', ( #71 ), #195, .F. ) ;
#38 = VERTEX_POINT ( 'NONE', #343 ) ;
#39 = EDGE_LOOP ( 'NONE', ( #96, #76 ) ) ;
#40 = CARTESIAN_POINT ( 'NONE',  ( 0.000000000000000000, 0.000000000000000000, 5.000000000000000000 ) ) ;
#41 = EDGE_LOOP ( 'NONE', ( #120, #159 ) ) ;
#42 = EDGE_LOOP ( 'NONE', ( #164, #288 ) ) ;
#43 = CIRCLE ( 'NONE', #57, 2.600000000000000089 ) ;
#44 = AXIS2_PLACEMENT_3D ( 'NONE', #333, #332, #60 ) ;
#45 = ADVANCED_FACE ( 'NONE', ( #74 ), #172, .F. ) ;
#46 = ORIENTED_EDGE ( 'NONE', *, *, #142, .T. ) ;
#47 = APPLICATION_CONTEXT ( 'configuration controlled 3d designs of mechanical parts and assemblies' ) ;
#48 = ORIENTED_EDGE ( 'NONE', *, *, #185, .F. ) ;
#49 = DIRECTION ( 'NONE',  ( 0.000000000000000000, 0.000000000000000000, 1.000000000000000000 ) ) ;
#50 = VECTOR ( 'NONE', #319, 1000.000000000000000 ) ;
#51 = LOCAL_TIME ( 17, 9, 10.00000000000000000, #140 ) ;
#52 = APPROVAL_ROLE ( '' ) ;
#53 = CARTESIAN_POINT ( 'NONE',  ( 0.000000000000000000, 0.000000000000000000, 5.500000000000005329 ) ) ;
#54 = PERSON_AND_ORGANIZATION_ROLE ( 'classification_officer' ) ;
#55 = DIRECTION ( 'NONE',  ( 0.000000000000000000, 0.000000000000000000, 1.000000000000000000 ) ) ;
#56 = PERSON_AND_ORGANIZATION ( #139, #217 ) ;
#57 = AXIS2_PLACEMENT_3D ( 'NONE', #381, #233, #347 ) ;
#58 = CARTESIAN_POINT ( 'NONE',  ( 0.000000000000000000, 0.000000000000000000, 5.000000000000000000 ) ) ;
#59 = CARTESIAN_POINT ( 'NONE',  ( 7.000000000000000000, 8.572527594031473190E-16, 0.000000000000000000 ) ) ;
#60 = DIRECTION ( 'NONE',  ( -1.000000000000000000, 1.224646799147351482E-16, 0.000000000000000000 ) ) ;
#61 = EDGE_CURVE ( 'NONE', #367, #193, #204, .T. ) ;
#62 = FACE_OUTER_BOUND ( 'NONE', #165, .T. ) ;
#63 = AXIS2_PLACEMENT_3D ( 'NONE', #200, #378, #320 ) ;
#64 = VERTEX_POINT ( 'NONE', #143 ) ;
#65 = EDGE_CURVE ( 'NONE', #223, #196, #89, .T. ) ;
#66 = FACE_OUTER_BOUND ( 'NONE', #157, .T. ) ;
#67 = MANIFOLD_SOLID_BREP ( 'Odebrat vysunutím3', #338 ) ;
#68 = AXIS2_PLACEMENT_3D ( 'NONE', #351, #352, #113 ) ;
#69 = DIRECTION ( 'NONE',  ( 1.000000000000000000, 0.000000000000000000, 0.000000000000000000 ) ) ;
#70 = ORIENTED_EDGE ( 'NONE', *, *, #348, .T. ) ;
#71 = FACE_OUTER_BOUND ( 'NONE', #303, .T. ) ;
#72 = ADVANCED_FACE ( 'NONE', ( #141, #236 ), #80, .T. ) ;
#73 =( LENGTH_UNIT ( ) NAMED_UNIT ( * ) SI_UNIT ( .MILLI., .METRE. ) );
#74 = FACE_OUTER_BOUND ( 'NONE', #100, .T. ) ;
#75 = AXIS2_PLACEMENT_3D ( 'NONE', #179, #238, #329 ) ;
#76 = ORIENTED_EDGE ( 'NONE', *, *, #8, .T. ) ;
#77 = CC_DESIGN_DATE_AND_TIME_ASSIGNMENT ( #354, #334, ( #284 ) ) ;
#78 = ORIENTED_EDGE ( 'NONE', *, *, #283, .F. ) ;
#79 = CALENDAR_DATE ( 2022, 8, 7 ) ;
#80 = PLANE ( 'NONE',  #68 ) ;
#81 = AXIS2_PLACEMENT_3D ( 'NONE', #26, #207, #148 ) ;
#82 = PRODUCT_DEFINITION_SHAPE ( 'NONE', 'NONE',  #289 ) ;
#83 = FACE_OUTER_BOUND ( 'NONE', #122, .T. ) ;
#84 = ADVANCED_FACE ( 'NONE', ( #83 ), #25, .T. ) ;
#85 = PERSON_AND_ORGANIZATION ( #139, #217 ) ;
#86 = APPLICATION_CONTEXT ( 'configuration controlled 3d designs of mechanical parts and assemblies' ) ;
#87 = DIRECTION ( 'NONE',  ( -0.000000000000000000, -0.000000000000000000, -1.000000000000000000 ) ) ;
#88 = CIRCLE ( 'NONE', #137, 0.5000000000000004441 ) ;
#89 = LINE ( 'NONE', #264, #363 ) ;
#90 = LOCAL_TIME ( 17, 9, 10.00000000000000000, #345 ) ;
#91 = DATE_AND_TIME ( #240, #364 ) ;
#92 = EDGE_CURVE ( 'NONE', #196, #219, #7, .T. ) ;
#93 = CARTESIAN_POINT ( 'NONE',  ( 0.000000000000000000, 0.000000000000000000, 205.0000000000000284 ) ) ;
#94 = CALENDAR_DATE ( 2022, 8, 7 ) ;
#95 = DIRECTION ( 'NONE',  ( 0.000000000000000000, 0.000000000000000000, 1.000000000000000000 ) ) ;
#96 = ORIENTED_EDGE ( 'NONE', *, *, #185, .T. ) ;
#97 = SHAPE_DEFINITION_REPRESENTATION ( #82, #282 ) ;
#98 = DIRECTION ( 'NONE',  ( 0.000000000000000000, 0.000000000000000000, -1.000000000000000000 ) ) ;
#99 = LOCAL_TIME ( 17, 9, 10.00000000000000000, #31 ) ;
#100 = EDGE_LOOP ( 'NONE', ( #366, #106, #133, #78 ) ) ;
#101 = CYLINDRICAL_SURFACE ( 'NONE', #335, 2.600000000000000089 ) ;
#102 = DIRECTION ( 'NONE',  ( -0.000000000000000000, -0.000000000000000000, -1.000000000000000000 ) ) ;
#103 = ORIENTED_EDGE ( 'NONE', *, *, #203, .T. ) ;
#104 = CARTESIAN_POINT ( 'NONE',  ( 0.000000000000000000, 0.000000000000000000, 205.0000000000000284 ) ) ;
#105 = APPROVAL ( #210, 'NEURÈENÝ' ) ;
#106 = ORIENTED_EDGE ( 'NONE', *, *, #331, .T. ) ;
#107 = DIRECTION ( 'NONE',  ( 0.000000000000000000, 0.000000000000000000, -1.000000000000000000 ) ) ;
#108 = ORIENTED_EDGE ( 'NONE', *, *, #109, .T. ) ;
#109 = EDGE_CURVE ( 'NONE', #134, #64, #182, .T. ) ;
#110 = ORIENTED_EDGE ( 'NONE', *, *, #214, .T. ) ;
#111 = DIRECTION ( 'NONE',  ( 0.000000000000000000, 0.000000000000000000, 1.000000000000000000 ) ) ;
#112 = APPROVAL_STATUS ( 'not_yet_approved' ) ;
#113 = DIRECTION ( 'NONE',  ( 1.000000000000000000, 0.000000000000000000, -0.000000000000000000 ) ) ;
#114 = APPLICATION_PROTOCOL_DEFINITION ( 'international standard', 'config_control_design', 1994, #86 ) ;
#115 = APPROVAL_STATUS ( 'not_yet_approved' ) ;
#116 = CARTESIAN_POINT ( 'NONE',  ( 2.600000000000000089, 3.184081677783118191E-16, 205.0000000000000284 ) ) ;
#117 = CARTESIAN_POINT ( 'NONE',  ( 2.600000000000000089, 3.184081677783118191E-16, 0.000000000000000000 ) ) ;
#118 = AXIS2_PLACEMENT_3D ( 'NONE', #291, #55, #146 ) ;
#119 = CARTESIAN_POINT ( 'NONE',  ( 4.000000000000000000, 4.898587196589412829E-16, 5.500000000000005329 ) ) ;
#120 = ORIENTED_EDGE ( 'NONE', *, *, #61, .F. ) ;
#121 = DIRECTION ( 'NONE',  ( 0.000000000000000000, 0.000000000000000000, 1.000000000000000000 ) ) ;
#122 = EDGE_LOOP ( 'NONE', ( #281, #48, #162, #4 ) ) ;
#123 = DIRECTION ( 'NONE',  ( -0.000000000000000000, -0.000000000000000000, -1.000000000000000000 ) ) ;
#124 = AXIS2_PLACEMENT_3D ( 'NONE', #321, #231, #326 ) ;
#125 = DESIGN_CONTEXT ( 'detailed design', #86, 'design' ) ;
#126 = FACE_BOUND ( 'NONE', #358, .T. ) ;
#127 = ORIENTED_EDGE ( 'NONE', *, *, #65, .T. ) ;
#128 = EDGE_CURVE ( 'NONE', #250, #219, #267, .T. ) ;
#129 = FACE_OUTER_BOUND ( 'NONE', #368, .T. ) ;
#130 = CARTESIAN_POINT ( 'NONE',  ( 0.000000000000000000, 0.000000000000000000, 0.000000000000000000 ) ) ;
#131 = CIRCLE ( 'NONE', #216, 7.000000000000000000 ) ;
#132 =( GEOMETRIC_REPRESENTATION_CONTEXT ( 3 ) GLOBAL_UNCERTAINTY_ASSIGNED_CONTEXT ( ( #188 ) ) GLOBAL_UNIT_ASSIGNED_CONTEXT ( ( #73, #314, #249 ) ) REPRESENTATION_CONTEXT ( 'NONE', 'WORKASPACE' ) );
#133 = ORIENTED_EDGE ( 'NONE', *, *, #273, .F. ) ;
#134 = VERTEX_POINT ( 'NONE', #116 ) ;
#135 = EDGE_CURVE ( 'NONE', #193, #367, #43, .T. ) ;
#136 = ORIENTED_EDGE ( 'NONE', *, *, #128, .T. ) ;
#137 = AXIS2_PLACEMENT_3D ( 'NONE', #244, #357, #98 ) ;
#138 = DIRECTION ( 'NONE',  ( 1.000000000000000000, 0.000000000000000000, 0.000000000000000000 ) ) ;
#139 = PERSON ( 'NEURÈENÝ', 'NEURÈENÝ', 'NEURÈENÝ', ('NEURÈENÝ'), ('NEURÈENÝ'), ('NEURÈENÝ') ) ;
#140 = COORDINATED_UNIVERSAL_TIME_OFFSET ( 1, 0, .AHEAD. ) ;
#141 = FACE_BOUND ( 'NONE', #42, .T. ) ;
#142 = EDGE_CURVE ( 'NONE', #247, #38, #27, .T. ) ;
#143 = CARTESIAN_POINT ( 'NONE',  ( -2.600000000000000089, 0.000000000000000000, 205.0000000000000284 ) ) ;
#144 = CIRCLE ( 'NONE', #359, 7.000000000000000000 ) ;
#145 = AXIS2_PLACEMENT_3D ( 'NONE', #198, #311, #318 ) ;
#146 = DIRECTION ( 'NONE',  ( 1.000000000000000000, 0.000000000000000000, 0.000000000000000000 ) ) ;
#147 = CALENDAR_DATE ( 2022, 8, 7 ) ;
#148 = DIRECTION ( 'NONE',  ( 1.000000000000000000, 0.000000000000000000, 0.000000000000000000 ) ) ;
#149 = CC_DESIGN_PERSON_AND_ORGANIZATION_ASSIGNMENT ( #263, #54, ( #284 ) ) ;
#150 = PERSON_AND_ORGANIZATION ( #139, #217 ) ;
#151 = DIRECTION ( 'NONE',  ( 1.000000000000000000, 0.000000000000000000, 0.000000000000000000 ) ) ;
#152 = EDGE_LOOP ( 'NONE', ( #17, #70, #215, #191 ) ) ;
#153 = CARTESIAN_POINT ( 'NONE',  ( 0.000000000000000000, 0.000000000000000000, 205.0000000000000284 ) ) ;
#154 = APPROVAL_PERSON_ORGANIZATION ( #85, #268, #52 ) ;
#155 = APPROVAL_ROLE ( '' ) ;
#156 = CARTESIAN_POINT ( 'NONE',  ( 0.000000000000000000, 0.000000000000000000, 5.000000000000000000 ) ) ;
#157 = EDGE_LOOP ( 'NONE', ( #279, #110, #46, #184 ) ) ;
#158 = CARTESIAN_POINT ( 'NONE',  ( 0.000000000000000000, 0.000000000000000000, 0.000000000000000000 ) ) ;
#159 = ORIENTED_EDGE ( 'NONE', *, *, #135, .F. ) ;
#160 = CARTESIAN_POINT ( 'NONE',  ( 0.000000000000000000, 0.000000000000000000, 5.500000000000005329 ) ) ;
#161 = AXIS2_PLACEMENT_3D ( 'NONE', #93, #121, #305 ) ;
#162 = ORIENTED_EDGE ( 'NONE', *, *, #248, .T. ) ;
#163 = ORIENTED_EDGE ( 'NONE', *, *, #348, .F. ) ;
#164 = ORIENTED_EDGE ( 'NONE', *, *, #253, .F. ) ;
#165 = EDGE_LOOP ( 'NONE', ( #309, #245, #9, #243 ) ) ;
#166 = AXIS2_PLACEMENT_3D ( 'NONE', #130, #252, #228 ) ;
#167 = AXIS2_PLACEMENT_3D ( 'NONE', #40, #102, #256 ) ;
#168 = ORIENTED_EDGE ( 'NONE', *, *, #61, .T. ) ;
#169 = CARTESIAN_POINT ( 'NONE',  ( -2.600000000000000089, 0.000000000000000000, 0.000000000000000000 ) ) ;
#170 = CARTESIAN_POINT ( 'NONE',  ( 4.500000000000000888, 0.000000000000000000, 5.000000000000002665 ) ) ;
#171 = DIRECTION ( 'NONE',  ( 0.000000000000000000, 0.000000000000000000, 1.000000000000000000 ) ) ;
#172 = TOROIDAL_SURFACE ( 'NONE', #265, 4.500000000000000888, 0.5000000000000000000 ) ;
#173 = DIRECTION ( 'NONE',  ( -0.000000000000000000, -0.000000000000000000, -1.000000000000000000 ) ) ;
#174 = APPROVAL ( #112, 'NEURÈENÝ' ) ;
#175 = PERSON_AND_ORGANIZATION ( #139, #217 ) ;
#176 = AXIS2_PLACEMENT_3D ( 'NONE', #269, #297, #292 ) ;
#177 = PERSON_AND_ORGANIZATION_ROLE ( 'creator' ) ;
#178 = EDGE_CURVE ( 'NONE', #223, #250, #313, .T. ) ;
#179 = CARTESIAN_POINT ( 'NONE',  ( 0.000000000000000000, 0.000000000000000000, 205.0000000000000284 ) ) ;
#180 = DIRECTION ( 'NONE',  ( 0.000000000000000000, 0.000000000000000000, -1.000000000000000000 ) ) ;
#181 = ORIENTED_EDGE ( 'NONE', *, *, #30, .T. ) ;
#182 = CIRCLE ( 'NONE', #376, 2.600000000000000089 ) ;
#183 = CC_DESIGN_APPROVAL ( #105, ( #284 ) ) ;
#184 = ORIENTED_EDGE ( 'NONE', *, *, #248, .F. ) ;
#185 = EDGE_CURVE ( 'NONE', #372, #356, #144, .T. ) ;
#186 = LINE ( 'NONE', #13, #229 ) ;
#187 = ORIENTED_EDGE ( 'NONE', *, *, #92, .T. ) ;
#188 = UNCERTAINTY_MEASURE_WITH_UNIT (LENGTH_MEASURE( 1.000000000000000082E-05 ), #73, 'distance_accuracy_value', 'NONE');
#189 = CIRCLE ( 'NONE', #12, 7.000000000000000000 ) ;
#190 = PRODUCT_RELATED_PRODUCT_CATEGORY ( 'detail', '', ( #255 ) ) ;
#191 = ORIENTED_EDGE ( 'NONE', *, *, #30, .F. ) ;
#192 = DIRECTION ( 'NONE',  ( 1.000000000000000000, 0.000000000000000000, -0.000000000000000000 ) ) ;
#193 = VERTEX_POINT ( 'NONE', #117 ) ;
#194 = FACE_OUTER_BOUND ( 'NONE', #362, .T. ) ;
#195 = CYLINDRICAL_SURFACE ( 'NONE', #306, 2.600000000000000089 ) ;
#196 = VERTEX_POINT ( 'NONE', #19 ) ;
#197 = CIRCLE ( 'NONE', #377, 4.000000000000000000 ) ;
#198 = CARTESIAN_POINT ( 'NONE',  ( 0.000000000000000000, 0.000000000000000000, 205.0000000000000284 ) ) ;
#199 = LINE ( 'NONE', #224, #50 ) ;
#200 = CARTESIAN_POINT ( 'NONE',  ( 0.000000000000000000, 0.000000000000000000, 0.000000000000000000 ) ) ;
#201 = ORIENTED_EDGE ( 'NONE', *, *, #273, .T. ) ;
#202 = DIRECTION ( 'NONE',  ( -1.000000000000000000, 0.000000000000000000, 0.000000000000000000 ) ) ;
#203 = EDGE_CURVE ( 'NONE', #250, #223, #24, .T. ) ;
#204 = CIRCLE ( 'NONE', #176, 2.600000000000000089 ) ;
#205 = CC_DESIGN_SECURITY_CLASSIFICATION ( #284, ( #239 ) ) ;
#206 = APPROVAL_DATE_TIME ( #346, #174 ) ;
#207 = DIRECTION ( 'NONE',  ( 0.000000000000000000, 0.000000000000000000, 1.000000000000000000 ) ) ;
#208 = DIRECTION ( 'NONE',  ( -0.000000000000000000, -0.000000000000000000, -1.000000000000000000 ) ) ;
#209 = AXIS2_PLACEMENT_3D ( 'NONE', #156, #123, #271 ) ;
#210 = APPROVAL_STATUS ( 'not_yet_approved' ) ;
#211 = FACE_OUTER_BOUND ( 'NONE', #152, .T. ) ;
#212 = APPROVAL_DATE_TIME ( #91, #105 ) ;
#213 = DIRECTION ( 'NONE',  ( -0.000000000000000000, -0.000000000000000000, -1.000000000000000000 ) ) ;
#214 = EDGE_CURVE ( 'NONE', #356, #247, #275, .T. ) ;
#215 = ORIENTED_EDGE ( 'NONE', *, *, #135, .T. ) ;
#216 = AXIS2_PLACEMENT_3D ( 'NONE', #342, #341, #230 ) ;
#217 = ORGANIZATION ( 'NEURÈENÝ', 'NEURÈENÝ', '' ) ;
#218 = CARTESIAN_POINT ( 'NONE',  ( 0.000000000000000000, 0.000000000000000000, 5.000000000000000000 ) ) ;
#219 = VERTEX_POINT ( 'NONE', #119 ) ;
#220 = CC_DESIGN_DATE_AND_TIME_ASSIGNMENT ( #375, #322, ( #289 ) ) ;
#221 = DIRECTION ( 'NONE',  ( -1.000000000000000000, 0.000000000000000000, 0.000000000000000000 ) ) ;
#222 = DIRECTION ( 'NONE',  ( 0.000000000000000000, 0.000000000000000000, 1.000000000000000000 ) ) ;
#223 = VERTEX_POINT ( 'NONE', #36 ) ;
#224 = CARTESIAN_POINT ( 'NONE',  ( -2.600000000000000089, 0.000000000000000000, 205.0000000000000284 ) ) ;
#225 = CARTESIAN_POINT ( 'NONE',  ( 0.000000000000000000, 0.000000000000000000, 5.000000000000000000 ) ) ;
#226 = DIRECTION ( 'NONE',  ( -1.000000000000000000, 0.000000000000000000, 0.000000000000000000 ) ) ;
#227 = APPLICATION_PROTOCOL_DEFINITION ( 'international standard', 'config_control_design', 1994, #47 ) ;
#228 = DIRECTION ( 'NONE',  ( 1.000000000000000000, 0.000000000000000000, -0.000000000000000000 ) ) ;
#229 = VECTOR ( 'NONE', #107, 1000.000000000000000 ) ;
#230 = DIRECTION ( 'NONE',  ( 1.000000000000000000, 0.000000000000000000, 0.000000000000000000 ) ) ;
#231 = DIRECTION ( 'NONE',  ( 0.000000000000000000, 0.000000000000000000, 1.000000000000000000 ) ) ;
#232 = CALENDAR_DATE ( 2022, 8, 7 ) ;
#233 = DIRECTION ( 'NONE',  ( -0.000000000000000000, -0.000000000000000000, -1.000000000000000000 ) ) ;
#234 = VECTOR ( 'NONE', #208, 1000.000000000000000 ) ;
#235 = CIRCLE ( 'NONE', #44, 0.5000000000000004441 ) ;
#236 = FACE_OUTER_BOUND ( 'NONE', #254, .T. ) ;
#237 = PERSON_AND_ORGANIZATION_ROLE ( 'design_supplier' ) ;
#238 = DIRECTION ( 'NONE',  ( 0.000000000000000000, 0.000000000000000000, 1.000000000000000000 ) ) ;
#239 = PRODUCT_DEFINITION_FORMATION_WITH_SPECIFIED_SOURCE ( 'LIBOVOLNÝ', '', #255, .NOT_KNOWN. ) ;
#240 = CALENDAR_DATE ( 2022, 8, 7 ) ;
#241 = ORIENTED_EDGE ( 'NONE', *, *, #142, .F. ) ;
#242 = CC_DESIGN_PERSON_AND_ORGANIZATION_ASSIGNMENT ( #294, #22, ( #255 ) ) ;
#243 = ORIENTED_EDGE ( 'NONE', *, *, #380, .F. ) ;
#244 = CARTESIAN_POINT ( 'NONE',  ( 4.500000000000000888, 0.000000000000000000, 5.500000000000005329 ) ) ;
#245 = ORIENTED_EDGE ( 'NONE', *, *, #317, .F. ) ;
#246 = DIRECTION ( 'NONE',  ( 1.000000000000000000, 0.000000000000000000, 0.000000000000000000 ) ) ;
#247 = VERTEX_POINT ( 'NONE', #59 ) ;
#248 = EDGE_CURVE ( 'NONE', #372, #38, #32, .T. ) ;
#249 =( NAMED_UNIT ( * ) SI_UNIT ( $, .STERADIAN. ) SOLID_ANGLE_UNIT ( ) );
#250 = VERTEX_POINT ( 'NONE', #304 ) ;
#251 = CC_DESIGN_APPROVAL ( #268, ( #289 ) ) ;
#252 = DIRECTION ( 'NONE',  ( 0.000000000000000000, 0.000000000000000000, 1.000000000000000000 ) ) ;
#253 = EDGE_CURVE ( 'NONE', #64, #134, #259, .T. ) ;
#254 = EDGE_LOOP ( 'NONE', ( #272, #103 ) ) ;
#255 = PRODUCT ( 'e31b', 'e31b', '', ( #290 ) ) ;
#256 = DIRECTION ( 'NONE',  ( 1.000000000000000000, 0.000000000000000000, 0.000000000000000000 ) ) ;
#257 = FACE_OUTER_BOUND ( 'NONE', #33, .T. ) ;
#258 = FACE_OUTER_BOUND ( 'NONE', #39, .T. ) ;
#259 = CIRCLE ( 'NONE', #161, 2.600000000000000089 ) ;
#260 = CC_DESIGN_PERSON_AND_ORGANIZATION_ASSIGNMENT ( #23, #325, ( #239 ) ) ;
#261 = DATE_AND_TIME ( #79, #90 ) ;
#262 = DIRECTION ( 'NONE',  ( 1.000000000000000000, 0.000000000000000000, 0.000000000000000000 ) ) ;
#263 = PERSON_AND_ORGANIZATION ( #139, #217 ) ;
#264 = CARTESIAN_POINT ( 'NONE',  ( -4.000000000000000000, 0.000000000000000000, 205.0000000000000284 ) ) ;
#265 = AXIS2_PLACEMENT_3D ( 'NONE', #53, #49, #138 ) ;
#266 = CC_DESIGN_APPROVAL ( #174, ( #239 ) ) ;
#267 = LINE ( 'NONE', #379, #234 ) ;
#268 = APPROVAL ( #115, 'NEURÈENÝ' ) ;
#269 = CARTESIAN_POINT ( 'NONE',  ( 0.000000000000000000, 0.000000000000000000, 0.000000000000000000 ) ) ;
#270 = COORDINATED_UNIVERSAL_TIME_OFFSET ( 1, 0, .AHEAD. ) ;
#271 = DIRECTION ( 'NONE',  ( 1.000000000000000000, 0.000000000000000000, 0.000000000000000000 ) ) ;
#272 = ORIENTED_EDGE ( 'NONE', *, *, #178, .T. ) ;
#273 = EDGE_CURVE ( 'NONE', #35, #277, #369, .T. ) ;
#274 = CIRCLE ( 'NONE', #167, 4.500000000000000888 ) ;
#275 = LINE ( 'NONE', #5, #278 ) ;
#276 = DIRECTION ( 'NONE',  ( 0.000000000000000000, 0.000000000000000000, 1.000000000000000000 ) ) ;
#277 = VERTEX_POINT ( 'NONE', #34 ) ;
#278 = VECTOR ( 'NONE', #3, 1000.000000000000000 ) ;
#279 = ORIENTED_EDGE ( 'NONE', *, *, #8, .F. ) ;
#280 = DIRECTION ( 'NONE',  ( -0.000000000000000000, -0.000000000000000000, -1.000000000000000000 ) ) ;
#281 = ORIENTED_EDGE ( 'NONE', *, *, #214, .F. ) ;
#282 = ADVANCED_BREP_SHAPE_REPRESENTATION ( 'e31b', ( #67, #63 ), #132 ) ;
#283 = EDGE_CURVE ( 'NONE', #219, #35, #88, .T. ) ;
#284 = SECURITY_CLASSIFICATION ( '', '', #293 ) ;
#285 = ORIENTED_EDGE ( 'NONE', *, *, #310, .F. ) ;
#286 = ORIENTED_EDGE ( 'NONE', *, *, #380, .T. ) ;
#287 = CARTESIAN_POINT ( 'NONE',  ( -7.000000000000000000, 0.000000000000000000, 5.000000000000000000 ) ) ;
#288 = ORIENTED_EDGE ( 'NONE', *, *, #109, .F. ) ;
#289 = PRODUCT_DEFINITION ( 'NEZNÁMÝ', '', #239, #125 ) ;
#290 = MECHANICAL_CONTEXT ( 'NONE', #47, 'mechanical' ) ;
#291 = CARTESIAN_POINT ( 'NONE',  ( 0.000000000000000000, 0.000000000000000000, 5.500000000000005329 ) ) ;
#292 = DIRECTION ( 'NONE',  ( 1.000000000000000000, 0.000000000000000000, 0.000000000000000000 ) ) ;
#293 = SECURITY_CLASSIFICATION_LEVEL ( 'unclassified' ) ;
#294 = PERSON_AND_ORGANIZATION ( #139, #217 ) ;
#295 = APPROVAL_PERSON_ORGANIZATION ( #21, #174, #370 ) ;
#296 = COORDINATED_UNIVERSAL_TIME_OFFSET ( 1, 0, .AHEAD. ) ;
#297 = DIRECTION ( 'NONE',  ( -0.000000000000000000, -0.000000000000000000, -1.000000000000000000 ) ) ;
#298 = ADVANCED_FACE ( 'NONE', ( #66 ), #360, .T. ) ;
#299 = DIRECTION ( 'NONE',  ( -0.000000000000000000, -0.000000000000000000, -1.000000000000000000 ) ) ;
#300 = ORIENTED_EDGE ( 'NONE', *, *, #203, .F. ) ;
#301 = TOROIDAL_SURFACE ( 'NONE', #315, 4.500000000000000888, 0.5000000000000000000 ) ;
#302 = CARTESIAN_POINT ( 'NONE',  ( -7.000000000000000000, 0.000000000000000000, 5.000000000000000000 ) ) ;
#303 = EDGE_LOOP ( 'NONE', ( #163, #108, #181, #168 ) ) ;
#304 = CARTESIAN_POINT ( 'NONE',  ( 4.000000000000000000, 4.898587196589412829E-16, 205.0000000000000284 ) ) ;
#305 = DIRECTION ( 'NONE',  ( 1.000000000000000000, 0.000000000000000000, 0.000000000000000000 ) ) ;
#306 = AXIS2_PLACEMENT_3D ( 'NONE', #312, #14, #226 ) ;
#307 = PLANE ( 'NONE',  #371 ) ;
#308 = CARTESIAN_POINT ( 'NONE',  ( 0.000000000000000000, 0.000000000000000000, 5.500000000000005329 ) ) ;
#309 = ORIENTED_EDGE ( 'NONE', *, *, #331, .F. ) ;
#310 = EDGE_CURVE ( 'NONE', #38, #247, #189, .T. ) ;
#311 = DIRECTION ( 'NONE',  ( -0.000000000000000000, -0.000000000000000000, -1.000000000000000000 ) ) ;
#312 = CARTESIAN_POINT ( 'NONE',  ( 0.000000000000000000, 0.000000000000000000, 205.0000000000000284 ) ) ;
#313 = CIRCLE ( 'NONE', #75, 4.000000000000000000 ) ;
#314 =( NAMED_UNIT ( * ) PLANE_ANGLE_UNIT ( ) SI_UNIT ( $, .RADIAN. ) );
#315 = AXIS2_PLACEMENT_3D ( 'NONE', #308, #222, #69 ) ;
#316 = ORIENTED_EDGE ( 'NONE', *, *, #65, .F. ) ;
#317 = EDGE_CURVE ( 'NONE', #219, #196, #197, .T. ) ;
#318 = DIRECTION ( 'NONE',  ( -1.000000000000000000, 0.000000000000000000, 0.000000000000000000 ) ) ;
#319 = DIRECTION ( 'NONE',  ( 0.000000000000000000, 0.000000000000000000, -1.000000000000000000 ) ) ;
#320 = DIRECTION ( 'NONE',  ( 1.000000000000000000, 0.000000000000000000, 0.000000000000000000 ) ) ;
#321 = CARTESIAN_POINT ( 'NONE',  ( 0.000000000000000000, 0.000000000000000000, 205.0000000000000284 ) ) ;
#322 = DATE_TIME_ROLE ( 'creation_date' ) ;
#323 = CARTESIAN_POINT ( 'NONE',  ( 0.000000000000000000, 0.000000000000000000, 205.0000000000000284 ) ) ;
#324 = LOCAL_TIME ( 17, 9, 10.00000000000000000, #296 ) ;
#325 = PERSON_AND_ORGANIZATION_ROLE ( 'creator' ) ;
#326 = DIRECTION ( 'NONE',  ( 1.000000000000000000, 0.000000000000000000, 0.000000000000000000 ) ) ;
#327 = CC_DESIGN_PERSON_AND_ORGANIZATION_ASSIGNMENT ( #56, #177, ( #289 ) ) ;
#328 = CARTESIAN_POINT ( 'NONE',  ( 0.000000000000000000, 0.000000000000000000, 5.000000000000000000 ) ) ;
#329 = DIRECTION ( 'NONE',  ( 1.000000000000000000, 0.000000000000000000, 0.000000000000000000 ) ) ;
#330 = VECTOR ( 'NONE', #299, 1000.000000000000000 ) ;
#331 = EDGE_CURVE ( 'NONE', #196, #277, #235, .T. ) ;
#332 = DIRECTION ( 'NONE',  ( 1.224646799147353207E-16, 1.000000000000000000, -0.000000000000000000 ) ) ;
#333 = CARTESIAN_POINT ( 'NONE',  ( -4.500000000000000888, 5.510910596163089556E-16, 5.500000000000005329 ) ) ;
#334 = DATE_TIME_ROLE ( 'classification_date' ) ;
#335 = AXIS2_PLACEMENT_3D ( 'NONE', #153, #180, #337 ) ;
#336 = ADVANCED_FACE ( 'NONE', ( #211 ), #101, .F. ) ;
#337 = DIRECTION ( 'NONE',  ( -1.000000000000000000, 0.000000000000000000, 0.000000000000000000 ) ) ;
#338 = CLOSED_SHELL ( 'NONE', ( #336, #45, #353, #298, #84, #374, #20, #361, #72, #340, #37 ) ) ;
#339 = DIRECTION ( 'NONE',  ( 0.000000000000000000, 0.000000000000000000, 1.000000000000000000 ) ) ;
#340 = ADVANCED_FACE ( 'NONE', ( #62 ), #301, .F. ) ;
#341 = DIRECTION ( 'NONE',  ( 0.000000000000000000, 0.000000000000000000, 1.000000000000000000 ) ) ;
#342 = CARTESIAN_POINT ( 'NONE',  ( 0.000000000000000000, 0.000000000000000000, 5.000000000000000000 ) ) ;
#343 = CARTESIAN_POINT ( 'NONE',  ( -7.000000000000000000, 0.000000000000000000, 0.000000000000000000 ) ) ;
#344 = PLANE ( 'NONE',  #166 ) ;
#345 = COORDINATED_UNIVERSAL_TIME_OFFSET ( 1, 0, .AHEAD. ) ;
#346 = DATE_AND_TIME ( #232, #51 ) ;
#347 = DIRECTION ( 'NONE',  ( 1.000000000000000000, 0.000000000000000000, 0.000000000000000000 ) ) ;
#348 = EDGE_CURVE ( 'NONE', #134, #193, #186, .T. ) ;
#349 = APPROVAL_PERSON_ORGANIZATION ( #150, #105, #155 ) ;
#350 = APPROVAL_DATE_TIME ( #261, #268 ) ;
#351 = CARTESIAN_POINT ( 'NONE',  ( 0.000000000000000000, 0.000000000000000000, 205.0000000000000284 ) ) ;
#352 = DIRECTION ( 'NONE',  ( 0.000000000000000000, 0.000000000000000000, 1.000000000000000000 ) ) ;
#353 = ADVANCED_FACE ( 'NONE', ( #129 ), #365, .T. ) ;
#354 = DATE_AND_TIME ( #94, #99 ) ;
#355 = DIRECTION ( 'NONE',  ( -1.000000000000000000, 0.000000000000000000, 0.000000000000000000 ) ) ;
#356 = VERTEX_POINT ( 'NONE', #15 ) ;
#357 = DIRECTION ( 'NONE',  ( 0.000000000000000000, -1.000000000000000000, 0.000000000000000000 ) ) ;
#358 = EDGE_LOOP ( 'NONE', ( #201, #286 ) ) ;
#359 = AXIS2_PLACEMENT_3D ( 'NONE', #58, #111, #373 ) ;
#360 = CYLINDRICAL_SURFACE ( 'NONE', #18, 7.000000000000000000 ) ;
#361 = ADVANCED_FACE ( 'NONE', ( #194 ), #16, .T. ) ;
#362 = EDGE_LOOP ( 'NONE', ( #6, #28, #127, #187 ) ) ;
#363 = VECTOR ( 'NONE', #173, 1000.000000000000000 ) ;
#364 = LOCAL_TIME ( 17, 9, 10.00000000000000000, #270 ) ;
#365 = CYLINDRICAL_SURFACE ( 'NONE', #29, 4.000000000000000000 ) ;
#366 = ORIENTED_EDGE ( 'NONE', *, *, #92, .F. ) ;
#367 = VERTEX_POINT ( 'NONE', #169 ) ;
#368 = EDGE_LOOP ( 'NONE', ( #300, #136, #1, #316 ) ) ;
#369 = CIRCLE ( 'NONE', #209, 4.500000000000000888 ) ;
#370 = APPROVAL_ROLE ( '' ) ;
#371 = AXIS2_PLACEMENT_3D ( 'NONE', #225, #339, #192 ) ;
#372 = VERTEX_POINT ( 'NONE', #287 ) ;
#373 = DIRECTION ( 'NONE',  ( 1.000000000000000000, 0.000000000000000000, 0.000000000000000000 ) ) ;
#374 = ADVANCED_FACE ( 'NONE', ( #126, #258 ), #307, .T. ) ;
#375 = DATE_AND_TIME ( #147, #324 ) ;
#376 = AXIS2_PLACEMENT_3D ( 'NONE', #323, #171, #262 ) ;
#377 = AXIS2_PLACEMENT_3D ( 'NONE', #160, #95, #151 ) ;
#378 = DIRECTION ( 'NONE',  ( 0.000000000000000000, 0.000000000000000000, 1.000000000000000000 ) ) ;
#379 = CARTESIAN_POINT ( 'NONE',  ( 4.000000000000000000, 4.898587196589412829E-16, 205.0000000000000284 ) ) ;
#380 = EDGE_CURVE ( 'NONE', #277, #35, #274, .T. ) ;
#381 = CARTESIAN_POINT ( 'NONE',  ( 0.000000000000000000, 0.000000000000000000, 0.000000000000000000 ) ) ;
ENDSEC;
END-ISO-10303-21;
