ISO-10303-21;
HEADER;
FILE_DESCRIPTION (( 'STEP AP203' ),
    '1' );
FILE_NAME ('5446.STEP',
    '2022-07-08T14:39:12',
    ( '' ),
    ( '' ),
    'SwSTEP 2.0',
    'SolidWorks 2019',
    '' );
FILE_SCHEMA (( 'CONFIG_CONTROL_DESIGN' ));
ENDSEC;

DATA;
#1 = PERSON_AND_ORGANIZATION_ROLE ( 'creator' ) ;
#2 = EDGE_CURVE ( 'NONE', #101, #297, #190, .T. ) ;
#3 = VECTOR ( 'NONE', #51, 1000.000000000000000 ) ;
#4 = PERSON_AND_ORGANIZATION ( #354, #217 ) ;
#5 = APPROVAL_DATE_TIME ( #124, #303 ) ;
#6 = CARTESIAN_POINT ( 'NONE',  ( 0.000000000000000000, 0.000000000000000000, 167.0000000000000000 ) ) ;
#7 = ORIENTED_EDGE ( 'NONE', *, *, #372, .T. ) ;
#8 = ADVANCED_FACE ( 'NONE', ( #264 ), #97, .T. ) ;
#9 = CIRCLE ( 'NONE', #182, 6.000000000000000888 ) ;
#10 = DIRECTION ( 'NONE',  ( 1.000000000000000000, 0.000000000000000000, 0.000000000000000000 ) ) ;
#11 = CYLINDRICAL_SURFACE ( 'NONE', #243, 10.00000000000000000 ) ;
#12 = ORIENTED_EDGE ( 'NONE', *, *, #45, .T. ) ;
#13 = ORIENTED_EDGE ( 'NONE', *, *, #364, .T. ) ;
#14 = LINE ( 'NONE', #139, #3 ) ;
#15 = DIRECTION ( 'NONE',  ( -1.000000000000000000, 0.000000000000000000, 0.000000000000000000 ) ) ;
#16 = VERTEX_POINT ( 'NONE', #194 ) ;
#17 = EDGE_CURVE ( 'NONE', #101, #296, #302, .T. ) ;
#18 = FACE_OUTER_BOUND ( 'NONE', #242, .T. ) ;
#19 = ORIENTED_EDGE ( 'NONE', *, *, #314, .F. ) ;
#20 = PRODUCT_RELATED_PRODUCT_CATEGORY ( 'detail', '', ( #85 ) ) ;
#21 = DIRECTION ( 'NONE',  ( 0.000000000000000000, 0.000000000000000000, 1.000000000000000000 ) ) ;
#22 = DIRECTION ( 'NONE',  ( -1.000000000000000000, 1.224646799147353454E-16, 0.000000000000000000 ) ) ;
#23 = LINE ( 'NONE', #247, #306 ) ;
#24 = EDGE_CURVE ( 'NONE', #209, #293, #26, .T. ) ;
#25 = AXIS2_PLACEMENT_3D ( 'NONE', #222, #21, #104 ) ;
#26 = CIRCLE ( 'NONE', #377, 6.700000000000001066 ) ;
#27 = CARTESIAN_POINT ( 'NONE',  ( 4.000000000000000000, 4.898587196589411843E-16, 167.0000000000000000 ) ) ;
#28 = DATE_TIME_ROLE ( 'creation_date' ) ;
#29 = PLANE ( 'NONE',  #65 ) ;
#30 = CYLINDRICAL_SURFACE ( 'NONE', #41, 6.000000000000000888 ) ;
#31 = DIRECTION ( 'NONE',  ( 1.000000000000000000, 0.000000000000000000, 0.000000000000000000 ) ) ;
#32 = CARTESIAN_POINT ( 'NONE',  ( -6.000000000000000888, 0.000000000000000000, 167.0000000000000000 ) ) ;
#33 = LOCAL_TIME ( 16, 39, 12.00000000000000000, #358 ) ;
#34 = AXIS2_PLACEMENT_3D ( 'NONE', #349, #151, #227 ) ;
#35 = EDGE_CURVE ( 'NONE', #16, #209, #258, .T. ) ;
#36 = ORIENTED_EDGE ( 'NONE', *, *, #140, .T. ) ;
#37 = DIRECTION ( 'NONE',  ( 0.000000000000000000, 0.000000000000000000, 1.000000000000000000 ) ) ;
#38 = DIRECTION ( 'NONE',  ( -0.000000000000000000, -0.000000000000000000, -1.000000000000000000 ) ) ;
#39 = EDGE_LOOP ( 'NONE', ( #326, #269 ) ) ;
#40 = DIRECTION ( 'NONE',  ( 0.000000000000000000, 0.000000000000000000, -1.000000000000000000 ) ) ;
#41 = AXIS2_PLACEMENT_3D ( 'NONE', #149, #181, #320 ) ;
#42 = DIRECTION ( 'NONE',  ( 1.000000000000000000, 0.000000000000000000, 0.000000000000000000 ) ) ;
#43 = CARTESIAN_POINT ( 'NONE',  ( 6.000000000000000888, 7.347880794884120722E-16, 167.0000000000000000 ) ) ;
#44 = DIRECTION ( 'NONE',  ( 0.000000000000000000, 0.000000000000000000, -1.000000000000000000 ) ) ;
#45 = EDGE_CURVE ( 'NONE', #77, #192, #307, .T. ) ;
#46 =( LENGTH_UNIT ( ) NAMED_UNIT ( * ) SI_UNIT ( .MILLI., .METRE. ) );
#47 = TOROIDAL_SURFACE ( 'NONE', #265, 6.700000000000001066, 0.6999999999999999556 ) ;
#48 = ORIENTED_EDGE ( 'NONE', *, *, #254, .F. ) ;
#49 = LINE ( 'NONE', #43, #263 ) ;
#50 = ORIENTED_EDGE ( 'NONE', *, *, #236, .T. ) ;
#51 = DIRECTION ( 'NONE',  ( -0.000000000000000000, -0.000000000000000000, -1.000000000000000000 ) ) ;
#52 = ORIENTED_EDGE ( 'NONE', *, *, #325, .T. ) ;
#53 = CARTESIAN_POINT ( 'NONE',  ( 4.000000000000000000, 4.898587196589411843E-16, 167.0000000000000000 ) ) ;
#54 = CIRCLE ( 'NONE', #200, 4.000000000000000000 ) ;
#55 = AXIS2_PLACEMENT_3D ( 'NONE', #220, #250, #22 ) ;
#56 = DATE_AND_TIME ( #172, #290 ) ;
#57 = APPLICATION_PROTOCOL_DEFINITION ( 'international standard', 'config_control_design', 1994, #233 ) ;
#58 = DIRECTION ( 'NONE',  ( 0.000000000000000000, 0.000000000000000000, 1.000000000000000000 ) ) ;
#59 = DIRECTION ( 'NONE',  ( 0.000000000000000000, 0.000000000000000000, 1.000000000000000000 ) ) ;
#60 = PLANE ( 'NONE',  #292 ) ;
#61 = FACE_OUTER_BOUND ( 'NONE', #232, .T. ) ;
#62 = ADVANCED_FACE ( 'NONE', ( #335, #142 ), #167, .T. ) ;
#63 = DIRECTION ( 'NONE',  ( 1.000000000000000000, 0.000000000000000000, 0.000000000000000000 ) ) ;
#64 = CC_DESIGN_APPROVAL ( #303, ( #117 ) ) ;
#65 = AXIS2_PLACEMENT_3D ( 'NONE', #223, #366, #368 ) ;
#66 = CARTESIAN_POINT ( 'NONE',  ( 0.000000000000000000, 0.000000000000000000, 0.000000000000000000 ) ) ;
#67 = PERSON_AND_ORGANIZATION ( #354, #217 ) ;
#68 = DIRECTION ( 'NONE',  ( 1.000000000000000000, 0.000000000000000000, 0.000000000000000000 ) ) ;
#69 = CARTESIAN_POINT ( 'NONE',  ( 0.000000000000000000, 0.000000000000000000, 167.0000000000000000 ) ) ;
#70 = MANIFOLD_SOLID_BREP ( 'Odebrat vysunutím3', #251 ) ;
#71 = AXIS2_PLACEMENT_3D ( 'NONE', #276, #337, #334 ) ;
#72 = DIRECTION ( 'NONE',  ( -1.000000000000000000, 0.000000000000000000, 0.000000000000000000 ) ) ;
#73 = ADVANCED_FACE ( 'NONE', ( #310, #18 ), #29, .T. ) ;
#74 = PRODUCT_DEFINITION ( 'NEZNÁMÝ', '', #277, #215 ) ;
#75 = CC_DESIGN_APPROVAL ( #333, ( #74 ) ) ;
#76 = EDGE_CURVE ( 'NONE', #297, #301, #102, .T. ) ;
#77 = VERTEX_POINT ( 'NONE', #343 ) ;
#78 = DIRECTION ( 'NONE',  ( -0.000000000000000000, -0.000000000000000000, -1.000000000000000000 ) ) ;
#79 = DIRECTION ( 'NONE',  ( 1.000000000000000000, 0.000000000000000000, 0.000000000000000000 ) ) ;
#80 = APPROVAL_PERSON_ORGANIZATION ( #67, #303, #121 ) ;
#81 =( NAMED_UNIT ( * ) SI_UNIT ( $, .STERADIAN. ) SOLID_ANGLE_UNIT ( ) );
#82 = APPROVAL_STATUS ( 'not_yet_approved' ) ;
#83 = CARTESIAN_POINT ( 'NONE',  ( 0.000000000000000000, 0.000000000000000000, 167.0000000000000000 ) ) ;
#84 = ADVANCED_FACE ( 'NONE', ( #201 ), #100, .T. ) ;
#85 = PRODUCT ( '5446', '5446', '', ( #318 ) ) ;
#86 = PERSON_AND_ORGANIZATION ( #354, #217 ) ;
#87 = CALENDAR_DATE ( 2022, 8, 7 ) ;
#88 = DIRECTION ( 'NONE',  ( 0.000000000000000000, 0.000000000000000000, 1.000000000000000000 ) ) ;
#89 = ORIENTED_EDGE ( 'NONE', *, *, #17, .F. ) ;
#90 = VECTOR ( 'NONE', #44, 1000.000000000000000 ) ;
#91 = CARTESIAN_POINT ( 'NONE',  ( 0.000000000000000000, 0.000000000000000000, 0.000000000000000000 ) ) ;
#92 = ORIENTED_EDGE ( 'NONE', *, *, #374, .F. ) ;
#93 = DIRECTION ( 'NONE',  ( 1.000000000000000000, 0.000000000000000000, 0.000000000000000000 ) ) ;
#94 = EDGE_LOOP ( 'NONE', ( #278, #156, #103, #141 ) ) ;
#95 = ORIENTED_EDGE ( 'NONE', *, *, #325, .F. ) ;
#96 = TOROIDAL_SURFACE ( 'NONE', #71, 6.700000000000001066, 0.6999999999999999556 ) ;
#97 = CYLINDRICAL_SURFACE ( 'NONE', #323, 10.00000000000000000 ) ;
#98 = EDGE_LOOP ( 'NONE', ( #193, #123 ) ) ;
#99 = DIRECTION ( 'NONE',  ( 0.000000000000000000, 0.000000000000000000, -1.000000000000000000 ) ) ;
#100 = CYLINDRICAL_SURFACE ( 'NONE', #34, 6.000000000000000888 ) ;
#101 = VERTEX_POINT ( 'NONE', #379 ) ;
#102 = LINE ( 'NONE', #27, #219 ) ;
#103 = ORIENTED_EDGE ( 'NONE', *, *, #157, .T. ) ;
#104 = DIRECTION ( 'NONE',  ( 1.000000000000000000, 0.000000000000000000, 0.000000000000000000 ) ) ;
#105 = CIRCLE ( 'NONE', #197, 6.000000000000000888 ) ;
#106 = DIRECTION ( 'NONE',  ( -0.000000000000000000, -0.000000000000000000, -1.000000000000000000 ) ) ;
#107 = DIRECTION ( 'NONE',  ( 0.000000000000000000, 0.000000000000000000, 1.000000000000000000 ) ) ;
#108 = DIRECTION ( 'NONE',  ( 1.000000000000000000, 0.000000000000000000, -0.000000000000000000 ) ) ;
#109 = DATE_AND_TIME ( #253, #361 ) ;
#110 = CIRCLE ( 'NONE', #350, 10.00000000000000000 ) ;
#111 = FACE_OUTER_BOUND ( 'NONE', #207, .T. ) ;
#112 = APPLICATION_CONTEXT ( 'configuration controlled 3d designs of mechanical parts and assemblies' ) ;
#113 = PERSON_AND_ORGANIZATION ( #354, #217 ) ;
#114 = CALENDAR_DATE ( 2022, 8, 7 ) ;
#115 = DIRECTION ( 'NONE',  ( 0.000000000000000000, 0.000000000000000000, 1.000000000000000000 ) ) ;
#116 = DIRECTION ( 'NONE',  ( 1.000000000000000000, 0.000000000000000000, 0.000000000000000000 ) ) ;
#117 = SECURITY_CLASSIFICATION ( '', '', #351 ) ;
#118 = AXIS2_PLACEMENT_3D ( 'NONE', #176, #205, #252 ) ;
#119 = PERSON_AND_ORGANIZATION_ROLE ( 'classification_officer' ) ;
#120 = CARTESIAN_POINT ( 'NONE',  ( 0.000000000000000000, 0.000000000000000000, 0.000000000000000000 ) ) ;
#121 = APPROVAL_ROLE ( '' ) ;
#122 = CARTESIAN_POINT ( 'NONE',  ( 0.000000000000000000, 0.000000000000000000, 0.000000000000000000 ) ) ;
#123 = ORIENTED_EDGE ( 'NONE', *, *, #216, .F. ) ;
#124 = DATE_AND_TIME ( #212, #33 ) ;
#125 = CARTESIAN_POINT ( 'NONE',  ( 0.000000000000000000, 0.000000000000000000, 167.0000000000000000 ) ) ;
#126 = AXIS2_PLACEMENT_3D ( 'NONE', #91, #37, #68 ) ;
#127 = EDGE_LOOP ( 'NONE', ( #19, #48, #336, #12 ) ) ;
#128 = FACE_OUTER_BOUND ( 'NONE', #273, .T. ) ;
#129 = ORIENTED_EDGE ( 'NONE', *, *, #157, .F. ) ;
#130 = CARTESIAN_POINT ( 'NONE',  ( 0.000000000000000000, 0.000000000000000000, 7.000000000000000000 ) ) ;
#131 = ADVANCED_FACE ( 'NONE', ( #319 ), #30, .T. ) ;
#132 = ORIENTED_EDGE ( 'NONE', *, *, #24, .T. ) ;
#133 = CIRCLE ( 'NONE', #126, 10.00000000000000000 ) ;
#134 = ORIENTED_EDGE ( 'NONE', *, *, #76, .T. ) ;
#135 = CC_DESIGN_DATE_AND_TIME_ASSIGNMENT ( #375, #185, ( #117 ) ) ;
#136 = UNCERTAINTY_MEASURE_WITH_UNIT (LENGTH_MEASURE( 1.000000000000000082E-05 ), #46, 'distance_accuracy_value', 'NONE');
#137 = DIRECTION ( 'NONE',  ( -0.000000000000000000, -0.000000000000000000, -1.000000000000000000 ) ) ;
#138 = ADVANCED_BREP_SHAPE_REPRESENTATION ( '5446', ( #70, #284 ), #154 ) ;
#139 = CARTESIAN_POINT ( 'NONE',  ( 10.00000000000000000, 1.224646799147353256E-15, 7.000000000000000000 ) ) ;
#140 = EDGE_CURVE ( 'NONE', #327, #169, #208, .T. ) ;
#141 = ORIENTED_EDGE ( 'NONE', *, *, #206, .F. ) ;
#142 = FACE_OUTER_BOUND ( 'NONE', #235, .T. ) ;
#143 =( NAMED_UNIT ( * ) PLANE_ANGLE_UNIT ( ) SI_UNIT ( $, .RADIAN. ) );
#144 = DIRECTION ( 'NONE',  ( 0.000000000000000000, 0.000000000000000000, -1.000000000000000000 ) ) ;
#145 = COORDINATED_UNIVERSAL_TIME_OFFSET ( 1, 0, .AHEAD. ) ;
#146 = COORDINATED_UNIVERSAL_TIME_OFFSET ( 1, 0, .AHEAD. ) ;
#147 = APPROVAL_PERSON_ORGANIZATION ( #202, #174, #231 ) ;
#148 = CIRCLE ( 'NONE', #118, 6.000000000000000888 ) ;
#149 = CARTESIAN_POINT ( 'NONE',  ( 0.000000000000000000, 0.000000000000000000, 167.0000000000000000 ) ) ;
#150 = PERSON_AND_ORGANIZATION_ROLE ( 'creator' ) ;
#151 = DIRECTION ( 'NONE',  ( -0.000000000000000000, -0.000000000000000000, -1.000000000000000000 ) ) ;
#152 = APPROVAL_DATE_TIME ( #109, #174 ) ;
#153 = DIRECTION ( 'NONE',  ( -0.000000000000000000, -0.000000000000000000, -1.000000000000000000 ) ) ;
#154 =( GEOMETRIC_REPRESENTATION_CONTEXT ( 3 ) GLOBAL_UNCERTAINTY_ASSIGNED_CONTEXT ( ( #136 ) ) GLOBAL_UNIT_ASSIGNED_CONTEXT ( ( #46, #143, #81 ) ) REPRESENTATION_CONTEXT ( 'NONE', 'WORKASPACE' ) );
#155 = ADVANCED_FACE ( 'NONE', ( #111 ), #47, .F. ) ;
#156 = ORIENTED_EDGE ( 'NONE', *, *, #374, .T. ) ;
#157 = EDGE_CURVE ( 'NONE', #214, #16, #148, .T. ) ;
#158 = DIRECTION ( 'NONE',  ( 1.000000000000000000, 0.000000000000000000, 0.000000000000000000 ) ) ;
#159 = CC_DESIGN_DATE_AND_TIME_ASSIGNMENT ( #226, #28, ( #74 ) ) ;
#160 = ADVANCED_FACE ( 'NONE', ( #381, #61 ), #60, .F. ) ;
#161 = DIRECTION ( 'NONE',  ( 0.000000000000000000, 0.000000000000000000, 1.000000000000000000 ) ) ;
#162 = ORIENTED_EDGE ( 'NONE', *, *, #281, .F. ) ;
#163 = DIRECTION ( 'NONE',  ( -0.000000000000000000, -0.000000000000000000, -1.000000000000000000 ) ) ;
#164 = CARTESIAN_POINT ( 'NONE',  ( -4.000000000000000000, 0.000000000000000000, 0.000000000000000000 ) ) ;
#165 = CIRCLE ( 'NONE', #25, 6.000000000000000888 ) ;
#166 = DIRECTION ( 'NONE',  ( 0.000000000000000000, -1.000000000000000000, 0.000000000000000000 ) ) ;
#167 = PLANE ( 'NONE',  #279 ) ;
#168 = ORIENTED_EDGE ( 'NONE', *, *, #180, .F. ) ;
#169 = VERTEX_POINT ( 'NONE', #229 ) ;
#170 = CARTESIAN_POINT ( 'NONE',  ( 10.00000000000000000, 1.224646799147353256E-15, 7.000000000000000000 ) ) ;
#171 = ORIENTED_EDGE ( 'NONE', *, *, #17, .T. ) ;
#172 = CALENDAR_DATE ( 2022, 8, 7 ) ;
#173 = CARTESIAN_POINT ( 'NONE',  ( 0.000000000000000000, 0.000000000000000000, 0.000000000000000000 ) ) ;
#174 = APPROVAL ( #228, 'NEURÈENÝ' ) ;
#175 = APPROVAL_DATE_TIME ( #56, #333 ) ;
#176 = CARTESIAN_POINT ( 'NONE',  ( 0.000000000000000000, 0.000000000000000000, 7.700000000000012612 ) ) ;
#177 = AXIS2_PLACEMENT_3D ( 'NONE', #122, #163, #158 ) ;
#178 = EDGE_CURVE ( 'NONE', #297, #101, #183, .T. ) ;
#179 = CARTESIAN_POINT ( 'NONE',  ( 10.00000000000000000, 1.224646799147353256E-15, 0.000000000000000000 ) ) ;
#180 = EDGE_CURVE ( 'NONE', #16, #214, #105, .T. ) ;
#181 = DIRECTION ( 'NONE',  ( -0.000000000000000000, -0.000000000000000000, -1.000000000000000000 ) ) ;
#182 = AXIS2_PLACEMENT_3D ( 'NONE', #6, #161, #188 ) ;
#183 = CIRCLE ( 'NONE', #238, 4.000000000000000000 ) ;
#184 = ORIENTED_EDGE ( 'NONE', *, *, #180, .T. ) ;
#185 = DATE_TIME_ROLE ( 'classification_date' ) ;
#186 = CC_DESIGN_PERSON_AND_ORGANIZATION_ASSIGNMENT ( #86, #150, ( #74 ) ) ;
#187 = EDGE_LOOP ( 'NONE', ( #298, #134, #360, #89 ) ) ;
#188 = DIRECTION ( 'NONE',  ( 1.000000000000000000, 0.000000000000000000, 0.000000000000000000 ) ) ;
#189 = AXIS2_PLACEMENT_3D ( 'NONE', #198, #373, #305 ) ;
#190 = CIRCLE ( 'NONE', #312, 4.000000000000000000 ) ;
#191 = CARTESIAN_POINT ( 'NONE',  ( 6.700000000000001066, 0.000000000000000000, 7.000000000000006217 ) ) ;
#192 = VERTEX_POINT ( 'NONE', #179 ) ;
#193 = ORIENTED_EDGE ( 'NONE', *, *, #249, .F. ) ;
#194 = CARTESIAN_POINT ( 'NONE',  ( -6.000000000000000888, 0.000000000000000000, 7.700000000000012612 ) ) ;
#195 = ORIENTED_EDGE ( 'NONE', *, *, #329, .F. ) ;
#196 = AXIS2_PLACEMENT_3D ( 'NONE', #125, #356, #211 ) ;
#197 = AXIS2_PLACEMENT_3D ( 'NONE', #287, #255, #116 ) ;
#198 = CARTESIAN_POINT ( 'NONE',  ( 0.000000000000000000, 0.000000000000000000, 7.000000000000000000 ) ) ;
#199 = CC_DESIGN_PERSON_AND_ORGANIZATION_ASSIGNMENT ( #256, #204, ( #277 ) ) ;
#200 = AXIS2_PLACEMENT_3D ( 'NONE', #66, #260, #42 ) ;
#201 = FACE_OUTER_BOUND ( 'NONE', #275, .T. ) ;
#202 = PERSON_AND_ORGANIZATION ( #354, #217 ) ;
#203 = DIRECTION ( 'NONE',  ( 1.000000000000000000, 0.000000000000000000, 0.000000000000000000 ) ) ;
#204 = PERSON_AND_ORGANIZATION_ROLE ( 'design_supplier' ) ;
#205 = DIRECTION ( 'NONE',  ( 0.000000000000000000, 0.000000000000000000, 1.000000000000000000 ) ) ;
#206 = EDGE_CURVE ( 'NONE', #355, #16, #289, .T. ) ;
#207 = EDGE_LOOP ( 'NONE', ( #342, #129, #13, #246 ) ) ;
#208 = CIRCLE ( 'NONE', #245, 10.00000000000000000 ) ;
#209 = VERTEX_POINT ( 'NONE', #257 ) ;
#210 = ORIENTED_EDGE ( 'NONE', *, *, #249, .T. ) ;
#211 = DIRECTION ( 'NONE',  ( -1.000000000000000000, 0.000000000000000000, 0.000000000000000000 ) ) ;
#212 = CALENDAR_DATE ( 2022, 8, 7 ) ;
#213 = DIRECTION ( 'NONE',  ( -1.000000000000000000, 0.000000000000000000, 0.000000000000000000 ) ) ;
#214 = VERTEX_POINT ( 'NONE', #362 ) ;
#215 = DESIGN_CONTEXT ( 'detailed design', #112, 'design' ) ;
#216 = EDGE_CURVE ( 'NONE', #301, #296, #339, .T. ) ;
#217 = ORGANIZATION ( 'NEURÈENÝ', 'NEURÈENÝ', '' ) ;
#218 = VERTEX_POINT ( 'NONE', #300 ) ;
#219 = VECTOR ( 'NONE', #144, 1000.000000000000000 ) ;
#220 = CARTESIAN_POINT ( 'NONE',  ( -6.700000000000001066, 8.205133554287267548E-16, 7.700000000000012612 ) ) ;
#221 = ORIENTED_EDGE ( 'NONE', *, *, #281, .T. ) ;
#222 = CARTESIAN_POINT ( 'NONE',  ( 0.000000000000000000, 0.000000000000000000, 167.0000000000000000 ) ) ;
#223 = CARTESIAN_POINT ( 'NONE',  ( 0.000000000000000000, 0.000000000000000000, 167.0000000000000000 ) ) ;
#224 = LOCAL_TIME ( 16, 39, 12.00000000000000000, #145 ) ;
#225 = DIRECTION ( 'NONE',  ( 0.000000000000000000, 0.000000000000000000, 1.000000000000000000 ) ) ;
#226 = DATE_AND_TIME ( #114, #376 ) ;
#227 = DIRECTION ( 'NONE',  ( -1.000000000000000000, 0.000000000000000000, 0.000000000000000000 ) ) ;
#228 = APPROVAL_STATUS ( 'not_yet_approved' ) ;
#229 = CARTESIAN_POINT ( 'NONE',  ( -10.00000000000000000, 0.000000000000000000, 7.000000000000000000 ) ) ;
#230 = AXIS2_PLACEMENT_3D ( 'NONE', #173, #341, #79 ) ;
#231 = APPROVAL_ROLE ( '' ) ;
#232 = EDGE_LOOP ( 'NONE', ( #266, #162 ) ) ;
#233 = APPLICATION_CONTEXT ( 'configuration controlled 3d designs of mechanical parts and assemblies' ) ;
#234 = CYLINDRICAL_SURFACE ( 'NONE', #311, 4.000000000000000000 ) ;
#235 = EDGE_LOOP ( 'NONE', ( #357, #36 ) ) ;
#236 = EDGE_CURVE ( 'NONE', #355, #218, #9, .T. ) ;
#237 = CIRCLE ( 'NONE', #259, 0.7000000000000000666 ) ;
#238 = AXIS2_PLACEMENT_3D ( 'NONE', #83, #58, #203 ) ;
#239 = DIRECTION ( 'NONE',  ( 0.000000000000000000, 0.000000000000000000, 1.000000000000000000 ) ) ;
#240 = ORIENTED_EDGE ( 'NONE', *, *, #178, .T. ) ;
#241 = ADVANCED_FACE ( 'NONE', ( #128 ), #234, .F. ) ;
#242 = EDGE_LOOP ( 'NONE', ( #50, #7 ) ) ;
#243 = AXIS2_PLACEMENT_3D ( 'NONE', #130, #359, #213 ) ;
#244 = DIRECTION ( 'NONE',  ( 0.000000000000000000, 0.000000000000000000, 1.000000000000000000 ) ) ;
#245 = AXIS2_PLACEMENT_3D ( 'NONE', #321, #88, #63 ) ;
#246 = ORIENTED_EDGE ( 'NONE', *, *, #24, .F. ) ;
#247 = CARTESIAN_POINT ( 'NONE',  ( -10.00000000000000000, 0.000000000000000000, 7.000000000000000000 ) ) ;
#248 = ORIENTED_EDGE ( 'NONE', *, *, #140, .F. ) ;
#249 = EDGE_CURVE ( 'NONE', #296, #301, #54, .T. ) ;
#250 = DIRECTION ( 'NONE',  ( 1.224646799147353207E-16, 1.000000000000000000, -0.000000000000000000 ) ) ;
#251 = CLOSED_SHELL ( 'NONE', ( #274, #378, #131, #8, #283, #62, #160, #84, #73, #155, #241 ) ) ;
#252 = DIRECTION ( 'NONE',  ( 1.000000000000000000, 0.000000000000000000, 0.000000000000000000 ) ) ;
#253 = CALENDAR_DATE ( 2022, 8, 7 ) ;
#254 = EDGE_CURVE ( 'NONE', #169, #327, #110, .T. ) ;
#255 = DIRECTION ( 'NONE',  ( 0.000000000000000000, 0.000000000000000000, 1.000000000000000000 ) ) ;
#256 = PERSON_AND_ORGANIZATION ( #354, #217 ) ;
#257 = CARTESIAN_POINT ( 'NONE',  ( -6.700000000000001066, 8.205133554287267548E-16, 7.000000000000006217 ) ) ;
#258 = CIRCLE ( 'NONE', #55, 0.7000000000000000666 ) ;
#259 = AXIS2_PLACEMENT_3D ( 'NONE', #367, #166, #99 ) ;
#260 = DIRECTION ( 'NONE',  ( -0.000000000000000000, -0.000000000000000000, -1.000000000000000000 ) ) ;
#261 = APPROVAL_STATUS ( 'not_yet_approved' ) ;
#262 = CARTESIAN_POINT ( 'NONE',  ( 0.000000000000000000, 0.000000000000000000, 167.0000000000000000 ) ) ;
#263 = VECTOR ( 'NONE', #106, 1000.000000000000000 ) ;
#264 = FACE_OUTER_BOUND ( 'NONE', #304, .T. ) ;
#265 = AXIS2_PLACEMENT_3D ( 'NONE', #317, #225, #346 ) ;
#266 = ORIENTED_EDGE ( 'NONE', *, *, #45, .F. ) ;
#267 = FACE_OUTER_BOUND ( 'NONE', #127, .T. ) ;
#268 = EDGE_LOOP ( 'NONE', ( #52, #132 ) ) ;
#269 = ORIENTED_EDGE ( 'NONE', *, *, #178, .F. ) ;
#270 = CARTESIAN_POINT ( 'NONE',  ( 0.000000000000000000, 0.000000000000000000, 7.000000000000000000 ) ) ;
#271 = EDGE_LOOP ( 'NONE', ( #168, #332, #95, #308 ) ) ;
#272 = CC_DESIGN_PERSON_AND_ORGANIZATION_ASSIGNMENT ( #348, #1, ( #277 ) ) ;
#273 = EDGE_LOOP ( 'NONE', ( #309, #240, #171, #210 ) ) ;
#274 = ADVANCED_FACE ( 'NONE', ( #295 ), #353, .F. ) ;
#275 = EDGE_LOOP ( 'NONE', ( #92, #352, #299, #184 ) ) ;
#276 = CARTESIAN_POINT ( 'NONE',  ( 0.000000000000000000, 0.000000000000000000, 7.700000000000012612 ) ) ;
#277 = PRODUCT_DEFINITION_FORMATION_WITH_SPECIFIED_SOURCE ( 'LIBOVOLNÝ', '', #85, .NOT_KNOWN. ) ;
#278 = ORIENTED_EDGE ( 'NONE', *, *, #372, .F. ) ;
#279 = AXIS2_PLACEMENT_3D ( 'NONE', #371, #107, #108 ) ;
#280 = COORDINATED_UNIVERSAL_TIME_OFFSET ( 1, 0, .AHEAD. ) ;
#281 = EDGE_CURVE ( 'NONE', #192, #77, #133, .T. ) ;
#282 = PERSON_AND_ORGANIZATION_ROLE ( 'design_owner' ) ;
#283 = ADVANCED_FACE ( 'NONE', ( #267 ), #11, .T. ) ;
#284 = AXIS2_PLACEMENT_3D ( 'NONE', #316, #59, #31 ) ;
#285 = VECTOR ( 'NONE', #153, 1000.000000000000000 ) ;
#286 = PRODUCT_DEFINITION_SHAPE ( 'NONE', 'NONE',  #74 ) ;
#287 = CARTESIAN_POINT ( 'NONE',  ( 0.000000000000000000, 0.000000000000000000, 7.700000000000012612 ) ) ;
#288 = COORDINATED_UNIVERSAL_TIME_OFFSET ( 1, 0, .AHEAD. ) ;
#289 = LINE ( 'NONE', #32, #285 ) ;
#290 = LOCAL_TIME ( 16, 39, 12.00000000000000000, #146 ) ;
#291 = DIRECTION ( 'NONE',  ( 1.000000000000000000, 0.000000000000000000, -0.000000000000000000 ) ) ;
#292 = AXIS2_PLACEMENT_3D ( 'NONE', #120, #115, #291 ) ;
#293 = VERTEX_POINT ( 'NONE', #191 ) ;
#294 = CARTESIAN_POINT ( 'NONE',  ( -4.000000000000000000, 0.000000000000000000, 167.0000000000000000 ) ) ;
#295 = FACE_OUTER_BOUND ( 'NONE', #187, .T. ) ;
#296 = VERTEX_POINT ( 'NONE', #164 ) ;
#297 = VERTEX_POINT ( 'NONE', #53 ) ;
#298 = ORIENTED_EDGE ( 'NONE', *, *, #2, .T. ) ;
#299 = ORIENTED_EDGE ( 'NONE', *, *, #206, .T. ) ;
#300 = CARTESIAN_POINT ( 'NONE',  ( 6.000000000000000888, 7.347880794884120722E-16, 167.0000000000000000 ) ) ;
#301 = VERTEX_POINT ( 'NONE', #369 ) ;
#302 = LINE ( 'NONE', #294, #90 ) ;
#303 = APPROVAL ( #261, 'NEURÈENÝ' ) ;
#304 = EDGE_LOOP ( 'NONE', ( #248, #370, #221, #195 ) ) ;
#305 = DIRECTION ( 'NONE',  ( 1.000000000000000000, 0.000000000000000000, 0.000000000000000000 ) ) ;
#306 = VECTOR ( 'NONE', #78, 1000.000000000000000 ) ;
#307 = CIRCLE ( 'NONE', #230, 10.00000000000000000 ) ;
#308 = ORIENTED_EDGE ( 'NONE', *, *, #364, .F. ) ;
#309 = ORIENTED_EDGE ( 'NONE', *, *, #76, .F. ) ;
#310 = FACE_BOUND ( 'NONE', #39, .T. ) ;
#311 = AXIS2_PLACEMENT_3D ( 'NONE', #262, #40, #72 ) ;
#312 = AXIS2_PLACEMENT_3D ( 'NONE', #69, #244, #363 ) ;
#313 = APPLICATION_PROTOCOL_DEFINITION ( 'international standard', 'config_control_design', 1994, #112 ) ;
#314 = EDGE_CURVE ( 'NONE', #327, #192, #14, .T. ) ;
#315 = CC_DESIGN_PERSON_AND_ORGANIZATION_ASSIGNMENT ( #113, #282, ( #85 ) ) ;
#316 = CARTESIAN_POINT ( 'NONE',  ( 0.000000000000000000, 0.000000000000000000, 0.000000000000000000 ) ) ;
#317 = CARTESIAN_POINT ( 'NONE',  ( 0.000000000000000000, 0.000000000000000000, 7.700000000000012612 ) ) ;
#318 = MECHANICAL_CONTEXT ( 'NONE', #233, 'mechanical' ) ;
#319 = FACE_OUTER_BOUND ( 'NONE', #94, .T. ) ;
#320 = DIRECTION ( 'NONE',  ( -1.000000000000000000, 0.000000000000000000, 0.000000000000000000 ) ) ;
#321 = CARTESIAN_POINT ( 'NONE',  ( 0.000000000000000000, 0.000000000000000000, 7.000000000000000000 ) ) ;
#322 = CIRCLE ( 'NONE', #189, 6.700000000000001066 ) ;
#323 = AXIS2_PLACEMENT_3D ( 'NONE', #324, #38, #15 ) ;
#324 = CARTESIAN_POINT ( 'NONE',  ( 0.000000000000000000, 0.000000000000000000, 7.000000000000000000 ) ) ;
#325 = EDGE_CURVE ( 'NONE', #293, #209, #322, .T. ) ;
#326 = ORIENTED_EDGE ( 'NONE', *, *, #2, .F. ) ;
#327 = VERTEX_POINT ( 'NONE', #170 ) ;
#328 = SHAPE_DEFINITION_REPRESENTATION ( #286, #138 ) ;
#329 = EDGE_CURVE ( 'NONE', #169, #77, #23, .T. ) ;
#330 = CC_DESIGN_SECURITY_CLASSIFICATION ( #117, ( #277 ) ) ;
#331 = CARTESIAN_POINT ( 'NONE',  ( 0.000000000000000000, 0.000000000000000000, 7.000000000000000000 ) ) ;
#332 = ORIENTED_EDGE ( 'NONE', *, *, #35, .T. ) ;
#333 = APPROVAL ( #82, 'NEURÈENÝ' ) ;
#334 = DIRECTION ( 'NONE',  ( 1.000000000000000000, 0.000000000000000000, 0.000000000000000000 ) ) ;
#335 = FACE_BOUND ( 'NONE', #268, .T. ) ;
#336 = ORIENTED_EDGE ( 'NONE', *, *, #329, .T. ) ;
#337 = DIRECTION ( 'NONE',  ( 0.000000000000000000, 0.000000000000000000, 1.000000000000000000 ) ) ;
#338 = APPROVAL_PERSON_ORGANIZATION ( #380, #333, #347 ) ;
#339 = CIRCLE ( 'NONE', #177, 4.000000000000000000 ) ;
#340 = FACE_OUTER_BOUND ( 'NONE', #271, .T. ) ;
#341 = DIRECTION ( 'NONE',  ( 0.000000000000000000, 0.000000000000000000, 1.000000000000000000 ) ) ;
#342 = ORIENTED_EDGE ( 'NONE', *, *, #35, .F. ) ;
#343 = CARTESIAN_POINT ( 'NONE',  ( -10.00000000000000000, 0.000000000000000000, 0.000000000000000000 ) ) ;
#344 = CC_DESIGN_APPROVAL ( #174, ( #277 ) ) ;
#345 = CC_DESIGN_PERSON_AND_ORGANIZATION_ASSIGNMENT ( #4, #119, ( #117 ) ) ;
#346 = DIRECTION ( 'NONE',  ( 1.000000000000000000, 0.000000000000000000, 0.000000000000000000 ) ) ;
#347 = APPROVAL_ROLE ( '' ) ;
#348 = PERSON_AND_ORGANIZATION ( #354, #217 ) ;
#349 = CARTESIAN_POINT ( 'NONE',  ( 0.000000000000000000, 0.000000000000000000, 167.0000000000000000 ) ) ;
#350 = AXIS2_PLACEMENT_3D ( 'NONE', #331, #239, #93 ) ;
#351 = SECURITY_CLASSIFICATION_LEVEL ( 'unclassified' ) ;
#352 = ORIENTED_EDGE ( 'NONE', *, *, #236, .F. ) ;
#353 = CYLINDRICAL_SURFACE ( 'NONE', #196, 4.000000000000000000 ) ;
#354 = PERSON ( 'NEURÈENÝ', 'NEURÈENÝ', 'NEURÈENÝ', ('NEURÈENÝ'), ('NEURÈENÝ'), ('NEURÈENÝ') ) ;
#355 = VERTEX_POINT ( 'NONE', #365 ) ;
#356 = DIRECTION ( 'NONE',  ( 0.000000000000000000, 0.000000000000000000, -1.000000000000000000 ) ) ;
#357 = ORIENTED_EDGE ( 'NONE', *, *, #254, .T. ) ;
#358 = COORDINATED_UNIVERSAL_TIME_OFFSET ( 1, 0, .AHEAD. ) ;
#359 = DIRECTION ( 'NONE',  ( -0.000000000000000000, -0.000000000000000000, -1.000000000000000000 ) ) ;
#360 = ORIENTED_EDGE ( 'NONE', *, *, #216, .T. ) ;
#361 = LOCAL_TIME ( 16, 39, 12.00000000000000000, #288 ) ;
#362 = CARTESIAN_POINT ( 'NONE',  ( 6.000000000000000888, 7.347880794884120722E-16, 7.700000000000012612 ) ) ;
#363 = DIRECTION ( 'NONE',  ( 1.000000000000000000, 0.000000000000000000, 0.000000000000000000 ) ) ;
#364 = EDGE_CURVE ( 'NONE', #214, #293, #237, .T. ) ;
#365 = CARTESIAN_POINT ( 'NONE',  ( -6.000000000000000888, 0.000000000000000000, 167.0000000000000000 ) ) ;
#366 = DIRECTION ( 'NONE',  ( 0.000000000000000000, 0.000000000000000000, 1.000000000000000000 ) ) ;
#367 = CARTESIAN_POINT ( 'NONE',  ( 6.700000000000001066, 0.000000000000000000, 7.700000000000012612 ) ) ;
#368 = DIRECTION ( 'NONE',  ( 1.000000000000000000, 0.000000000000000000, -0.000000000000000000 ) ) ;
#369 = CARTESIAN_POINT ( 'NONE',  ( 4.000000000000000000, 4.898587196589411843E-16, 0.000000000000000000 ) ) ;
#370 = ORIENTED_EDGE ( 'NONE', *, *, #314, .T. ) ;
#371 = CARTESIAN_POINT ( 'NONE',  ( 0.000000000000000000, 0.000000000000000000, 7.000000000000000000 ) ) ;
#372 = EDGE_CURVE ( 'NONE', #218, #355, #165, .T. ) ;
#373 = DIRECTION ( 'NONE',  ( -0.000000000000000000, -0.000000000000000000, -1.000000000000000000 ) ) ;
#374 = EDGE_CURVE ( 'NONE', #218, #214, #49, .T. ) ;
#375 = DATE_AND_TIME ( #87, #224 ) ;
#376 = LOCAL_TIME ( 16, 39, 12.00000000000000000, #280 ) ;
#377 = AXIS2_PLACEMENT_3D ( 'NONE', #270, #137, #10 ) ;
#378 = ADVANCED_FACE ( 'NONE', ( #340 ), #96, .F. ) ;
#379 = CARTESIAN_POINT ( 'NONE',  ( -4.000000000000000000, 0.000000000000000000, 167.0000000000000000 ) ) ;
#380 = PERSON_AND_ORGANIZATION ( #354, #217 ) ;
#381 = FACE_BOUND ( 'NONE', #98, .T. ) ;
ENDSEC;
END-ISO-10303-21;
