ISO-10303-21;
HEADER;
FILE_DESCRIPTION (( 'STEP AP203' ),
    '1' );
FILE_NAME ('c143.STEP',
    '2022-07-08T15:47:23',
    ( '' ),
    ( '' ),
    'SwSTEP 2.0',
    'SolidWorks 2019',
    '' );
FILE_SCHEMA (( 'CONFIG_CONTROL_DESIGN' ));
ENDSEC;

DATA;
#1 = CARTESIAN_POINT ( 'NONE',  ( 0.000000000000000000, 0.000000000000000000, 3.000000000000000000 ) ) ;
#2 = AXIS2_PLACEMENT_3D ( 'NONE', #192, #334, #360 ) ;
#3 = CARTESIAN_POINT ( 'NONE',  ( 0.000000000000000000, 0.000000000000000000, 3.300000000000025135 ) ) ;
#4 = CARTESIAN_POINT ( 'NONE',  ( 0.000000000000000000, 0.000000000000000000, 278.0000000000000000 ) ) ;
#5 = FACE_OUTER_BOUND ( 'NONE', #247, .T. ) ;
#6 = AXIS2_PLACEMENT_3D ( 'NONE', #246, #276, #222 ) ;
#7 = LOCAL_TIME ( 17, 47, 23.00000000000000000, #139 ) ;
#8 = CARTESIAN_POINT ( 'NONE',  ( -2.799999999999999822, 3.429011037612588783E-16, 3.300000000000025135 ) ) ;
#9 = EDGE_CURVE ( 'NONE', #202, #126, #84, .T. ) ;
#10 = PRODUCT ( 'c143', 'c143', '', ( #229 ) ) ;
#11 = DIRECTION ( 'NONE',  ( -1.000000000000000000, 0.000000000000000000, 0.000000000000000000 ) ) ;
#12 = ORIENTED_EDGE ( 'NONE', *, *, #255, .T. ) ;
#13 = DIRECTION ( 'NONE',  ( -0.000000000000000000, -0.000000000000000000, -1.000000000000000000 ) ) ;
#14 = EDGE_CURVE ( 'NONE', #374, #180, #110, .T. ) ;
#15 = CIRCLE ( 'NONE', #323, 2.799999999999999822 ) ;
#16 = CARTESIAN_POINT ( 'NONE',  ( 0.000000000000000000, 0.000000000000000000, 3.000000000000000000 ) ) ;
#17 = LINE ( 'NONE', #165, #274 ) ;
#18 = DIRECTION ( 'NONE',  ( 1.000000000000000000, 0.000000000000000000, 0.000000000000000000 ) ) ;
#19 = VERTEX_POINT ( 'NONE', #350 ) ;
#20 = DATE_AND_TIME ( #312, #7 ) ;
#21 = ORGANIZATION ( 'NEURÈENÝ', 'NEURÈENÝ', '' ) ;
#22 = EDGE_LOOP ( 'NONE', ( #170, #172, #343, #335 ) ) ;
#23 = EDGE_CURVE ( 'NONE', #19, #113, #195, .T. ) ;
#24 = EDGE_LOOP ( 'NONE', ( #379, #259 ) ) ;
#25 = VERTEX_POINT ( 'NONE', #106 ) ;
#26 = APPROVAL ( #264, 'NEURÈENÝ' ) ;
#27 = DATE_AND_TIME ( #109, #304 ) ;
#28 = AXIS2_PLACEMENT_3D ( 'NONE', #239, #301, #332 ) ;
#29 = EDGE_LOOP ( 'NONE', ( #58, #136, #307, #128 ) ) ;
#30 = CARTESIAN_POINT ( 'NONE',  ( 0.000000000000000000, 0.000000000000000000, 3.300000000000025135 ) ) ;
#31 = PLANE ( 'NONE',  #299 ) ;
#32 = CARTESIAN_POINT ( 'NONE',  ( 0.000000000000000000, 0.000000000000000000, 278.0000000000000000 ) ) ;
#33 = CIRCLE ( 'NONE', #6, 5.000000000000000000 ) ;
#34 = CYLINDRICAL_SURFACE ( 'NONE', #364, 5.000000000000000000 ) ;
#35 = DIRECTION ( 'NONE',  ( 0.000000000000000000, 0.000000000000000000, 1.000000000000000000 ) ) ;
#36 = DIRECTION ( 'NONE',  ( 0.000000000000000000, 0.000000000000000000, 1.000000000000000000 ) ) ;
#37 = EDGE_CURVE ( 'NONE', #374, #94, #141, .T. ) ;
#38 = AXIS2_PLACEMENT_3D ( 'NONE', #131, #220, #303 ) ;
#39 = DIRECTION ( 'NONE',  ( -0.000000000000000000, -0.000000000000000000, -1.000000000000000000 ) ) ;
#40 = ORIENTED_EDGE ( 'NONE', *, *, #325, .T. ) ;
#41 = LINE ( 'NONE', #45, #78 ) ;
#42 = EDGE_CURVE ( 'NONE', #230, #180, #236, .T. ) ;
#43 = DIRECTION ( 'NONE',  ( 1.224646799147353207E-16, 1.000000000000000000, -0.000000000000000000 ) ) ;
#44 = CC_DESIGN_APPROVAL ( #26, ( #300 ) ) ;
#45 = CARTESIAN_POINT ( 'NONE',  ( 2.500000000000000000, 3.061616997868383141E-16, 278.0000000000000000 ) ) ;
#46 = VERTEX_POINT ( 'NONE', #153 ) ;
#47 = PERSON_AND_ORGANIZATION ( #112, #21 ) ;
#48 = ORIENTED_EDGE ( 'NONE', *, *, #245, .F. ) ;
#49 = CC_DESIGN_PERSON_AND_ORGANIZATION_ASSIGNMENT ( #201, #114, ( #260 ) ) ;
#50 = DIRECTION ( 'NONE',  ( 1.000000000000000000, 0.000000000000000000, 0.000000000000000000 ) ) ;
#51 = AXIS2_PLACEMENT_3D ( 'NONE', #71, #217, #127 ) ;
#52 = COORDINATED_UNIVERSAL_TIME_OFFSET ( 1, 0, .AHEAD. ) ;
#53 = ORIENTED_EDGE ( 'NONE', *, *, #23, .T. ) ;
#54 =( NAMED_UNIT ( * ) SI_UNIT ( $, .STERADIAN. ) SOLID_ANGLE_UNIT ( ) );
#55 = ORIENTED_EDGE ( 'NONE', *, *, #186, .T. ) ;
#56 = APPROVAL ( #57, 'NEURÈENÝ' ) ;
#57 = APPROVAL_STATUS ( 'not_yet_approved' ) ;
#58 = ORIENTED_EDGE ( 'NONE', *, *, #351, .F. ) ;
#59 = COORDINATED_UNIVERSAL_TIME_OFFSET ( 1, 0, .AHEAD. ) ;
#60 = CIRCLE ( 'NONE', #103, 0.2999999999999999334 ) ;
#61 = DIRECTION ( 'NONE',  ( 0.000000000000000000, 0.000000000000000000, 1.000000000000000000 ) ) ;
#62 = CARTESIAN_POINT ( 'NONE',  ( 0.000000000000000000, 0.000000000000000000, 3.300000000000025135 ) ) ;
#63 = DIRECTION ( 'NONE',  ( -1.000000000000000000, 0.000000000000000000, 0.000000000000000000 ) ) ;
#64 = FACE_OUTER_BOUND ( 'NONE', #144, .T. ) ;
#65 = CC_DESIGN_APPROVAL ( #280, ( #260 ) ) ;
#66 = DIRECTION ( 'NONE',  ( -1.000000000000000000, 0.000000000000000000, 0.000000000000000000 ) ) ;
#67 = DIRECTION ( 'NONE',  ( 1.000000000000000000, 0.000000000000000000, -0.000000000000000000 ) ) ;
#68 = DIRECTION ( 'NONE',  ( 0.000000000000000000, 0.000000000000000000, 1.000000000000000000 ) ) ;
#69 = CARTESIAN_POINT ( 'NONE',  ( -5.000000000000000000, 0.000000000000000000, 3.000000000000000000 ) ) ;
#70 = VERTEX_POINT ( 'NONE', #121 ) ;
#71 = CARTESIAN_POINT ( 'NONE',  ( 0.000000000000000000, 0.000000000000000000, 278.0000000000000000 ) ) ;
#72 = EDGE_CURVE ( 'NONE', #115, #70, #149, .T. ) ;
#73 = CC_DESIGN_DATE_AND_TIME_ASSIGNMENT ( #319, #373, ( #260 ) ) ;
#74 = ORIENTED_EDGE ( 'NONE', *, *, #9, .F. ) ;
#75 = PERSON_AND_ORGANIZATION_ROLE ( 'creator' ) ;
#76 = ORIENTED_EDGE ( 'NONE', *, *, #42, .T. ) ;
#77 = AXIS2_PLACEMENT_3D ( 'NONE', #370, #347, #80 ) ;
#78 = VECTOR ( 'NONE', #253, 1000.000000000000000 ) ;
#79 = ADVANCED_FACE ( 'NONE', ( #5 ), #352, .T. ) ;
#80 = DIRECTION ( 'NONE',  ( 1.000000000000000000, 0.000000000000000000, 0.000000000000000000 ) ) ;
#81 = COORDINATED_UNIVERSAL_TIME_OFFSET ( 1, 0, .AHEAD. ) ;
#82 = ORIENTED_EDGE ( 'NONE', *, *, #324, .F. ) ;
#83 = ORIENTED_EDGE ( 'NONE', *, *, #245, .T. ) ;
#84 = CIRCLE ( 'NONE', #309, 5.000000000000000000 ) ;
#85 = LOCAL_TIME ( 17, 47, 23.00000000000000000, #205 ) ;
#86 = DIRECTION ( 'NONE',  ( -0.000000000000000000, -0.000000000000000000, -1.000000000000000000 ) ) ;
#87 = CC_DESIGN_PERSON_AND_ORGANIZATION_ASSIGNMENT ( #137, #173, ( #10 ) ) ;
#88 = CARTESIAN_POINT ( 'NONE',  ( -5.000000000000000000, 0.000000000000000000, 3.000000000000000000 ) ) ;
#89 = SHAPE_DEFINITION_REPRESENTATION ( #223, #308 ) ;
#90 = DIRECTION ( 'NONE',  ( -1.000000000000000000, 0.000000000000000000, 0.000000000000000000 ) ) ;
#91 = CARTESIAN_POINT ( 'NONE',  ( -2.500000000000000000, 0.000000000000000000, 3.300000000000025135 ) ) ;
#92 = FACE_OUTER_BOUND ( 'NONE', #233, .T. ) ;
#93 = FACE_OUTER_BOUND ( 'NONE', #287, .T. ) ;
#94 = VERTEX_POINT ( 'NONE', #356 ) ;
#95 = DIRECTION ( 'NONE',  ( 1.000000000000000000, 0.000000000000000000, 0.000000000000000000 ) ) ;
#96 = ORIENTED_EDGE ( 'NONE', *, *, #186, .F. ) ;
#97 = FACE_BOUND ( 'NONE', #221, .T. ) ;
#98 = FACE_OUTER_BOUND ( 'NONE', #22, .T. ) ;
#99 = ORIENTED_EDGE ( 'NONE', *, *, #37, .T. ) ;
#100 = DIRECTION ( 'NONE',  ( 1.000000000000000000, 0.000000000000000000, 0.000000000000000000 ) ) ;
#101 = EDGE_LOOP ( 'NONE', ( #372, #338 ) ) ;
#102 = ADVANCED_FACE ( 'NONE', ( #327 ), #34, .T. ) ;
#104 = ADVANCED_FACE ( 'NONE', ( #240, #211 ), #357, .T. ) ;
#103 = AXIS2_PLACEMENT_3D ( 'NONE', #8, #43, #162 ) ;
#105 = DIRECTION ( 'NONE',  ( 0.000000000000000000, -1.000000000000000000, 0.000000000000000000 ) ) ;
#106 = CARTESIAN_POINT ( 'NONE',  ( 5.000000000000000000, 6.123233995736766282E-16, 3.000000000000000000 ) ) ;
#107 = PERSON_AND_ORGANIZATION ( #112, #21 ) ;
#108 = CARTESIAN_POINT ( 'NONE',  ( 1.250000000000000000, 1.530808498934191571E-16, 278.0000000000000000 ) ) ;
#109 = CALENDAR_DATE ( 2022, 8, 7 ) ;
#110 = LINE ( 'NONE', #108, #133 ) ;
#111 = VECTOR ( 'NONE', #208, 1000.000000000000000 ) ;
#112 = PERSON ( 'NEURÈENÝ', 'NEURÈENÝ', 'NEURÈENÝ', ('NEURÈENÝ'), ('NEURÈENÝ'), ('NEURÈENÝ') ) ;
#113 = VERTEX_POINT ( 'NONE', #120 ) ;
#114 = PERSON_AND_ORGANIZATION_ROLE ( 'creator' ) ;
#115 = VERTEX_POINT ( 'NONE', #91 ) ;
#116 = CARTESIAN_POINT ( 'NONE',  ( 1.250000000000000000, 1.530808498934191571E-16, 0.000000000000000000 ) ) ;
#117 = ADVANCED_FACE ( 'NONE', ( #354 ), #209, .F. ) ;
#118 = APPROVAL_ROLE ( '' ) ;
#119 = AXIS2_PLACEMENT_3D ( 'NONE', #1, #326, #67 ) ;
#120 = CARTESIAN_POINT ( 'NONE',  ( -2.500000000000000000, 0.000000000000000000, 278.0000000000000000 ) ) ;
#121 = CARTESIAN_POINT ( 'NONE',  ( 2.500000000000000000, 3.061616997868383141E-16, 3.300000000000025135 ) ) ;
#122 = ADVANCED_FACE ( 'NONE', ( #64 ), #154, .T. ) ;
#123 = FACE_OUTER_BOUND ( 'NONE', #174, .T. ) ;
#124 = DIRECTION ( 'NONE',  ( 0.000000000000000000, 0.000000000000000000, 1.000000000000000000 ) ) ;
#125 = TOROIDAL_SURFACE ( 'NONE', #188, 2.799999999999999822, 0.2999999999999999889 ) ;
#126 = VERTEX_POINT ( 'NONE', #296 ) ;
#127 = DIRECTION ( 'NONE',  ( 1.000000000000000000, 0.000000000000000000, 0.000000000000000000 ) ) ;
#128 = ORIENTED_EDGE ( 'NONE', *, *, #366, .T. ) ;
#129 = LOCAL_TIME ( 17, 47, 23.00000000000000000, #59 ) ;
#130 = CARTESIAN_POINT ( 'NONE',  ( 0.000000000000000000, 0.000000000000000000, 0.000000000000000000 ) ) ;
#131 = CARTESIAN_POINT ( 'NONE',  ( 0.000000000000000000, 0.000000000000000000, 278.0000000000000000 ) ) ;
#132 = EDGE_LOOP ( 'NONE', ( #12, #53 ) ) ;
#133 = VECTOR ( 'NONE', #232, 1000.000000000000000 ) ;
#134 = CIRCLE ( 'NONE', #38, 1.250000000000000000 ) ;
#135 = SECURITY_CLASSIFICATION_LEVEL ( 'unclassified' ) ;
#136 = ORIENTED_EDGE ( 'NONE', *, *, #193, .F. ) ;
#137 = PERSON_AND_ORGANIZATION ( #112, #21 ) ;
#138 = ORIENTED_EDGE ( 'NONE', *, *, #325, .F. ) ;
#139 = COORDINATED_UNIVERSAL_TIME_OFFSET ( 1, 0, .AHEAD. ) ;
#140 = ORIENTED_EDGE ( 'NONE', *, *, #380, .F. ) ;
#141 = CIRCLE ( 'NONE', #268, 1.250000000000000000 ) ;
#142 = CIRCLE ( 'NONE', #358, 2.799999999999999822 ) ;
#143 = DIRECTION ( 'NONE',  ( 0.000000000000000000, 0.000000000000000000, 1.000000000000000000 ) ) ;
#144 = EDGE_LOOP ( 'NONE', ( #349, #254, #55, #227 ) ) ;
#145 = EDGE_CURVE ( 'NONE', #70, #115, #293, .T. ) ;
#146 = DIRECTION ( 'NONE',  ( 1.000000000000000000, 0.000000000000000000, -0.000000000000000000 ) ) ;
#147 = ADVANCED_FACE ( 'NONE', ( #271, #272 ), #31, .T. ) ;
#148 = LINE ( 'NONE', #235, #111 ) ;
#149 = CIRCLE ( 'NONE', #225, 2.500000000000000000 ) ;
#150 = APPROVAL_PERSON_ORGANIZATION ( #261, #56, #197 ) ;
#151 = CARTESIAN_POINT ( 'NONE',  ( 0.000000000000000000, 0.000000000000000000, 3.000000000000000000 ) ) ;
#152 = CC_DESIGN_PERSON_AND_ORGANIZATION_ASSIGNMENT ( #47, #371, ( #376 ) ) ;
#153 = CARTESIAN_POINT ( 'NONE',  ( 2.799999999999999822, 0.000000000000000000, 3.000000000000012434 ) ) ;
#154 = CYLINDRICAL_SURFACE ( 'NONE', #263, 2.500000000000000000 ) ;
#155 = APPLICATION_CONTEXT ( 'configuration controlled 3d designs of mechanical parts and assemblies' ) ;
#156 = CARTESIAN_POINT ( 'NONE',  ( 1.250000000000000000, 1.530808498934191571E-16, 278.0000000000000000 ) ) ;
#157 = CIRCLE ( 'NONE', #369, 1.250000000000000000 ) ;
#158 = CYLINDRICAL_SURFACE ( 'NONE', #251, 5.000000000000000000 ) ;
#159 = ADVANCED_FACE ( 'NONE', ( #123 ), #125, .F. ) ;
#160 = EDGE_LOOP ( 'NONE', ( #292, #166 ) ) ;
#161 = LINE ( 'NONE', #367, #378 ) ;
#162 = DIRECTION ( 'NONE',  ( -1.000000000000000000, 1.224646799147353207E-16, 0.000000000000000000 ) ) ;
#163 =( GEOMETRIC_REPRESENTATION_CONTEXT ( 3 ) GLOBAL_UNCERTAINTY_ASSIGNED_CONTEXT ( ( #241 ) ) GLOBAL_UNIT_ASSIGNED_CONTEXT ( ( #175, #342, #54 ) ) REPRESENTATION_CONTEXT ( 'NONE', 'WORKASPACE' ) );
#164 = LOCAL_TIME ( 17, 47, 23.00000000000000000, #81 ) ;
#165 = CARTESIAN_POINT ( 'NONE',  ( -1.250000000000000000, 0.000000000000000000, 278.0000000000000000 ) ) ;
#166 = ORIENTED_EDGE ( 'NONE', *, *, #216, .T. ) ;
#167 = CALENDAR_DATE ( 2022, 8, 7 ) ;
#168 = APPLICATION_CONTEXT ( 'configuration controlled 3d designs of mechanical parts and assemblies' ) ;
#169 = APPLICATION_PROTOCOL_DEFINITION ( 'international standard', 'config_control_design', 1994, #155 ) ;
#170 = ORIENTED_EDGE ( 'NONE', *, *, #216, .F. ) ;
#171 = PERSON_AND_ORGANIZATION ( #112, #21 ) ;
#172 = ORIENTED_EDGE ( 'NONE', *, *, #351, .T. ) ;
#173 = PERSON_AND_ORGANIZATION_ROLE ( 'design_owner' ) ;
#174 = EDGE_LOOP ( 'NONE', ( #48, #190, #206, #265 ) ) ;
#175 =( LENGTH_UNIT ( ) NAMED_UNIT ( * ) SI_UNIT ( .MILLI., .METRE. ) );
#176 = EDGE_LOOP ( 'NONE', ( #320, #74 ) ) ;
#177 = AXIS2_PLACEMENT_3D ( 'NONE', #267, #310, #340 ) ;
#178 = ADVANCED_FACE ( 'NONE', ( #92 ), #298, .F. ) ;
#179 = EDGE_CURVE ( 'NONE', #285, #126, #266, .T. ) ;
#180 = VERTEX_POINT ( 'NONE', #116 ) ;
#181 = DIRECTION ( 'NONE',  ( 0.000000000000000000, 0.000000000000000000, 1.000000000000000000 ) ) ;
#182 = CIRCLE ( 'NONE', #177, 5.000000000000000000 ) ;
#183 = DIRECTION ( 'NONE',  ( 1.000000000000000000, 0.000000000000000000, 0.000000000000000000 ) ) ;
#184 = DIRECTION ( 'NONE',  ( 1.000000000000000000, 0.000000000000000000, 0.000000000000000000 ) ) ;
#185 = DIRECTION ( 'NONE',  ( -0.000000000000000000, -0.000000000000000000, -1.000000000000000000 ) ) ;
#186 = EDGE_CURVE ( 'NONE', #113, #115, #148, .T. ) ;
#187 = FACE_OUTER_BOUND ( 'NONE', #176, .T. ) ;
#188 = AXIS2_PLACEMENT_3D ( 'NONE', #3, #244, #215 ) ;
#189 = APPROVAL_PERSON_ORGANIZATION ( #199, #280, #203 ) ;
#190 = ORIENTED_EDGE ( 'NONE', *, *, #145, .F. ) ;
#191 = CARTESIAN_POINT ( 'NONE',  ( 0.000000000000000000, 0.000000000000000000, 3.000000000000000000 ) ) ;
#192 = CARTESIAN_POINT ( 'NONE',  ( 0.000000000000000000, 0.000000000000000000, 3.300000000000025135 ) ) ;
#193 = EDGE_CURVE ( 'NONE', #285, #25, #182, .T. ) ;
#194 = DIRECTION ( 'NONE',  ( 1.000000000000000000, 0.000000000000000000, 0.000000000000000000 ) ) ;
#195 = CIRCLE ( 'NONE', #77, 2.500000000000000000 ) ;
#196 = CC_DESIGN_SECURITY_CLASSIFICATION ( #300, ( #376 ) ) ;
#197 = APPROVAL_ROLE ( '' ) ;
#198 = DESIGN_CONTEXT ( 'detailed design', #168, 'design' ) ;
#199 = PERSON_AND_ORGANIZATION ( #112, #21 ) ;
#200 = ORIENTED_EDGE ( 'NONE', *, *, #72, .F. ) ;
#201 = PERSON_AND_ORGANIZATION ( #112, #21 ) ;
#202 = VERTEX_POINT ( 'NONE', #277 ) ;
#203 = APPROVAL_ROLE ( '' ) ;
#204 = CARTESIAN_POINT ( 'NONE',  ( 0.000000000000000000, 0.000000000000000000, 278.0000000000000000 ) ) ;
#205 = COORDINATED_UNIVERSAL_TIME_OFFSET ( 1, 0, .AHEAD. ) ;
#206 = ORIENTED_EDGE ( 'NONE', *, *, #380, .T. ) ;
#207 = ORIENTED_EDGE ( 'NONE', *, *, #145, .T. ) ;
#208 = DIRECTION ( 'NONE',  ( -0.000000000000000000, -0.000000000000000000, -1.000000000000000000 ) ) ;
#209 = CYLINDRICAL_SURFACE ( 'NONE', #242, 1.250000000000000000 ) ;
#210 = MANIFOLD_SOLID_BREP ( 'Odebrat vysunutím3', #336 ) ;
#211 = FACE_OUTER_BOUND ( 'NONE', #160, .T. ) ;
#212 = AXIS2_PLACEMENT_3D ( 'NONE', #130, #68, #305 ) ;
#213 = CC_DESIGN_APPROVAL ( #56, ( #376 ) ) ;
#214 = CARTESIAN_POINT ( 'NONE',  ( 0.000000000000000000, 0.000000000000000000, 278.0000000000000000 ) ) ;
#215 = DIRECTION ( 'NONE',  ( 1.000000000000000000, 0.000000000000000000, 0.000000000000000000 ) ) ;
#216 = EDGE_CURVE ( 'NONE', #25, #285, #33, .T. ) ;
#217 = DIRECTION ( 'NONE',  ( 0.000000000000000000, 0.000000000000000000, 1.000000000000000000 ) ) ;
#218 = ORIENTED_EDGE ( 'NONE', *, *, #281, .T. ) ;
#219 = ADVANCED_FACE ( 'NONE', ( #93 ), #250, .F. ) ;
#220 = DIRECTION ( 'NONE',  ( 0.000000000000000000, 0.000000000000000000, 1.000000000000000000 ) ) ;
#221 = EDGE_LOOP ( 'NONE', ( #317, #363 ) ) ;
#222 = DIRECTION ( 'NONE',  ( 1.000000000000000000, 0.000000000000000000, 0.000000000000000000 ) ) ;
#223 = PRODUCT_DEFINITION_SHAPE ( 'NONE', 'NONE',  #260 ) ;
#224 = CARTESIAN_POINT ( 'NONE',  ( -1.250000000000000000, 0.000000000000000000, 0.000000000000000000 ) ) ;
#225 = AXIS2_PLACEMENT_3D ( 'NONE', #62, #181, #184 ) ;
#226 = ORIENTED_EDGE ( 'NONE', *, *, #14, .F. ) ;
#227 = ORIENTED_EDGE ( 'NONE', *, *, #72, .T. ) ;
#228 = ADVANCED_FACE ( 'NONE', ( #97, #187 ), #279, .F. ) ;
#229 = MECHANICAL_CONTEXT ( 'NONE', #155, 'mechanical' ) ;
#230 = VERTEX_POINT ( 'NONE', #224 ) ;
#231 = DATE_TIME_ROLE ( 'classification_date' ) ;
#232 = DIRECTION ( 'NONE',  ( 0.000000000000000000, 0.000000000000000000, -1.000000000000000000 ) ) ;
#233 = EDGE_LOOP ( 'NONE', ( #218, #282, #257, #138 ) ) ;
#234 = CARTESIAN_POINT ( 'NONE',  ( 0.000000000000000000, 0.000000000000000000, 0.000000000000000000 ) ) ;
#235 = CARTESIAN_POINT ( 'NONE',  ( -2.500000000000000000, 0.000000000000000000, 278.0000000000000000 ) ) ;
#236 = CIRCLE ( 'NONE', #330, 1.250000000000000000 ) ;
#237 = APPROVAL_PERSON_ORGANIZATION ( #375, #26, #118 ) ;
#238 = CALENDAR_DATE ( 2022, 8, 7 ) ;
#239 = CARTESIAN_POINT ( 'NONE',  ( 0.000000000000000000, 0.000000000000000000, 278.0000000000000000 ) ) ;
#240 = FACE_BOUND ( 'NONE', #24, .T. ) ;
#241 = UNCERTAINTY_MEASURE_WITH_UNIT (LENGTH_MEASURE( 1.000000000000000082E-05 ), #175, 'distance_accuracy_value', 'NONE');
#242 = AXIS2_PLACEMENT_3D ( 'NONE', #214, #359, #328 ) ;
#243 = AXIS2_PLACEMENT_3D ( 'NONE', #256, #143, #18 ) ;
#244 = DIRECTION ( 'NONE',  ( 0.000000000000000000, 0.000000000000000000, 1.000000000000000000 ) ) ;
#245 = EDGE_CURVE ( 'NONE', #115, #313, #60, .T. ) ;
#246 = CARTESIAN_POINT ( 'NONE',  ( 0.000000000000000000, 0.000000000000000000, 3.000000000000000000 ) ) ;
#247 = EDGE_LOOP ( 'NONE', ( #290, #262, #207, #96 ) ) ;
#248 = CARTESIAN_POINT ( 'NONE',  ( -2.799999999999999822, 3.429011037612589276E-16, 3.000000000000012434 ) ) ;
#249 = CARTESIAN_POINT ( 'NONE',  ( 0.000000000000000000, 0.000000000000000000, 0.000000000000000000 ) ) ;
#250 = TOROIDAL_SURFACE ( 'NONE', #2, 2.799999999999999822, 0.2999999999999999889 ) ;
#251 = AXIS2_PLACEMENT_3D ( 'NONE', #191, #39, #11 ) ;
#252 = DIRECTION ( 'NONE',  ( 1.000000000000000000, 0.000000000000000000, 0.000000000000000000 ) ) ;
#253 = DIRECTION ( 'NONE',  ( -0.000000000000000000, -0.000000000000000000, -1.000000000000000000 ) ) ;
#254 = ORIENTED_EDGE ( 'NONE', *, *, #255, .F. ) ;
#255 = EDGE_CURVE ( 'NONE', #113, #19, #284, .T. ) ;
#256 = CARTESIAN_POINT ( 'NONE',  ( 0.000000000000000000, 0.000000000000000000, 0.000000000000000000 ) ) ;
#257 = ORIENTED_EDGE ( 'NONE', *, *, #273, .T. ) ;
#258 = APPROVAL_DATE_TIME ( #289, #280 ) ;
#259 = ORIENTED_EDGE ( 'NONE', *, *, #355, .T. ) ;
#260 = PRODUCT_DEFINITION ( 'NEZNÁMÝ', '', #376, #198 ) ;
#261 = PERSON_AND_ORGANIZATION ( #112, #21 ) ;
#262 = ORIENTED_EDGE ( 'NONE', *, *, #329, .T. ) ;
#263 = AXIS2_PLACEMENT_3D ( 'NONE', #269, #294, #66 ) ;
#264 = APPROVAL_STATUS ( 'not_yet_approved' ) ;
#265 = ORIENTED_EDGE ( 'NONE', *, *, #355, .F. ) ;
#266 = LINE ( 'NONE', #88, #322 ) ;
#267 = CARTESIAN_POINT ( 'NONE',  ( 0.000000000000000000, 0.000000000000000000, 3.000000000000000000 ) ) ;
#268 = AXIS2_PLACEMENT_3D ( 'NONE', #204, #61, #315 ) ;
#269 = CARTESIAN_POINT ( 'NONE',  ( 0.000000000000000000, 0.000000000000000000, 278.0000000000000000 ) ) ;
#270 = APPROVAL_DATE_TIME ( #297, #26 ) ;
#271 = FACE_BOUND ( 'NONE', #101, .T. ) ;
#272 = FACE_OUTER_BOUND ( 'NONE', #132, .T. ) ;
#273 = EDGE_CURVE ( 'NONE', #180, #230, #157, .T. ) ;
#274 = VECTOR ( 'NONE', #306, 1000.000000000000000 ) ;
#275 = CARTESIAN_POINT ( 'NONE',  ( 2.799999999999999822, 0.000000000000000000, 3.300000000000025135 ) ) ;
#276 = DIRECTION ( 'NONE',  ( 0.000000000000000000, 0.000000000000000000, 1.000000000000000000 ) ) ;
#277 = CARTESIAN_POINT ( 'NONE',  ( 5.000000000000000000, 6.123233995736766282E-16, 0.000000000000000000 ) ) ;
#278 = AXIS2_PLACEMENT_3D ( 'NONE', #32, #333, #63 ) ;
#279 = PLANE ( 'NONE',  #212 ) ;
#280 = APPROVAL ( #286, 'NEURÈENÝ' ) ;
#281 = EDGE_CURVE ( 'NONE', #94, #374, #134, .T. ) ;
#282 = ORIENTED_EDGE ( 'NONE', *, *, #14, .T. ) ;
#283 = DIRECTION ( 'NONE',  ( 0.000000000000000000, 0.000000000000000000, -1.000000000000000000 ) ) ;
#284 = CIRCLE ( 'NONE', #51, 2.500000000000000000 ) ;
#285 = VERTEX_POINT ( 'NONE', #69 ) ;
#286 = APPROVAL_STATUS ( 'not_yet_approved' ) ;
#287 = EDGE_LOOP ( 'NONE', ( #200, #83, #82, #140 ) ) ;
#288 = CC_DESIGN_PERSON_AND_ORGANIZATION_ASSIGNMENT ( #171, #75, ( #376 ) ) ;
#289 = DATE_AND_TIME ( #167, #164 ) ;
#290 = ORIENTED_EDGE ( 'NONE', *, *, #23, .F. ) ;
#291 = APPROVAL_DATE_TIME ( #20, #56 ) ;
#292 = ORIENTED_EDGE ( 'NONE', *, *, #193, .T. ) ;
#293 = CIRCLE ( 'NONE', #346, 2.500000000000000000 ) ;
#294 = DIRECTION ( 'NONE',  ( -0.000000000000000000, -0.000000000000000000, -1.000000000000000000 ) ) ;
#295 = PRODUCT_RELATED_PRODUCT_CATEGORY ( 'detail', '', ( #10 ) ) ;
#296 = CARTESIAN_POINT ( 'NONE',  ( -5.000000000000000000, 0.000000000000000000, 0.000000000000000000 ) ) ;
#297 = DATE_AND_TIME ( #238, #129 ) ;
#298 = CYLINDRICAL_SURFACE ( 'NONE', #278, 1.250000000000000000 ) ;
#299 = AXIS2_PLACEMENT_3D ( 'NONE', #4, #124, #146 ) ;
#300 = SECURITY_CLASSIFICATION ( '', '', #135 ) ;
#301 = DIRECTION ( 'NONE',  ( -0.000000000000000000, -0.000000000000000000, -1.000000000000000000 ) ) ;
#302 = ADVANCED_FACE ( 'NONE', ( #98 ), #158, .T. ) ;
#303 = DIRECTION ( 'NONE',  ( 1.000000000000000000, 0.000000000000000000, 0.000000000000000000 ) ) ;
#304 = LOCAL_TIME ( 17, 47, 23.00000000000000000, #52 ) ;
#305 = DIRECTION ( 'NONE',  ( 1.000000000000000000, 0.000000000000000000, -0.000000000000000000 ) ) ;
#306 = DIRECTION ( 'NONE',  ( 0.000000000000000000, 0.000000000000000000, -1.000000000000000000 ) ) ;
#307 = ORIENTED_EDGE ( 'NONE', *, *, #179, .T. ) ;
#308 = ADVANCED_BREP_SHAPE_REPRESENTATION ( 'c143', ( #210, #243 ), #163 ) ;
#309 = AXIS2_PLACEMENT_3D ( 'NONE', #234, #321, #377 ) ;
#310 = DIRECTION ( 'NONE',  ( 0.000000000000000000, 0.000000000000000000, 1.000000000000000000 ) ) ;
#311 = AXIS2_PLACEMENT_3D ( 'NONE', #368, #36, #100 ) ;
#312 = CALENDAR_DATE ( 2022, 8, 7 ) ;
#313 = VERTEX_POINT ( 'NONE', #248 ) ;
#314 = CALENDAR_DATE ( 2022, 8, 7 ) ;
#315 = DIRECTION ( 'NONE',  ( 1.000000000000000000, 0.000000000000000000, 0.000000000000000000 ) ) ;
#316 = APPLICATION_PROTOCOL_DEFINITION ( 'international standard', 'config_control_design', 1994, #168 ) ;
#317 = ORIENTED_EDGE ( 'NONE', *, *, #42, .F. ) ;
#318 = DIRECTION ( 'NONE',  ( -0.000000000000000000, -0.000000000000000000, -1.000000000000000000 ) ) ;
#319 = DATE_AND_TIME ( #314, #85 ) ;
#320 = ORIENTED_EDGE ( 'NONE', *, *, #366, .F. ) ;
#321 = DIRECTION ( 'NONE',  ( 0.000000000000000000, 0.000000000000000000, 1.000000000000000000 ) ) ;
#322 = VECTOR ( 'NONE', #381, 1000.000000000000000 ) ;
#323 = AXIS2_PLACEMENT_3D ( 'NONE', #365, #339, #194 ) ;
#324 = EDGE_CURVE ( 'NONE', #46, #313, #142, .T. ) ;
#325 = EDGE_CURVE ( 'NONE', #94, #230, #17, .T. ) ;
#326 = DIRECTION ( 'NONE',  ( 0.000000000000000000, 0.000000000000000000, 1.000000000000000000 ) ) ;
#327 = FACE_OUTER_BOUND ( 'NONE', #29, .T. ) ;
#328 = DIRECTION ( 'NONE',  ( -1.000000000000000000, 0.000000000000000000, 0.000000000000000000 ) ) ;
#329 = EDGE_CURVE ( 'NONE', #19, #70, #41, .T. ) ;
#330 = AXIS2_PLACEMENT_3D ( 'NONE', #345, #318, #50 ) ;
#331 = CIRCLE ( 'NONE', #353, 0.2999999999999999334 ) ;
#332 = DIRECTION ( 'NONE',  ( -1.000000000000000000, 0.000000000000000000, 0.000000000000000000 ) ) ;
#333 = DIRECTION ( 'NONE',  ( 0.000000000000000000, 0.000000000000000000, -1.000000000000000000 ) ) ;
#334 = DIRECTION ( 'NONE',  ( 0.000000000000000000, 0.000000000000000000, 1.000000000000000000 ) ) ;
#335 = ORIENTED_EDGE ( 'NONE', *, *, #179, .F. ) ;
#336 = CLOSED_SHELL ( 'NONE', ( #178, #219, #79, #302, #102, #104, #228, #122, #147, #159, #117 ) ) ;
#337 = CC_DESIGN_PERSON_AND_ORGANIZATION_ASSIGNMENT ( #107, #344, ( #300 ) ) ;
#338 = ORIENTED_EDGE ( 'NONE', *, *, #37, .F. ) ;
#339 = DIRECTION ( 'NONE',  ( -0.000000000000000000, -0.000000000000000000, -1.000000000000000000 ) ) ;
#340 = DIRECTION ( 'NONE',  ( 1.000000000000000000, 0.000000000000000000, 0.000000000000000000 ) ) ;
#341 = EDGE_LOOP ( 'NONE', ( #226, #99, #40, #76 ) ) ;
#342 =( NAMED_UNIT ( * ) PLANE_ANGLE_UNIT ( ) SI_UNIT ( $, .RADIAN. ) );
#343 = ORIENTED_EDGE ( 'NONE', *, *, #9, .T. ) ;
#344 = PERSON_AND_ORGANIZATION_ROLE ( 'classification_officer' ) ;
#345 = CARTESIAN_POINT ( 'NONE',  ( 0.000000000000000000, 0.000000000000000000, 0.000000000000000000 ) ) ;
#346 = AXIS2_PLACEMENT_3D ( 'NONE', #30, #35, #183 ) ;
#347 = DIRECTION ( 'NONE',  ( 0.000000000000000000, 0.000000000000000000, 1.000000000000000000 ) ) ;
#348 = CIRCLE ( 'NONE', #311, 5.000000000000000000 ) ;
#349 = ORIENTED_EDGE ( 'NONE', *, *, #329, .F. ) ;
#350 = CARTESIAN_POINT ( 'NONE',  ( 2.500000000000000000, 3.061616997868383141E-16, 278.0000000000000000 ) ) ;
#351 = EDGE_CURVE ( 'NONE', #25, #202, #161, .T. ) ;
#352 = CYLINDRICAL_SURFACE ( 'NONE', #28, 2.500000000000000000 ) ;
#353 = AXIS2_PLACEMENT_3D ( 'NONE', #275, #105, #283 ) ;
#354 = FACE_OUTER_BOUND ( 'NONE', #341, .T. ) ;
#355 = EDGE_CURVE ( 'NONE', #313, #46, #15, .T. ) ;
#356 = CARTESIAN_POINT ( 'NONE',  ( -1.250000000000000000, 0.000000000000000000, 278.0000000000000000 ) ) ;
#357 = PLANE ( 'NONE',  #119 ) ;
#358 = AXIS2_PLACEMENT_3D ( 'NONE', #16, #362, #95 ) ;
#359 = DIRECTION ( 'NONE',  ( 0.000000000000000000, 0.000000000000000000, -1.000000000000000000 ) ) ;
#360 = DIRECTION ( 'NONE',  ( 1.000000000000000000, 0.000000000000000000, 0.000000000000000000 ) ) ;
#361 = CC_DESIGN_DATE_AND_TIME_ASSIGNMENT ( #27, #231, ( #300 ) ) ;
#362 = DIRECTION ( 'NONE',  ( -0.000000000000000000, -0.000000000000000000, -1.000000000000000000 ) ) ;
#363 = ORIENTED_EDGE ( 'NONE', *, *, #273, .F. ) ;
#364 = AXIS2_PLACEMENT_3D ( 'NONE', #151, #86, #90 ) ;
#365 = CARTESIAN_POINT ( 'NONE',  ( 0.000000000000000000, 0.000000000000000000, 3.000000000000000000 ) ) ;
#366 = EDGE_CURVE ( 'NONE', #126, #202, #348, .T. ) ;
#367 = CARTESIAN_POINT ( 'NONE',  ( 5.000000000000000000, 6.123233995736766282E-16, 3.000000000000000000 ) ) ;
#368 = CARTESIAN_POINT ( 'NONE',  ( 0.000000000000000000, 0.000000000000000000, 0.000000000000000000 ) ) ;
#369 = AXIS2_PLACEMENT_3D ( 'NONE', #249, #185, #252 ) ;
#370 = CARTESIAN_POINT ( 'NONE',  ( 0.000000000000000000, 0.000000000000000000, 278.0000000000000000 ) ) ;
#371 = PERSON_AND_ORGANIZATION_ROLE ( 'design_supplier' ) ;
#372 = ORIENTED_EDGE ( 'NONE', *, *, #281, .F. ) ;
#373 = DATE_TIME_ROLE ( 'creation_date' ) ;
#374 = VERTEX_POINT ( 'NONE', #156 ) ;
#375 = PERSON_AND_ORGANIZATION ( #112, #21 ) ;
#376 = PRODUCT_DEFINITION_FORMATION_WITH_SPECIFIED_SOURCE ( 'LIBOVOLNÝ', '', #10, .NOT_KNOWN. ) ;
#377 = DIRECTION ( 'NONE',  ( 1.000000000000000000, 0.000000000000000000, 0.000000000000000000 ) ) ;
#378 = VECTOR ( 'NONE', #13, 1000.000000000000000 ) ;
#379 = ORIENTED_EDGE ( 'NONE', *, *, #324, .T. ) ;
#380 = EDGE_CURVE ( 'NONE', #70, #46, #331, .T. ) ;
#381 = DIRECTION ( 'NONE',  ( -0.000000000000000000, -0.000000000000000000, -1.000000000000000000 ) ) ;
ENDSEC;
END-ISO-10303-21;
