ISO-10303-21;
HEADER;
FILE_DESCRIPTION (( 'STEP AP203' ),
    '1' );
FILE_NAME ('2ebf.STEP',
    '2022-07-08T14:29:44',
    ( '' ),
    ( '' ),
    'SwSTEP 2.0',
    'SolidWorks 2019',
    '' );
FILE_SCHEMA (( 'CONFIG_CONTROL_DESIGN' ));
ENDSEC;

DATA;
#1 = LOCAL_TIME ( 16, 29, 44.00000000000000000, #18 ) ;
#2 = APPROVAL_STATUS ( 'not_yet_approved' ) ;
#3 = VERTEX_POINT ( 'NONE', #31 ) ;
#4 = EDGE_CURVE ( 'NONE', #5, #363, #373, .T. ) ;
#5 = VERTEX_POINT ( 'NONE', #155 ) ;
#6 = AXIS2_PLACEMENT_3D ( 'NONE', #219, #186, #16 ) ;
#7 = DIRECTION ( 'NONE',  ( 0.000000000000000000, 0.000000000000000000, -1.000000000000000000 ) ) ;
#8 = EDGE_CURVE ( 'NONE', #286, #27, #215, .T. ) ;
#9 = CARTESIAN_POINT ( 'NONE',  ( -6.700000000000001066, 8.205133554287267548E-16, 7.699999999999985079 ) ) ;
#10 = ORIENTED_EDGE ( 'NONE', *, *, #137, .F. ) ;
#11 = DIRECTION ( 'NONE',  ( -1.000000000000000000, 1.224646799147353454E-16, 0.000000000000000000 ) ) ;
#12 = DIRECTION ( 'NONE',  ( -1.000000000000000000, 0.000000000000000000, 0.000000000000000000 ) ) ;
#13 = APPROVAL ( #51, 'NEURÈENÝ' ) ;
#14 = AXIS2_PLACEMENT_3D ( 'NONE', #181, #7, #129 ) ;
#15 = CC_DESIGN_APPROVAL ( #378, ( #53 ) ) ;
#16 = DIRECTION ( 'NONE',  ( 1.000000000000000000, 0.000000000000000000, 0.000000000000000000 ) ) ;
#17 = DIRECTION ( 'NONE',  ( 1.000000000000000000, 0.000000000000000000, 0.000000000000000000 ) ) ;
#18 = COORDINATED_UNIVERSAL_TIME_OFFSET ( 1, 0, .AHEAD. ) ;
#19 = DIRECTION ( 'NONE',  ( 1.000000000000000000, 0.000000000000000000, 0.000000000000000000 ) ) ;
#20 = CLOSED_SHELL ( 'NONE', ( #72, #205, #265, #123, #141, #298, #79, #188, #167, #281, #250 ) ) ;
#21 = CIRCLE ( 'NONE', #320, 10.00000000000000000 ) ;
#22 = APPLICATION_PROTOCOL_DEFINITION ( 'international standard', 'config_control_design', 1994, #324 ) ;
#23 = CALENDAR_DATE ( 2022, 8, 7 ) ;
#24 = DIRECTION ( 'NONE',  ( 0.000000000000000000, 0.000000000000000000, -1.000000000000000000 ) ) ;
#25 = CALENDAR_DATE ( 2022, 8, 7 ) ;
#26 = EDGE_CURVE ( 'NONE', #319, #180, #177, .T. ) ;
#27 = VERTEX_POINT ( 'NONE', #156 ) ;
#28 = AXIS2_PLACEMENT_3D ( 'NONE', #154, #269, #32 ) ;
#29 = CC_DESIGN_APPROVAL ( #13, ( #345 ) ) ;
#30 = ORIENTED_EDGE ( 'NONE', *, *, #126, .T. ) ;
#31 = CARTESIAN_POINT ( 'NONE',  ( 10.00000000000000000, 1.224646799147353256E-15, 7.000000000000000000 ) ) ;
#32 = DIRECTION ( 'NONE',  ( 1.000000000000000000, 0.000000000000000000, 0.000000000000000000 ) ) ;
#33 = PRODUCT ( '2ebf', '2ebf', '', ( #116 ) ) ;
#34 = EDGE_CURVE ( 'NONE', #3, #93, #249, .T. ) ;
#35 = AXIS2_PLACEMENT_3D ( 'NONE', #42, #162, #274 ) ;
#36 = ORIENTED_EDGE ( 'NONE', *, *, #224, .T. ) ;
#37 = CARTESIAN_POINT ( 'NONE',  ( 0.000000000000000000, 0.000000000000000000, 0.000000000000000000 ) ) ;
#38 = AXIS2_PLACEMENT_3D ( 'NONE', #96, #361, #131 ) ;
#39 = CARTESIAN_POINT ( 'NONE',  ( 0.000000000000000000, 0.000000000000000000, 507.0000000000000000 ) ) ;
#40 = CIRCLE ( 'NONE', #272, 6.000000000000000888 ) ;
#41 = CARTESIAN_POINT ( 'NONE',  ( 0.000000000000000000, 0.000000000000000000, 507.0000000000000000 ) ) ;
#42 = CARTESIAN_POINT ( 'NONE',  ( 0.000000000000000000, 0.000000000000000000, 0.000000000000000000 ) ) ;
#43 = DIRECTION ( 'NONE',  ( 0.000000000000000000, 0.000000000000000000, 1.000000000000000000 ) ) ;
#44 = DIRECTION ( 'NONE',  ( 0.000000000000000000, 0.000000000000000000, 1.000000000000000000 ) ) ;
#45 = ORIENTED_EDGE ( 'NONE', *, *, #108, .F. ) ;
#46 = CARTESIAN_POINT ( 'NONE',  ( 0.000000000000000000, 0.000000000000000000, 0.000000000000000000 ) ) ;
#47 = EDGE_CURVE ( 'NONE', #334, #231, #359, .T. ) ;
#48 = CIRCLE ( 'NONE', #283, 4.250000000000000000 ) ;
#49 = DIRECTION ( 'NONE',  ( 1.000000000000000000, 0.000000000000000000, -0.000000000000000000 ) ) ;
#50 = CARTESIAN_POINT ( 'NONE',  ( 0.000000000000000000, 0.000000000000000000, 7.000000000000000000 ) ) ;
#51 = APPROVAL_STATUS ( 'not_yet_approved' ) ;
#52 = ORIENTED_EDGE ( 'NONE', *, *, #98, .F. ) ;
#53 = PRODUCT_DEFINITION ( 'NEZNÁMÝ', '', #166, #360 ) ;
#54 = DATE_AND_TIME ( #201, #1 ) ;
#55 = ORIENTED_EDGE ( 'NONE', *, *, #47, .T. ) ;
#56 = AXIS2_PLACEMENT_3D ( 'NONE', #46, #165, #346 ) ;
#57 = CALENDAR_DATE ( 2022, 8, 7 ) ;
#58 = CARTESIAN_POINT ( 'NONE',  ( 0.000000000000000000, 0.000000000000000000, 7.699999999999985079 ) ) ;
#59 = EDGE_CURVE ( 'NONE', #319, #325, #209, .T. ) ;
#60 = CYLINDRICAL_SURFACE ( 'NONE', #303, 6.000000000000000888 ) ;
#61 = EDGE_LOOP ( 'NONE', ( #149, #86, #36, #241 ) ) ;
#62 = APPROVAL_DATE_TIME ( #119, #238 ) ;
#63 = ORIENTED_EDGE ( 'NONE', *, *, #108, .T. ) ;
#64 =( GEOMETRIC_REPRESENTATION_CONTEXT ( 3 ) GLOBAL_UNCERTAINTY_ASSIGNED_CONTEXT ( ( #105 ) ) GLOBAL_UNIT_ASSIGNED_CONTEXT ( ( #163, #340, #307 ) ) REPRESENTATION_CONTEXT ( 'NONE', 'WORKASPACE' ) );
#65 = ORIENTED_EDGE ( 'NONE', *, *, #34, .F. ) ;
#66 = CYLINDRICAL_SURFACE ( 'NONE', #14, 4.250000000000000000 ) ;
#67 = CC_DESIGN_PERSON_AND_ORGANIZATION_ASSIGNMENT ( #84, #124, ( #33 ) ) ;
#68 = CARTESIAN_POINT ( 'NONE',  ( 6.000000000000000888, 7.347880794884120722E-16, 7.699999999999985079 ) ) ;
#69 = CIRCLE ( 'NONE', #75, 10.00000000000000000 ) ;
#70 = EDGE_LOOP ( 'NONE', ( #52, #289, #118, #127 ) ) ;
#71 = MANIFOLD_SOLID_BREP ( 'Odebrat vysunutím3', #20 ) ;
#72 = ADVANCED_FACE ( 'NONE', ( #268 ), #66, .F. ) ;
#73 = ORIENTED_EDGE ( 'NONE', *, *, #8, .T. ) ;
#74 = FACE_OUTER_BOUND ( 'NONE', #187, .T. ) ;
#75 = AXIS2_PLACEMENT_3D ( 'NONE', #50, #44, #85 ) ;
#76 = CYLINDRICAL_SURFACE ( 'NONE', #128, 10.00000000000000000 ) ;
#77 = DIRECTION ( 'NONE',  ( -0.000000000000000000, -0.000000000000000000, -1.000000000000000000 ) ) ;
#78 = FACE_OUTER_BOUND ( 'NONE', #357, .T. ) ;
#79 = ADVANCED_FACE ( 'NONE', ( #299, #234 ), #210, .F. ) ;
#80 = CARTESIAN_POINT ( 'NONE',  ( 6.000000000000000888, 7.347880794884120722E-16, 507.0000000000000000 ) ) ;
#81 = CARTESIAN_POINT ( 'NONE',  ( 0.000000000000000000, 0.000000000000000000, 0.000000000000000000 ) ) ;
#82 = DIRECTION ( 'NONE',  ( 1.000000000000000000, 0.000000000000000000, -0.000000000000000000 ) ) ;
#83 = AXIS2_PLACEMENT_3D ( 'NONE', #220, #248, #138 ) ;
#84 = PERSON_AND_ORGANIZATION ( #358, #194 ) ;
#85 = DIRECTION ( 'NONE',  ( 1.000000000000000000, 0.000000000000000000, 0.000000000000000000 ) ) ;
#86 = ORIENTED_EDGE ( 'NONE', *, *, #173, .F. ) ;
#87 = APPROVAL_STATUS ( 'not_yet_approved' ) ;
#88 = VERTEX_POINT ( 'NONE', #68 ) ;
#89 = AXIS2_PLACEMENT_3D ( 'NONE', #41, #104, #160 ) ;
#90 = APPROVAL_DATE_TIME ( #350, #378 ) ;
#91 = FACE_OUTER_BOUND ( 'NONE', #260, .T. ) ;
#92 = ORIENTED_EDGE ( 'NONE', *, *, #98, .T. ) ;
#93 = VERTEX_POINT ( 'NONE', #270 ) ;
#94 = ORIENTED_EDGE ( 'NONE', *, *, #368, .F. ) ;
#95 = CIRCLE ( 'NONE', #366, 4.250000000000000000 ) ;
#96 = CARTESIAN_POINT ( 'NONE',  ( 0.000000000000000000, 0.000000000000000000, 507.0000000000000000 ) ) ;
#97 = EDGE_LOOP ( 'NONE', ( #293, #73, #30, #151 ) ) ;
#98 = EDGE_CURVE ( 'NONE', #325, #351, #228, .T. ) ;
#99 = VECTOR ( 'NONE', #318, 1000.000000000000000 ) ;
#100 = DIRECTION ( 'NONE',  ( -0.000000000000000000, -0.000000000000000000, -1.000000000000000000 ) ) ;
#101 = CARTESIAN_POINT ( 'NONE',  ( 0.000000000000000000, 0.000000000000000000, 7.699999999999985079 ) ) ;
#102 = CARTESIAN_POINT ( 'NONE',  ( 0.000000000000000000, 0.000000000000000000, 0.000000000000000000 ) ) ;
#103 = CARTESIAN_POINT ( 'NONE',  ( -6.000000000000000888, 0.000000000000000000, 507.0000000000000000 ) ) ;
#104 = DIRECTION ( 'NONE',  ( -0.000000000000000000, -0.000000000000000000, -1.000000000000000000 ) ) ;
#105 = UNCERTAINTY_MEASURE_WITH_UNIT (LENGTH_MEASURE( 1.000000000000000082E-05 ), #163, 'distance_accuracy_value', 'NONE');
#106 = VECTOR ( 'NONE', #100, 1000.000000000000000 ) ;
#107 = FACE_BOUND ( 'NONE', #355, .T. ) ;
#108 = EDGE_CURVE ( 'NONE', #306, #351, #192, .T. ) ;
#109 = CARTESIAN_POINT ( 'NONE',  ( -6.700000000000001066, 8.205133554287267548E-16, 6.999999999999992006 ) ) ;
#110 = DIRECTION ( 'NONE',  ( 1.224646799147353207E-16, 1.000000000000000000, -0.000000000000000000 ) ) ;
#111 = CARTESIAN_POINT ( 'NONE',  ( -6.000000000000000888, 0.000000000000000000, 7.699999999999985079 ) ) ;
#112 = CC_DESIGN_DATE_AND_TIME_ASSIGNMENT ( #54, #199, ( #345 ) ) ;
#113 = PERSON_AND_ORGANIZATION ( #358, #194 ) ;
#114 = FACE_OUTER_BOUND ( 'NONE', #147, .T. ) ;
#115 = APPROVAL_PERSON_ORGANIZATION ( #175, #13, #144 ) ;
#116 = MECHANICAL_CONTEXT ( 'NONE', #130, 'mechanical' ) ;
#117 = CARTESIAN_POINT ( 'NONE',  ( 0.000000000000000000, 0.000000000000000000, 507.0000000000000000 ) ) ;
#118 = ORIENTED_EDGE ( 'NONE', *, *, #211, .T. ) ;
#119 = DATE_AND_TIME ( #247, #221 ) ;
#120 = CARTESIAN_POINT ( 'NONE',  ( -10.00000000000000000, 0.000000000000000000, 7.000000000000000000 ) ) ;
#121 = FACE_OUTER_BOUND ( 'NONE', #143, .T. ) ;
#122 = VECTOR ( 'NONE', #336, 1000.000000000000000 ) ;
#123 = ADVANCED_FACE ( 'NONE', ( #305 ), #76, .T. ) ;
#124 = PERSON_AND_ORGANIZATION_ROLE ( 'design_owner' ) ;
#125 = ORIENTED_EDGE ( 'NONE', *, *, #276, .F. ) ;
#126 = EDGE_CURVE ( 'NONE', #27, #231, #251, .T. ) ;
#127 = ORIENTED_EDGE ( 'NONE', *, *, #161, .F. ) ;
#128 = AXIS2_PLACEMENT_3D ( 'NONE', #246, #190, #12 ) ;
#129 = DIRECTION ( 'NONE',  ( -1.000000000000000000, 0.000000000000000000, 0.000000000000000000 ) ) ;
#130 = APPLICATION_CONTEXT ( 'configuration controlled 3d designs of mechanical parts and assemblies' ) ;
#131 = DIRECTION ( 'NONE',  ( 1.000000000000000000, 0.000000000000000000, 0.000000000000000000 ) ) ;
#132 = EDGE_CURVE ( 'NONE', #180, #88, #142, .T. ) ;
#133 = DIRECTION ( 'NONE',  ( 1.000000000000000000, 0.000000000000000000, -0.000000000000000000 ) ) ;
#134 = CIRCLE ( 'NONE', #179, 6.000000000000000888 ) ;
#135 = ORIENTED_EDGE ( 'NONE', *, *, #211, .F. ) ;
#136 = DIRECTION ( 'NONE',  ( 1.000000000000000000, 0.000000000000000000, 0.000000000000000000 ) ) ;
#137 = EDGE_CURVE ( 'NONE', #334, #286, #48, .T. ) ;
#138 = DIRECTION ( 'NONE',  ( 1.000000000000000000, 0.000000000000000000, 0.000000000000000000 ) ) ;
#139 = AXIS2_PLACEMENT_3D ( 'NONE', #304, #365, #245 ) ;
#140 = CARTESIAN_POINT ( 'NONE',  ( 0.000000000000000000, 0.000000000000000000, 7.000000000000000000 ) ) ;
#141 = ADVANCED_FACE ( 'NONE', ( #218 ), #311, .T. ) ;
#142 = LINE ( 'NONE', #80, #374 ) ;
#143 = EDGE_LOOP ( 'NONE', ( #174, #294, #379, #242 ) ) ;
#144 = APPROVAL_ROLE ( '' ) ;
#145 = CARTESIAN_POINT ( 'NONE',  ( 6.700000000000001066, 0.000000000000000000, 7.699999999999985079 ) ) ;
#146 = COORDINATED_UNIVERSAL_TIME_OFFSET ( 1, 0, .AHEAD. ) ;
#147 = EDGE_LOOP ( 'NONE', ( #321, #256, #300, #381 ) ) ;
#148 = CYLINDRICAL_SURFACE ( 'NONE', #171, 4.250000000000000000 ) ;
#149 = ORIENTED_EDGE ( 'NONE', *, *, #342, .F. ) ;
#150 = SHAPE_DEFINITION_REPRESENTATION ( #227, #239 ) ;
#151 = ORIENTED_EDGE ( 'NONE', *, *, #47, .F. ) ;
#152 = CIRCLE ( 'NONE', #277, 4.250000000000000000 ) ;
#153 = ORIENTED_EDGE ( 'NONE', *, *, #259, .T. ) ;
#154 = CARTESIAN_POINT ( 'NONE',  ( 0.000000000000000000, 0.000000000000000000, 7.000000000000000000 ) ) ;
#155 = CARTESIAN_POINT ( 'NONE',  ( 10.00000000000000000, 1.224646799147353256E-15, 0.000000000000000000 ) ) ;
#156 = CARTESIAN_POINT ( 'NONE',  ( 4.250000000000000000, 5.204748896376250699E-16, 0.000000000000000000 ) ) ;
#157 = DIRECTION ( 'NONE',  ( 0.000000000000000000, 0.000000000000000000, 1.000000000000000000 ) ) ;
#158 = APPROVAL_PERSON_ORGANIZATION ( #377, #238, #257 ) ;
#159 = DIRECTION ( 'NONE',  ( 1.000000000000000000, 0.000000000000000000, 0.000000000000000000 ) ) ;
#160 = DIRECTION ( 'NONE',  ( -1.000000000000000000, 0.000000000000000000, 0.000000000000000000 ) ) ;
#161 = EDGE_CURVE ( 'NONE', #351, #306, #292, .T. ) ;
#162 = DIRECTION ( 'NONE',  ( -0.000000000000000000, -0.000000000000000000, -1.000000000000000000 ) ) ;
#163 =( LENGTH_UNIT ( ) NAMED_UNIT ( * ) SI_UNIT ( .MILLI., .METRE. ) );
#164 = AXIS2_PLACEMENT_3D ( 'NONE', #9, #110, #11 ) ;
#165 = DIRECTION ( 'NONE',  ( 0.000000000000000000, 0.000000000000000000, 1.000000000000000000 ) ) ;
#166 = PRODUCT_DEFINITION_FORMATION_WITH_SPECIFIED_SOURCE ( 'LIBOVOLNÝ', '', #33, .NOT_KNOWN. ) ;
#167 = ADVANCED_FACE ( 'NONE', ( #344, #78 ), #195, .T. ) ;
#168 = DIRECTION ( 'NONE',  ( 0.000000000000000000, 0.000000000000000000, 1.000000000000000000 ) ) ;
#169 = CARTESIAN_POINT ( 'NONE',  ( 6.000000000000000888, 7.347880794884120722E-16, 507.0000000000000000 ) ) ;
#170 = PERSON_AND_ORGANIZATION_ROLE ( 'creator' ) ;
#171 = AXIS2_PLACEMENT_3D ( 'NONE', #117, #24, #258 ) ;
#172 = EDGE_LOOP ( 'NONE', ( #349, #353 ) ) ;
#173 = EDGE_CURVE ( 'NONE', #93, #3, #69, .T. ) ;
#174 = ORIENTED_EDGE ( 'NONE', *, *, #198, .F. ) ;
#175 = PERSON_AND_ORGANIZATION ( #358, #194 ) ;
#176 = ORIENTED_EDGE ( 'NONE', *, *, #4, .F. ) ;
#177 = CIRCLE ( 'NONE', #38, 6.000000000000000888 ) ;
#178 = CC_DESIGN_PERSON_AND_ORGANIZATION_ASSIGNMENT ( #282, #170, ( #166 ) ) ;
#179 = AXIS2_PLACEMENT_3D ( 'NONE', #101, #168, #310 ) ;
#180 = VERTEX_POINT ( 'NONE', #169 ) ;
#181 = CARTESIAN_POINT ( 'NONE',  ( 0.000000000000000000, 0.000000000000000000, 507.0000000000000000 ) ) ;
#182 = AXIS2_PLACEMENT_3D ( 'NONE', #37, #157, #133 ) ;
#183 = AXIS2_PLACEMENT_3D ( 'NONE', #347, #341, #17 ) ;
#184 = DIRECTION ( 'NONE',  ( 0.000000000000000000, 0.000000000000000000, -1.000000000000000000 ) ) ;
#185 = EDGE_LOOP ( 'NONE', ( #10, #94 ) ) ;
#186 = DIRECTION ( 'NONE',  ( 0.000000000000000000, 0.000000000000000000, 1.000000000000000000 ) ) ;
#187 = EDGE_LOOP ( 'NONE', ( #280, #263 ) ) ;
#188 = ADVANCED_FACE ( 'NONE', ( #114 ), #302, .T. ) ;
#189 = AXIS2_PLACEMENT_3D ( 'NONE', #308, #372, #82 ) ;
#190 = DIRECTION ( 'NONE',  ( -0.000000000000000000, -0.000000000000000000, -1.000000000000000000 ) ) ;
#191 = CARTESIAN_POINT ( 'NONE',  ( -10.00000000000000000, 0.000000000000000000, 0.000000000000000000 ) ) ;
#192 = CIRCLE ( 'NONE', #83, 6.700000000000001066 ) ;
#193 = LINE ( 'NONE', #214, #327 ) ;
#194 = ORGANIZATION ( 'NEURÈENÝ', 'NEURÈENÝ', '' ) ;
#195 = PLANE ( 'NONE',  #189 ) ;
#196 = PERSON_AND_ORGANIZATION ( #358, #194 ) ;
#197 = EDGE_LOOP ( 'NONE', ( #65, #236, #328, #285 ) ) ;
#198 = EDGE_CURVE ( 'NONE', #180, #319, #40, .T. ) ;
#199 = DATE_TIME_ROLE ( 'classification_date' ) ;
#200 = AXIS2_PLACEMENT_3D ( 'NONE', #335, #43, #49 ) ;
#201 = CALENDAR_DATE ( 2022, 8, 7 ) ;
#202 = CARTESIAN_POINT ( 'NONE',  ( 0.000000000000000000, 0.000000000000000000, 0.000000000000000000 ) ) ;
#203 = ORIENTED_EDGE ( 'NONE', *, *, #368, .T. ) ;
#204 = APPROVAL_ROLE ( '' ) ;
#205 = ADVANCED_FACE ( 'NONE', ( #91 ), #352, .F. ) ;
#206 = DIRECTION ( 'NONE',  ( 1.000000000000000000, 0.000000000000000000, 0.000000000000000000 ) ) ;
#207 = ORIENTED_EDGE ( 'NONE', *, *, #161, .T. ) ;
#208 = ORIENTED_EDGE ( 'NONE', *, *, #271, .F. ) ;
#209 = LINE ( 'NONE', #329, #106 ) ;
#210 = PLANE ( 'NONE',  #182 ) ;
#211 = EDGE_CURVE ( 'NONE', #88, #306, #267, .T. ) ;
#212 = LOCAL_TIME ( 16, 29, 44.00000000000000000, #287 ) ;
#213 = CARTESIAN_POINT ( 'NONE',  ( 4.250000000000000000, 5.204748896376250699E-16, 507.0000000000000000 ) ) ;
#214 = CARTESIAN_POINT ( 'NONE',  ( 10.00000000000000000, 1.224646799147353256E-15, 7.000000000000000000 ) ) ;
#215 = LINE ( 'NONE', #213, #122 ) ;
#216 = DIRECTION ( 'NONE',  ( 0.000000000000000000, 0.000000000000000000, 1.000000000000000000 ) ) ;
#217 = DIRECTION ( 'NONE',  ( 0.000000000000000000, 0.000000000000000000, 1.000000000000000000 ) ) ;
#218 = FACE_OUTER_BOUND ( 'NONE', #61, .T. ) ;
#219 = CARTESIAN_POINT ( 'NONE',  ( 0.000000000000000000, 0.000000000000000000, 7.699999999999985079 ) ) ;
#220 = CARTESIAN_POINT ( 'NONE',  ( 0.000000000000000000, 0.000000000000000000, 7.000000000000000000 ) ) ;
#221 = LOCAL_TIME ( 16, 29, 44.00000000000000000, #354 ) ;
#222 = SECURITY_CLASSIFICATION_LEVEL ( 'unclassified' ) ;
#223 = LINE ( 'NONE', #120, #99 ) ;
#224 = EDGE_CURVE ( 'NONE', #93, #363, #223, .T. ) ;
#225 = PERSON_AND_ORGANIZATION_ROLE ( 'classification_officer' ) ;
#226 = EDGE_LOOP ( 'NONE', ( #208, #176 ) ) ;
#227 = PRODUCT_DEFINITION_SHAPE ( 'NONE', 'NONE',  #53 ) ;
#228 = CIRCLE ( 'NONE', #164, 0.7000000000000000666 ) ;
#229 = LOCAL_TIME ( 16, 29, 44.00000000000000000, #146 ) ;
#230 = CC_DESIGN_DATE_AND_TIME_ASSIGNMENT ( #284, #254, ( #53 ) ) ;
#231 = VERTEX_POINT ( 'NONE', #255 ) ;
#232 = AXIS2_PLACEMENT_3D ( 'NONE', #58, #317, #206 ) ;
#233 = ORIENTED_EDGE ( 'NONE', *, *, #26, .T. ) ;
#234 = FACE_OUTER_BOUND ( 'NONE', #226, .T. ) ;
#235 = ORIENTED_EDGE ( 'NONE', *, *, #198, .T. ) ;
#236 = ORIENTED_EDGE ( 'NONE', *, *, #342, .T. ) ;
#237 = CC_DESIGN_SECURITY_CLASSIFICATION ( #345, ( #166 ) ) ;
#238 = APPROVAL ( #87, 'NEURÈENÝ' ) ;
#239 = ADVANCED_BREP_SHAPE_REPRESENTATION ( '2ebf', ( #71, #56 ), #64 ) ;
#240 = FACE_OUTER_BOUND ( 'NONE', #70, .T. ) ;
#241 = ORIENTED_EDGE ( 'NONE', *, *, #271, .T. ) ;
#242 = ORIENTED_EDGE ( 'NONE', *, *, #59, .F. ) ;
#243 = CIRCLE ( 'NONE', #6, 6.000000000000000888 ) ;
#244 = DIRECTION ( 'NONE',  ( -0.000000000000000000, -0.000000000000000000, -1.000000000000000000 ) ) ;
#245 = DIRECTION ( 'NONE',  ( 1.000000000000000000, 0.000000000000000000, 0.000000000000000000 ) ) ;
#246 = CARTESIAN_POINT ( 'NONE',  ( 0.000000000000000000, 0.000000000000000000, 7.000000000000000000 ) ) ;
#247 = CALENDAR_DATE ( 2022, 8, 7 ) ;
#248 = DIRECTION ( 'NONE',  ( -0.000000000000000000, -0.000000000000000000, -1.000000000000000000 ) ) ;
#249 = CIRCLE ( 'NONE', #28, 10.00000000000000000 ) ;
#250 = ADVANCED_FACE ( 'NONE', ( #348 ), #148, .F. ) ;
#251 = CIRCLE ( 'NONE', #35, 4.250000000000000000 ) ;
#252 = APPROVAL_DATE_TIME ( #290, #13 ) ;
#253 = DIRECTION ( 'NONE',  ( 0.000000000000000000, -1.000000000000000000, 0.000000000000000000 ) ) ;
#254 = DATE_TIME_ROLE ( 'creation_date' ) ;
#255 = CARTESIAN_POINT ( 'NONE',  ( -4.250000000000000000, 0.000000000000000000, 0.000000000000000000 ) ) ;
#256 = ORIENTED_EDGE ( 'NONE', *, *, #26, .F. ) ;
#257 = APPROVAL_ROLE ( '' ) ;
#258 = DIRECTION ( 'NONE',  ( -1.000000000000000000, 0.000000000000000000, 0.000000000000000000 ) ) ;
#259 = EDGE_CURVE ( 'NONE', #231, #27, #95, .T. ) ;
#260 = EDGE_LOOP ( 'NONE', ( #125, #92, #45, #135 ) ) ;
#261 = CARTESIAN_POINT ( 'NONE',  ( 0.000000000000000000, 0.000000000000000000, 507.0000000000000000 ) ) ;
#262 = AXIS2_PLACEMENT_3D ( 'NONE', #145, #253, #376 ) ;
#263 = ORIENTED_EDGE ( 'NONE', *, *, #34, .T. ) ;
#264 = CARTESIAN_POINT ( 'NONE',  ( -4.250000000000000000, 0.000000000000000000, 507.0000000000000000 ) ) ;
#265 = ADVANCED_FACE ( 'NONE', ( #121 ), #60, .T. ) ;
#266 = VECTOR ( 'NONE', #184, 1000.000000000000000 ) ;
#267 = CIRCLE ( 'NONE', #262, 0.7000000000000000666 ) ;
#268 = FACE_OUTER_BOUND ( 'NONE', #97, .T. ) ;
#269 = DIRECTION ( 'NONE',  ( 0.000000000000000000, 0.000000000000000000, 1.000000000000000000 ) ) ;
#270 = CARTESIAN_POINT ( 'NONE',  ( -10.00000000000000000, 0.000000000000000000, 7.000000000000000000 ) ) ;
#271 = EDGE_CURVE ( 'NONE', #363, #5, #21, .T. ) ;
#272 = AXIS2_PLACEMENT_3D ( 'NONE', #273, #216, #19 ) ;
#273 = CARTESIAN_POINT ( 'NONE',  ( 0.000000000000000000, 0.000000000000000000, 507.0000000000000000 ) ) ;
#274 = DIRECTION ( 'NONE',  ( 1.000000000000000000, 0.000000000000000000, 0.000000000000000000 ) ) ;
#275 = APPLICATION_PROTOCOL_DEFINITION ( 'international standard', 'config_control_design', 1994, #130 ) ;
#276 = EDGE_CURVE ( 'NONE', #325, #88, #134, .T. ) ;
#277 = AXIS2_PLACEMENT_3D ( 'NONE', #39, #278, #159 ) ;
#278 = DIRECTION ( 'NONE',  ( 0.000000000000000000, 0.000000000000000000, 1.000000000000000000 ) ) ;
#279 = CARTESIAN_POINT ( 'NONE',  ( 0.000000000000000000, 0.000000000000000000, 507.0000000000000000 ) ) ;
#280 = ORIENTED_EDGE ( 'NONE', *, *, #173, .T. ) ;
#281 = ADVANCED_FACE ( 'NONE', ( #240 ), #312, .F. ) ;
#282 = PERSON_AND_ORGANIZATION ( #358, #194 ) ;
#283 = AXIS2_PLACEMENT_3D ( 'NONE', #279, #217, #339 ) ;
#284 = DATE_AND_TIME ( #57, #229 ) ;
#285 = ORIENTED_EDGE ( 'NONE', *, *, #224, .F. ) ;
#286 = VERTEX_POINT ( 'NONE', #369 ) ;
#287 = COORDINATED_UNIVERSAL_TIME_OFFSET ( 1, 0, .AHEAD. ) ;
#288 = DIRECTION ( 'NONE',  ( 1.000000000000000000, 0.000000000000000000, 0.000000000000000000 ) ) ;
#289 = ORIENTED_EDGE ( 'NONE', *, *, #331, .F. ) ;
#290 = DATE_AND_TIME ( #25, #212 ) ;
#291 = AXIS2_PLACEMENT_3D ( 'NONE', #102, #330, #333 ) ;
#292 = CIRCLE ( 'NONE', #183, 6.700000000000001066 ) ;
#293 = ORIENTED_EDGE ( 'NONE', *, *, #137, .T. ) ;
#294 = ORIENTED_EDGE ( 'NONE', *, *, #132, .T. ) ;
#295 = PRODUCT_RELATED_PRODUCT_CATEGORY ( 'detail', '', ( #33 ) ) ;
#296 = LOCAL_TIME ( 16, 29, 44.00000000000000000, #380 ) ;
#297 = EDGE_LOOP ( 'NONE', ( #309, #203, #55, #153 ) ) ;
#298 = ADVANCED_FACE ( 'NONE', ( #107, #74 ), #301, .T. ) ;
#299 = FACE_BOUND ( 'NONE', #172, .T. ) ;
#300 = ORIENTED_EDGE ( 'NONE', *, *, #59, .T. ) ;
#301 = PLANE ( 'NONE',  #200 ) ;
#302 = CYLINDRICAL_SURFACE ( 'NONE', #89, 6.000000000000000888 ) ;
#303 = AXIS2_PLACEMENT_3D ( 'NONE', #261, #77, #367 ) ;
#304 = CARTESIAN_POINT ( 'NONE',  ( 0.000000000000000000, 0.000000000000000000, 7.699999999999985079 ) ) ;
#305 = FACE_OUTER_BOUND ( 'NONE', #197, .T. ) ;
#306 = VERTEX_POINT ( 'NONE', #338 ) ;
#307 =( NAMED_UNIT ( * ) SI_UNIT ( $, .STERADIAN. ) SOLID_ANGLE_UNIT ( ) );
#308 = CARTESIAN_POINT ( 'NONE',  ( 0.000000000000000000, 0.000000000000000000, 507.0000000000000000 ) ) ;
#309 = ORIENTED_EDGE ( 'NONE', *, *, #8, .F. ) ;
#310 = DIRECTION ( 'NONE',  ( 1.000000000000000000, 0.000000000000000000, 0.000000000000000000 ) ) ;
#311 = CYLINDRICAL_SURFACE ( 'NONE', #337, 10.00000000000000000 ) ;
#312 = TOROIDAL_SURFACE ( 'NONE', #139, 6.700000000000001066, 0.6999999999999999556 ) ;
#313 = DIRECTION ( 'NONE',  ( -0.000000000000000000, -0.000000000000000000, -1.000000000000000000 ) ) ;
#314 = DIRECTION ( 'NONE',  ( -1.000000000000000000, 0.000000000000000000, 0.000000000000000000 ) ) ;
#315 = CC_DESIGN_PERSON_AND_ORGANIZATION_ASSIGNMENT ( #326, #316, ( #53 ) ) ;
#316 = PERSON_AND_ORGANIZATION_ROLE ( 'creator' ) ;
#317 = DIRECTION ( 'NONE',  ( 0.000000000000000000, 0.000000000000000000, 1.000000000000000000 ) ) ;
#318 = DIRECTION ( 'NONE',  ( -0.000000000000000000, -0.000000000000000000, -1.000000000000000000 ) ) ;
#319 = VERTEX_POINT ( 'NONE', #103 ) ;
#320 = AXIS2_PLACEMENT_3D ( 'NONE', #81, #362, #136 ) ;
#321 = ORIENTED_EDGE ( 'NONE', *, *, #132, .F. ) ;
#322 = CC_DESIGN_PERSON_AND_ORGANIZATION_ASSIGNMENT ( #375, #225, ( #345 ) ) ;
#323 = DIRECTION ( 'NONE',  ( -0.000000000000000000, -0.000000000000000000, -1.000000000000000000 ) ) ;
#324 = APPLICATION_CONTEXT ( 'configuration controlled 3d designs of mechanical parts and assemblies' ) ;
#325 = VERTEX_POINT ( 'NONE', #111 ) ;
#326 = PERSON_AND_ORGANIZATION ( #358, #194 ) ;
#327 = VECTOR ( 'NONE', #313, 1000.000000000000000 ) ;
#328 = ORIENTED_EDGE ( 'NONE', *, *, #4, .T. ) ;
#329 = CARTESIAN_POINT ( 'NONE',  ( -6.000000000000000888, 0.000000000000000000, 507.0000000000000000 ) ) ;
#330 = DIRECTION ( 'NONE',  ( 0.000000000000000000, 0.000000000000000000, 1.000000000000000000 ) ) ;
#331 = EDGE_CURVE ( 'NONE', #88, #325, #243, .T. ) ;
#332 = APPROVAL_PERSON_ORGANIZATION ( #196, #378, #204 ) ;
#333 = DIRECTION ( 'NONE',  ( 1.000000000000000000, 0.000000000000000000, 0.000000000000000000 ) ) ;
#334 = VERTEX_POINT ( 'NONE', #343 ) ;
#335 = CARTESIAN_POINT ( 'NONE',  ( 0.000000000000000000, 0.000000000000000000, 7.000000000000000000 ) ) ;
#336 = DIRECTION ( 'NONE',  ( 0.000000000000000000, 0.000000000000000000, -1.000000000000000000 ) ) ;
#337 = AXIS2_PLACEMENT_3D ( 'NONE', #140, #370, #314 ) ;
#338 = CARTESIAN_POINT ( 'NONE',  ( 6.700000000000001066, 0.000000000000000000, 6.999999999999992006 ) ) ;
#339 = DIRECTION ( 'NONE',  ( 1.000000000000000000, 0.000000000000000000, 0.000000000000000000 ) ) ;
#340 =( NAMED_UNIT ( * ) PLANE_ANGLE_UNIT ( ) SI_UNIT ( $, .RADIAN. ) );
#341 = DIRECTION ( 'NONE',  ( -0.000000000000000000, -0.000000000000000000, -1.000000000000000000 ) ) ;
#342 = EDGE_CURVE ( 'NONE', #3, #5, #193, .T. ) ;
#343 = CARTESIAN_POINT ( 'NONE',  ( -4.250000000000000000, 0.000000000000000000, 507.0000000000000000 ) ) ;
#344 = FACE_BOUND ( 'NONE', #185, .T. ) ;
#345 = SECURITY_CLASSIFICATION ( '', '', #222 ) ;
#346 = DIRECTION ( 'NONE',  ( 1.000000000000000000, 0.000000000000000000, 0.000000000000000000 ) ) ;
#347 = CARTESIAN_POINT ( 'NONE',  ( 0.000000000000000000, 0.000000000000000000, 7.000000000000000000 ) ) ;
#348 = FACE_OUTER_BOUND ( 'NONE', #297, .T. ) ;
#349 = ORIENTED_EDGE ( 'NONE', *, *, #259, .F. ) ;
#350 = DATE_AND_TIME ( #23, #296 ) ;
#351 = VERTEX_POINT ( 'NONE', #109 ) ;
#352 = TOROIDAL_SURFACE ( 'NONE', #232, 6.700000000000001066, 0.6999999999999999556 ) ;
#353 = ORIENTED_EDGE ( 'NONE', *, *, #126, .F. ) ;
#354 = COORDINATED_UNIVERSAL_TIME_OFFSET ( 1, 0, .AHEAD. ) ;
#355 = EDGE_LOOP ( 'NONE', ( #63, #207 ) ) ;
#356 = CC_DESIGN_APPROVAL ( #238, ( #166 ) ) ;
#357 = EDGE_LOOP ( 'NONE', ( #233, #235 ) ) ;
#358 = PERSON ( 'NEURÈENÝ', 'NEURÈENÝ', 'NEURÈENÝ', ('NEURÈENÝ'), ('NEURÈENÝ'), ('NEURÈENÝ') ) ;
#359 = LINE ( 'NONE', #264, #266 ) ;
#360 = DESIGN_CONTEXT ( 'detailed design', #324, 'design' ) ;
#361 = DIRECTION ( 'NONE',  ( 0.000000000000000000, 0.000000000000000000, 1.000000000000000000 ) ) ;
#362 = DIRECTION ( 'NONE',  ( 0.000000000000000000, 0.000000000000000000, 1.000000000000000000 ) ) ;
#363 = VERTEX_POINT ( 'NONE', #191 ) ;
#364 = CC_DESIGN_PERSON_AND_ORGANIZATION_ASSIGNMENT ( #113, #371, ( #166 ) ) ;
#365 = DIRECTION ( 'NONE',  ( 0.000000000000000000, 0.000000000000000000, 1.000000000000000000 ) ) ;
#366 = AXIS2_PLACEMENT_3D ( 'NONE', #202, #323, #288 ) ;
#367 = DIRECTION ( 'NONE',  ( -1.000000000000000000, 0.000000000000000000, 0.000000000000000000 ) ) ;
#368 = EDGE_CURVE ( 'NONE', #286, #334, #152, .T. ) ;
#369 = CARTESIAN_POINT ( 'NONE',  ( 4.250000000000000000, 5.204748896376250699E-16, 507.0000000000000000 ) ) ;
#370 = DIRECTION ( 'NONE',  ( -0.000000000000000000, -0.000000000000000000, -1.000000000000000000 ) ) ;
#371 = PERSON_AND_ORGANIZATION_ROLE ( 'design_supplier' ) ;
#372 = DIRECTION ( 'NONE',  ( 0.000000000000000000, 0.000000000000000000, 1.000000000000000000 ) ) ;
#373 = CIRCLE ( 'NONE', #291, 10.00000000000000000 ) ;
#374 = VECTOR ( 'NONE', #244, 1000.000000000000000 ) ;
#375 = PERSON_AND_ORGANIZATION ( #358, #194 ) ;
#376 = DIRECTION ( 'NONE',  ( 0.000000000000000000, 0.000000000000000000, -1.000000000000000000 ) ) ;
#377 = PERSON_AND_ORGANIZATION ( #358, #194 ) ;
#378 = APPROVAL ( #2, 'NEURÈENÝ' ) ;
#379 = ORIENTED_EDGE ( 'NONE', *, *, #331, .T. ) ;
#380 = COORDINATED_UNIVERSAL_TIME_OFFSET ( 1, 0, .AHEAD. ) ;
#381 = ORIENTED_EDGE ( 'NONE', *, *, #276, .T. ) ;
ENDSEC;
END-ISO-10303-21;
