ISO-10303-21;
HEADER;
FILE_DESCRIPTION (( 'STEP AP203' ),
    '1' );
FILE_NAME ('d770.STEP',
    '2022-07-08T15:19:46',
    ( '' ),
    ( '' ),
    'SwSTEP 2.0',
    'SolidWorks 2019',
    '' );
FILE_SCHEMA (( 'CONFIG_CONTROL_DESIGN' ));
ENDSEC;

DATA;
#1 = ORIENTED_EDGE ( 'NONE', *, *, #325, .T. ) ;
#2 = ORGANIZATION ( 'NEURÈENÝ', 'NEURÈENÝ', '' ) ;
#3 = DIRECTION ( 'NONE',  ( 0.000000000000000000, 0.000000000000000000, 1.000000000000000000 ) ) ;
#4 = DATE_AND_TIME ( #92, #20 ) ;
#5 = DIRECTION ( 'NONE',  ( -1.000000000000000000, 0.000000000000000000, 0.000000000000000000 ) ) ;
#6 = CC_DESIGN_PERSON_AND_ORGANIZATION_ASSIGNMENT ( #36, #286, ( #277 ) ) ;
#7 = AXIS2_PLACEMENT_3D ( 'NONE', #46, #113, #366 ) ;
#8 = CC_DESIGN_APPROVAL ( #197, ( #94 ) ) ;
#9 = ORIENTED_EDGE ( 'NONE', *, *, #346, .T. ) ;
#10 = DIRECTION ( 'NONE',  ( 0.000000000000000000, 0.000000000000000000, 1.000000000000000000 ) ) ;
#11 = DIRECTION ( 'NONE',  ( 0.000000000000000000, 0.000000000000000000, -1.000000000000000000 ) ) ;
#12 =( LENGTH_UNIT ( ) NAMED_UNIT ( * ) SI_UNIT ( .MILLI., .METRE. ) );
#13 = ADVANCED_FACE ( 'NONE', ( #35 ), #207, .T. ) ;
#14 = ORIENTED_EDGE ( 'NONE', *, *, #126, .F. ) ;
#15 = PRODUCT_DEFINITION_SHAPE ( 'NONE', 'NONE',  #348 ) ;
#16 = CARTESIAN_POINT ( 'NONE',  ( -2.500000000000000000, 0.000000000000000000, 305.0000000000000000 ) ) ;
#17 = CARTESIAN_POINT ( 'NONE',  ( -4.500000000000000888, 5.510910596163088569E-16, 5.000000000000002665 ) ) ;
#18 = CARTESIAN_POINT ( 'NONE',  ( 0.000000000000000000, 0.000000000000000000, 5.500000000000005329 ) ) ;
#19 = VECTOR ( 'NONE', #341, 1000.000000000000000 ) ;
#20 = LOCAL_TIME ( 17, 19, 46.00000000000000000, #209 ) ;
#21 = CARTESIAN_POINT ( 'NONE',  ( 0.000000000000000000, 0.000000000000000000, 305.0000000000000000 ) ) ;
#22 = CARTESIAN_POINT ( 'NONE',  ( 0.000000000000000000, 0.000000000000000000, 305.0000000000000000 ) ) ;
#23 = VERTEX_POINT ( 'NONE', #234 ) ;
#24 = CARTESIAN_POINT ( 'NONE',  ( 0.000000000000000000, 0.000000000000000000, 5.000000000000000000 ) ) ;
#25 = EDGE_LOOP ( 'NONE', ( #381, #326 ) ) ;
#26 = DIRECTION ( 'NONE',  ( 0.000000000000000000, 0.000000000000000000, 1.000000000000000000 ) ) ;
#27 = EDGE_CURVE ( 'NONE', #251, #288, #177, .T. ) ;
#28 = AXIS2_PLACEMENT_3D ( 'NONE', #191, #192, #303 ) ;
#29 = PERSON_AND_ORGANIZATION ( #34, #2 ) ;
#30 = ORIENTED_EDGE ( 'NONE', *, *, #304, .F. ) ;
#31 = DATE_TIME_ROLE ( 'classification_date' ) ;
#32 = ORIENTED_EDGE ( 'NONE', *, *, #334, .F. ) ;
#33 = DIRECTION ( 'NONE',  ( -0.000000000000000000, -0.000000000000000000, -1.000000000000000000 ) ) ;
#34 = PERSON ( 'NEURÈENÝ', 'NEURÈENÝ', 'NEURÈENÝ', ('NEURÈENÝ'), ('NEURÈENÝ'), ('NEURÈENÝ') ) ;
#35 = FACE_OUTER_BOUND ( 'NONE', #233, .T. ) ;
#36 = PERSON_AND_ORGANIZATION ( #34, #2 ) ;
#37 = EDGE_CURVE ( 'NONE', #288, #181, #153, .T. ) ;
#38 = COORDINATED_UNIVERSAL_TIME_OFFSET ( 1, 0, .AHEAD. ) ;
#39 = CYLINDRICAL_SURFACE ( 'NONE', #185, 2.500000000000000000 ) ;
#40 = ADVANCED_FACE ( 'NONE', ( #293 ), #43, .F. ) ;
#41 = AXIS2_PLACEMENT_3D ( 'NONE', #21, #26, #54 ) ;
#42 = CC_DESIGN_APPROVAL ( #211, ( #348 ) ) ;
#43 = TOROIDAL_SURFACE ( 'NONE', #364, 4.500000000000000888, 0.5000000000000000000 ) ;
#44 = DIRECTION ( 'NONE',  ( 0.000000000000000000, 0.000000000000000000, -1.000000000000000000 ) ) ;
#45 = APPLICATION_PROTOCOL_DEFINITION ( 'international standard', 'config_control_design', 1994, #194 ) ;
#46 = CARTESIAN_POINT ( 'NONE',  ( 0.000000000000000000, 0.000000000000000000, 305.0000000000000000 ) ) ;
#47 = ORIENTED_EDGE ( 'NONE', *, *, #304, .T. ) ;
#48 = LINE ( 'NONE', #339, #267 ) ;
#49 = DIRECTION ( 'NONE',  ( 1.000000000000000000, 0.000000000000000000, 0.000000000000000000 ) ) ;
#50 = CARTESIAN_POINT ( 'NONE',  ( 0.000000000000000000, 0.000000000000000000, 5.000000000000000000 ) ) ;
#51 = ORIENTED_EDGE ( 'NONE', *, *, #161, .F. ) ;
#52 = AXIS2_PLACEMENT_3D ( 'NONE', #356, #236, #63 ) ;
#53 = LOCAL_TIME ( 17, 19, 46.00000000000000000, #38 ) ;
#54 = DIRECTION ( 'NONE',  ( 1.000000000000000000, 0.000000000000000000, 0.000000000000000000 ) ) ;
#55 = ORIENTED_EDGE ( 'NONE', *, *, #307, .F. ) ;
#56 = ADVANCED_FACE ( 'NONE', ( #184 ), #91, .T. ) ;
#57 = DIRECTION ( 'NONE',  ( 0.000000000000000000, 0.000000000000000000, 1.000000000000000000 ) ) ;
#58 = VECTOR ( 'NONE', #323, 1000.000000000000000 ) ;
#59 = COORDINATED_UNIVERSAL_TIME_OFFSET ( 1, 0, .AHEAD. ) ;
#60 = VERTEX_POINT ( 'NONE', #262 ) ;
#61 = VERTEX_POINT ( 'NONE', #124 ) ;
#62 = VERTEX_POINT ( 'NONE', #65 ) ;
#63 = DIRECTION ( 'NONE',  ( 1.000000000000000000, 0.000000000000000000, 0.000000000000000000 ) ) ;
#64 = CARTESIAN_POINT ( 'NONE',  ( 0.000000000000000000, 0.000000000000000000, 5.500000000000005329 ) ) ;
#65 = CARTESIAN_POINT ( 'NONE',  ( 4.000000000000000000, 4.898587196589412829E-16, 5.500000000000005329 ) ) ;
#66 = ADVANCED_BREP_SHAPE_REPRESENTATION ( 'd770', ( #114, #28 ), #221 ) ;
#67 = CALENDAR_DATE ( 2022, 8, 7 ) ;
#68 = PLANE ( 'NONE',  #93 ) ;
#69 = CARTESIAN_POINT ( 'NONE',  ( 4.500000000000000888, 0.000000000000000000, 5.500000000000005329 ) ) ;
#70 = PERSON_AND_ORGANIZATION ( #34, #2 ) ;
#71 = CIRCLE ( 'NONE', #276, 4.000000000000000000 ) ;
#72 = LOCAL_TIME ( 17, 19, 46.00000000000000000, #294 ) ;
#73 = DIRECTION ( 'NONE',  ( 0.000000000000000000, 0.000000000000000000, -1.000000000000000000 ) ) ;
#74 = CC_DESIGN_PERSON_AND_ORGANIZATION_ASSIGNMENT ( #183, #115, ( #348 ) ) ;
#75 = DIRECTION ( 'NONE',  ( 1.000000000000000000, 0.000000000000000000, 0.000000000000000000 ) ) ;
#76 = LINE ( 'NONE', #16, #99 ) ;
#77 = APPROVAL ( #327, 'NEURÈENÝ' ) ;
#78 = DIRECTION ( 'NONE',  ( 0.000000000000000000, 0.000000000000000000, 1.000000000000000000 ) ) ;
#79 = DIRECTION ( 'NONE',  ( -1.000000000000000000, 0.000000000000000000, 0.000000000000000000 ) ) ;
#80 = DIRECTION ( 'NONE',  ( 0.000000000000000000, 0.000000000000000000, 1.000000000000000000 ) ) ;
#81 = DIRECTION ( 'NONE',  ( -1.000000000000000000, 0.000000000000000000, 0.000000000000000000 ) ) ;
#82 = ORIENTED_EDGE ( 'NONE', *, *, #126, .T. ) ;
#83 = CARTESIAN_POINT ( 'NONE',  ( 0.000000000000000000, 0.000000000000000000, 0.000000000000000000 ) ) ;
#84 = ORIENTED_EDGE ( 'NONE', *, *, #104, .F. ) ;
#85 = EDGE_CURVE ( 'NONE', #309, #144, #122, .T. ) ;
#86 = ORIENTED_EDGE ( 'NONE', *, *, #331, .T. ) ;
#87 = CC_DESIGN_DATE_AND_TIME_ASSIGNMENT ( #324, #31, ( #94 ) ) ;
#88 = EDGE_LOOP ( 'NONE', ( #292, #287, #245, #279 ) ) ;
#89 = CARTESIAN_POINT ( 'NONE',  ( -7.000000000000000000, 0.000000000000000000, 5.000000000000000000 ) ) ;
#90 = PERSON_AND_ORGANIZATION ( #34, #2 ) ;
#91 = CYLINDRICAL_SURFACE ( 'NONE', #100, 7.000000000000000000 ) ;
#92 = CALENDAR_DATE ( 2022, 8, 7 ) ;
#93 = AXIS2_PLACEMENT_3D ( 'NONE', #269, #10, #268 ) ;
#94 = SECURITY_CLASSIFICATION ( '', '', #298 ) ;
#95 = DIRECTION ( 'NONE',  ( -0.000000000000000000, -0.000000000000000000, -1.000000000000000000 ) ) ;
#96 = FACE_BOUND ( 'NONE', #367, .T. ) ;
#97 = FACE_BOUND ( 'NONE', #347, .T. ) ;
#98 = AXIS2_PLACEMENT_3D ( 'NONE', #195, #308, #142 ) ;
#99 = VECTOR ( 'NONE', #73, 1000.000000000000000 ) ;
#100 = AXIS2_PLACEMENT_3D ( 'NONE', #296, #155, #5 ) ;
#101 = VERTEX_POINT ( 'NONE', #299 ) ;
#102 = EDGE_CURVE ( 'NONE', #178, #61, #160, .T. ) ;
#103 = LINE ( 'NONE', #254, #19 ) ;
#104 = EDGE_CURVE ( 'NONE', #61, #178, #249, .T. ) ;
#105 = AXIS2_PLACEMENT_3D ( 'NONE', #252, #246, #107 ) ;
#106 =( NAMED_UNIT ( * ) SI_UNIT ( $, .STERADIAN. ) SOLID_ANGLE_UNIT ( ) );
#107 = DIRECTION ( 'NONE',  ( 1.000000000000000000, 0.000000000000000000, 0.000000000000000000 ) ) ;
#108 = CARTESIAN_POINT ( 'NONE',  ( -4.000000000000000000, 0.000000000000000000, 305.0000000000000000 ) ) ;
#109 = DIRECTION ( 'NONE',  ( 0.000000000000000000, 0.000000000000000000, 1.000000000000000000 ) ) ;
#110 = EDGE_LOOP ( 'NONE', ( #200, #272 ) ) ;
#111 = CARTESIAN_POINT ( 'NONE',  ( 0.000000000000000000, 0.000000000000000000, 5.500000000000005329 ) ) ;
#112 = ADVANCED_FACE ( 'NONE', ( #129 ), #39, .F. ) ;
#113 = DIRECTION ( 'NONE',  ( 0.000000000000000000, 0.000000000000000000, -1.000000000000000000 ) ) ;
#114 = MANIFOLD_SOLID_BREP ( 'Odebrat vysunutím3', #119 ) ;
#115 = PERSON_AND_ORGANIZATION_ROLE ( 'creator' ) ;
#116 = EDGE_LOOP ( 'NONE', ( #380, #230, #150, #137 ) ) ;
#117 = ORIENTED_EDGE ( 'NONE', *, *, #372, .F. ) ;
#118 = TOROIDAL_SURFACE ( 'NONE', #332, 4.500000000000000888, 0.5000000000000000000 ) ;
#119 = CLOSED_SHELL ( 'NONE', ( #112, #322, #13, #56, #359, #264, #342, #365, #134, #40, #229 ) ) ;
#120 = LOCAL_TIME ( 17, 19, 46.00000000000000000, #265 ) ;
#121 = DATE_TIME_ROLE ( 'creation_date' ) ;
#122 = LINE ( 'NONE', #187, #318 ) ;
#123 = APPROVAL_STATUS ( 'not_yet_approved' ) ;
#124 = CARTESIAN_POINT ( 'NONE',  ( 4.500000000000000888, 0.000000000000000000, 5.000000000000002665 ) ) ;
#125 = DATE_AND_TIME ( #67, #352 ) ;
#126 = EDGE_CURVE ( 'NONE', #241, #351, #127, .T. ) ;
#127 = CIRCLE ( 'NONE', #271, 2.500000000000000000 ) ;
#128 = ORIENTED_EDGE ( 'NONE', *, *, #325, .F. ) ;
#129 = FACE_OUTER_BOUND ( 'NONE', #152, .T. ) ;
#130 = DIRECTION ( 'NONE',  ( 1.000000000000000000, 0.000000000000000000, 0.000000000000000000 ) ) ;
#131 = PERSON_AND_ORGANIZATION_ROLE ( 'design_owner' ) ;
#132 = PRODUCT_RELATED_PRODUCT_CATEGORY ( 'detail', '', ( #353 ) ) ;
#133 = AXIS2_PLACEMENT_3D ( 'NONE', #213, #302, #130 ) ;
#134 = ADVANCED_FACE ( 'NONE', ( #96, #333 ), #68, .T. ) ;
#135 = UNCERTAINTY_MEASURE_WITH_UNIT (LENGTH_MEASURE( 1.000000000000000082E-05 ), #12, 'distance_accuracy_value', 'NONE');
#136 = DIRECTION ( 'NONE',  ( 1.000000000000000000, 0.000000000000000000, -0.000000000000000000 ) ) ;
#137 = ORIENTED_EDGE ( 'NONE', *, *, #37, .F. ) ;
#138 = CARTESIAN_POINT ( 'NONE',  ( 0.000000000000000000, 0.000000000000000000, 0.000000000000000000 ) ) ;
#139 = AXIS2_PLACEMENT_3D ( 'NONE', #138, #57, #310 ) ;
#140 = AXIS2_PLACEMENT_3D ( 'NONE', #22, #270, #81 ) ;
#141 = DIRECTION ( 'NONE',  ( 1.000000000000000000, 0.000000000000000000, -0.000000000000000000 ) ) ;
#142 = DIRECTION ( 'NONE',  ( 1.000000000000000000, 0.000000000000000000, 0.000000000000000000 ) ) ;
#143 = FACE_OUTER_BOUND ( 'NONE', #281, .T. ) ;
#144 = VERTEX_POINT ( 'NONE', #329 ) ;
#145 = DIRECTION ( 'NONE',  ( -1.000000000000000000, 1.224646799147351482E-16, 0.000000000000000000 ) ) ;
#146 = EDGE_LOOP ( 'NONE', ( #253, #210, #355, #86 ) ) ;
#147 = FACE_BOUND ( 'NONE', #110, .T. ) ;
#148 = AXIS2_PLACEMENT_3D ( 'NONE', #69, #189, #11 ) ;
#149 = CC_DESIGN_DATE_AND_TIME_ASSIGNMENT ( #319, #121, ( #348 ) ) ;
#150 = ORIENTED_EDGE ( 'NONE', *, *, #334, .T. ) ;
#151 = CALENDAR_DATE ( 2022, 8, 7 ) ;
#152 = EDGE_LOOP ( 'NONE', ( #82, #9, #228, #117 ) ) ;
#153 = LINE ( 'NONE', #89, #58 ) ;
#154 = AXIS2_PLACEMENT_3D ( 'NONE', #18, #330, #244 ) ;
#155 = DIRECTION ( 'NONE',  ( -0.000000000000000000, -0.000000000000000000, -1.000000000000000000 ) ) ;
#156 = CALENDAR_DATE ( 2022, 8, 7 ) ;
#157 = CALENDAR_DATE ( 2022, 8, 7 ) ;
#158 = DIRECTION ( 'NONE',  ( 0.000000000000000000, 0.000000000000000000, 1.000000000000000000 ) ) ;
#159 = AXIS2_PLACEMENT_3D ( 'NONE', #345, #78, #315 ) ;
#160 = CIRCLE ( 'NONE', #133, 4.500000000000000888 ) ;
#161 = EDGE_CURVE ( 'NONE', #62, #61, #306, .T. ) ;
#162 = CARTESIAN_POINT ( 'NONE',  ( 0.000000000000000000, 0.000000000000000000, 305.0000000000000000 ) ) ;
#163 = CARTESIAN_POINT ( 'NONE',  ( 0.000000000000000000, 0.000000000000000000, 0.000000000000000000 ) ) ;
#164 = DIRECTION ( 'NONE',  ( 1.000000000000000000, 0.000000000000000000, 0.000000000000000000 ) ) ;
#165 = DESIGN_CONTEXT ( 'detailed design', #194, 'design' ) ;
#166 = CARTESIAN_POINT ( 'NONE',  ( -2.500000000000000000, 0.000000000000000000, 305.0000000000000000 ) ) ;
#167 = DIRECTION ( 'NONE',  ( 0.000000000000000000, 0.000000000000000000, 1.000000000000000000 ) ) ;
#168 = CARTESIAN_POINT ( 'NONE',  ( 4.000000000000000000, 4.898587196589412829E-16, 305.0000000000000000 ) ) ;
#169 = CIRCLE ( 'NONE', #214, 0.5000000000000004441 ) ;
#170 = CIRCLE ( 'NONE', #154, 4.000000000000000000 ) ;
#171 = ORIENTED_EDGE ( 'NONE', *, *, #256, .F. ) ;
#172 = CARTESIAN_POINT ( 'NONE',  ( 0.000000000000000000, 0.000000000000000000, 305.0000000000000000 ) ) ;
#173 = ORIENTED_EDGE ( 'NONE', *, *, #307, .T. ) ;
#174 = DIRECTION ( 'NONE',  ( 1.224646799147353207E-16, 1.000000000000000000, -0.000000000000000000 ) ) ;
#175 = EDGE_CURVE ( 'NONE', #60, #23, #336, .T. ) ;
#176 = CIRCLE ( 'NONE', #219, 7.000000000000000000 ) ;
#177 = CIRCLE ( 'NONE', #52, 7.000000000000000000 ) ;
#178 = VERTEX_POINT ( 'NONE', #17 ) ;
#179 = ORIENTED_EDGE ( 'NONE', *, *, #102, .F. ) ;
#180 = APPLICATION_CONTEXT ( 'configuration controlled 3d designs of mechanical parts and assemblies' ) ;
#181 = VERTEX_POINT ( 'NONE', #275 ) ;
#182 = CARTESIAN_POINT ( 'NONE',  ( 0.000000000000000000, 0.000000000000000000, 305.0000000000000000 ) ) ;
#183 = PERSON_AND_ORGANIZATION ( #34, #2 ) ;
#184 = FACE_OUTER_BOUND ( 'NONE', #116, .T. ) ;
#185 = AXIS2_PLACEMENT_3D ( 'NONE', #362, #44, #361 ) ;
#186 = PERSON_AND_ORGANIZATION ( #34, #2 ) ;
#187 = CARTESIAN_POINT ( 'NONE',  ( -4.000000000000000000, 0.000000000000000000, 305.0000000000000000 ) ) ;
#188 = EDGE_LOOP ( 'NONE', ( #55, #1, #84, #51 ) ) ;
#189 = DIRECTION ( 'NONE',  ( 0.000000000000000000, -1.000000000000000000, 0.000000000000000000 ) ) ;
#190 = VECTOR ( 'NONE', #373, 1000.000000000000000 ) ;
#191 = CARTESIAN_POINT ( 'NONE',  ( 0.000000000000000000, 0.000000000000000000, 0.000000000000000000 ) ) ;
#192 = DIRECTION ( 'NONE',  ( 0.000000000000000000, 0.000000000000000000, 1.000000000000000000 ) ) ;
#193 = FACE_OUTER_BOUND ( 'NONE', #188, .T. ) ;
#194 = APPLICATION_CONTEXT ( 'configuration controlled 3d designs of mechanical parts and assemblies' ) ;
#195 = CARTESIAN_POINT ( 'NONE',  ( 0.000000000000000000, 0.000000000000000000, 305.0000000000000000 ) ) ;
#196 = DIRECTION ( 'NONE',  ( 1.000000000000000000, 0.000000000000000000, 0.000000000000000000 ) ) ;
#197 = APPROVAL ( #123, 'NEURÈENÝ' ) ;
#198 = AXIS2_PLACEMENT_3D ( 'NONE', #242, #243, #328 ) ;
#199 = CC_DESIGN_SECURITY_CLASSIFICATION ( #94, ( #277 ) ) ;
#200 = ORIENTED_EDGE ( 'NONE', *, *, #104, .T. ) ;
#201 = DIRECTION ( 'NONE',  ( -0.000000000000000000, -0.000000000000000000, -1.000000000000000000 ) ) ;
#202 = ORIENTED_EDGE ( 'NONE', *, *, #295, .F. ) ;
#203 = EDGE_CURVE ( 'NONE', #351, #241, #317, .T. ) ;
#204 = CIRCLE ( 'NONE', #41, 4.000000000000000000 ) ;
#205 = APPROVAL_ROLE ( '' ) ;
#206 = VERTEX_POINT ( 'NONE', #248 ) ;
#207 = CYLINDRICAL_SURFACE ( 'NONE', #284, 4.000000000000000000 ) ;
#208 = DIRECTION ( 'NONE',  ( -1.000000000000000000, 0.000000000000000000, 0.000000000000000000 ) ) ;
#209 = COORDINATED_UNIVERSAL_TIME_OFFSET ( 1, 0, .AHEAD. ) ;
#210 = ORIENTED_EDGE ( 'NONE', *, *, #203, .T. ) ;
#211 = APPROVAL ( #360, 'NEURÈENÝ' ) ;
#212 = DIRECTION ( 'NONE',  ( 1.000000000000000000, 0.000000000000000000, 0.000000000000000000 ) ) ;
#213 = CARTESIAN_POINT ( 'NONE',  ( 0.000000000000000000, 0.000000000000000000, 5.000000000000000000 ) ) ;
#214 = AXIS2_PLACEMENT_3D ( 'NONE', #313, #174, #145 ) ;
#215 = CYLINDRICAL_SURFACE ( 'NONE', #140, 4.000000000000000000 ) ;
#216 = APPROVAL_PERSON_ORGANIZATION ( #29, #211, #205 ) ;
#217 = ORIENTED_EDGE ( 'NONE', *, *, #238, .T. ) ;
#218 = FACE_OUTER_BOUND ( 'NONE', #146, .T. ) ;
#219 = AXIS2_PLACEMENT_3D ( 'NONE', #163, #167, #164 ) ;
#220 = CIRCLE ( 'NONE', #159, 7.000000000000000000 ) ;
#221 =( GEOMETRIC_REPRESENTATION_CONTEXT ( 3 ) GLOBAL_UNCERTAINTY_ASSIGNED_CONTEXT ( ( #135 ) ) GLOBAL_UNIT_ASSIGNED_CONTEXT ( ( #12, #274, #106 ) ) REPRESENTATION_CONTEXT ( 'NONE', 'WORKASPACE' ) );
#222 = FACE_OUTER_BOUND ( 'NONE', #266, .T. ) ;
#223 = CARTESIAN_POINT ( 'NONE',  ( -7.000000000000000000, 0.000000000000000000, 5.000000000000000000 ) ) ;
#224 = CC_DESIGN_PERSON_AND_ORGANIZATION_ASSIGNMENT ( #90, #237, ( #94 ) ) ;
#225 = DIRECTION ( 'NONE',  ( 0.000000000000000000, 0.000000000000000000, -1.000000000000000000 ) ) ;
#226 = ORIENTED_EDGE ( 'NONE', *, *, #161, .T. ) ;
#227 = CARTESIAN_POINT ( 'NONE',  ( 7.000000000000000000, 8.572527594031473190E-16, 5.000000000000000000 ) ) ;
#228 = ORIENTED_EDGE ( 'NONE', *, *, #175, .T. ) ;
#229 = ADVANCED_FACE ( 'NONE', ( #218 ), #280, .F. ) ;
#230 = ORIENTED_EDGE ( 'NONE', *, *, #240, .T. ) ;
#231 = EDGE_LOOP ( 'NONE', ( #128, #257, #226, #179 ) ) ;
#232 = APPROVAL_DATE_TIME ( #125, #77 ) ;
#233 = EDGE_LOOP ( 'NONE', ( #202, #47, #301, #291 ) ) ;
#234 = CARTESIAN_POINT ( 'NONE',  ( -2.500000000000000000, 0.000000000000000000, 0.000000000000000000 ) ) ;
#235 = DATE_AND_TIME ( #157, #120 ) ;
#236 = DIRECTION ( 'NONE',  ( 0.000000000000000000, 0.000000000000000000, 1.000000000000000000 ) ) ;
#237 = PERSON_AND_ORGANIZATION_ROLE ( 'classification_officer' ) ;
#238 = EDGE_CURVE ( 'NONE', #288, #251, #220, .T. ) ;
#239 = EDGE_CURVE ( 'NONE', #181, #101, #369, .T. ) ;
#240 = EDGE_CURVE ( 'NONE', #251, #101, #103, .T. ) ;
#241 = VERTEX_POINT ( 'NONE', #166 ) ;
#242 = CARTESIAN_POINT ( 'NONE',  ( 0.000000000000000000, 0.000000000000000000, 5.000000000000000000 ) ) ;
#243 = DIRECTION ( 'NONE',  ( -0.000000000000000000, -0.000000000000000000, -1.000000000000000000 ) ) ;
#244 = DIRECTION ( 'NONE',  ( 1.000000000000000000, 0.000000000000000000, 0.000000000000000000 ) ) ;
#245 = ORIENTED_EDGE ( 'NONE', *, *, #37, .T. ) ;
#246 = DIRECTION ( 'NONE',  ( -0.000000000000000000, -0.000000000000000000, -1.000000000000000000 ) ) ;
#247 = CYLINDRICAL_SURFACE ( 'NONE', #350, 7.000000000000000000 ) ;
#248 = CARTESIAN_POINT ( 'NONE',  ( 4.000000000000000000, 4.898587196589412829E-16, 305.0000000000000000 ) ) ;
#249 = CIRCLE ( 'NONE', #198, 4.500000000000000888 ) ;
#250 = LINE ( 'NONE', #168, #190 ) ;
#251 = VERTEX_POINT ( 'NONE', #227 ) ;
#252 = CARTESIAN_POINT ( 'NONE',  ( 0.000000000000000000, 0.000000000000000000, 0.000000000000000000 ) ) ;
#253 = ORIENTED_EDGE ( 'NONE', *, *, #346, .F. ) ;
#254 = CARTESIAN_POINT ( 'NONE',  ( 7.000000000000000000, 8.572527594031473190E-16, 5.000000000000000000 ) ) ;
#255 = PERSON_AND_ORGANIZATION ( #34, #2 ) ;
#256 = EDGE_CURVE ( 'NONE', #309, #206, #204, .T. ) ;
#257 = ORIENTED_EDGE ( 'NONE', *, *, #378, .F. ) ;
#258 = CIRCLE ( 'NONE', #283, 2.500000000000000000 ) ;
#259 = CC_DESIGN_PERSON_AND_ORGANIZATION_ASSIGNMENT ( #70, #131, ( #353 ) ) ;
#260 = AXIS2_PLACEMENT_3D ( 'NONE', #368, #109, #141 ) ;
#261 = CC_DESIGN_APPROVAL ( #77, ( #277 ) ) ;
#262 = CARTESIAN_POINT ( 'NONE',  ( 2.500000000000000000, 3.061616997868383141E-16, 0.000000000000000000 ) ) ;
#263 = PERSON_AND_ORGANIZATION_ROLE ( 'design_supplier' ) ;
#264 = ADVANCED_FACE ( 'NONE', ( #147, #375 ), #370, .T. ) ;
#265 = COORDINATED_UNIVERSAL_TIME_OFFSET ( 1, 0, .AHEAD. ) ;
#266 = EDGE_LOOP ( 'NONE', ( #30, #171, #316, #173 ) ) ;
#267 = VECTOR ( 'NONE', #225, 1000.000000000000000 ) ;
#268 = DIRECTION ( 'NONE',  ( 1.000000000000000000, 0.000000000000000000, -0.000000000000000000 ) ) ;
#269 = CARTESIAN_POINT ( 'NONE',  ( 0.000000000000000000, 0.000000000000000000, 305.0000000000000000 ) ) ;
#270 = DIRECTION ( 'NONE',  ( -0.000000000000000000, -0.000000000000000000, -1.000000000000000000 ) ) ;
#271 = AXIS2_PLACEMENT_3D ( 'NONE', #162, #158, #212 ) ;
#272 = ORIENTED_EDGE ( 'NONE', *, *, #102, .T. ) ;
#273 = DIRECTION ( 'NONE',  ( 0.000000000000000000, 0.000000000000000000, 1.000000000000000000 ) ) ;
#274 =( NAMED_UNIT ( * ) PLANE_ANGLE_UNIT ( ) SI_UNIT ( $, .RADIAN. ) );
#275 = CARTESIAN_POINT ( 'NONE',  ( -7.000000000000000000, 0.000000000000000000, 0.000000000000000000 ) ) ;
#276 = AXIS2_PLACEMENT_3D ( 'NONE', #282, #338, #75 ) ;
#277 = PRODUCT_DEFINITION_FORMATION_WITH_SPECIFIED_SOURCE ( 'LIBOVOLNÝ', '', #353, .NOT_KNOWN. ) ;
#278 = MECHANICAL_CONTEXT ( 'NONE', #180, 'mechanical' ) ;
#279 = ORIENTED_EDGE ( 'NONE', *, *, #239, .T. ) ;
#280 = CYLINDRICAL_SURFACE ( 'NONE', #7, 2.500000000000000000 ) ;
#281 = EDGE_LOOP ( 'NONE', ( #312, #32 ) ) ;
#282 = CARTESIAN_POINT ( 'NONE',  ( 0.000000000000000000, 0.000000000000000000, 5.500000000000005329 ) ) ;
#283 = AXIS2_PLACEMENT_3D ( 'NONE', #83, #201, #377 ) ;
#284 = AXIS2_PLACEMENT_3D ( 'NONE', #182, #33, #208 ) ;
#285 = APPROVAL_PERSON_ORGANIZATION ( #379, #197, #354 ) ;
#286 = PERSON_AND_ORGANIZATION_ROLE ( 'creator' ) ;
#287 = ORIENTED_EDGE ( 'NONE', *, *, #238, .F. ) ;
#288 = VERTEX_POINT ( 'NONE', #223 ) ;
#289 = CC_DESIGN_PERSON_AND_ORGANIZATION_ASSIGNMENT ( #186, #263, ( #277 ) ) ;
#290 = SHAPE_DEFINITION_REPRESENTATION ( #15, #66 ) ;
#291 = ORIENTED_EDGE ( 'NONE', *, *, #85, .F. ) ;
#292 = ORIENTED_EDGE ( 'NONE', *, *, #240, .F. ) ;
#293 = FACE_OUTER_BOUND ( 'NONE', #231, .T. ) ;
#294 = COORDINATED_UNIVERSAL_TIME_OFFSET ( 1, 0, .AHEAD. ) ;
#295 = EDGE_CURVE ( 'NONE', #206, #309, #300, .T. ) ;
#296 = CARTESIAN_POINT ( 'NONE',  ( 0.000000000000000000, 0.000000000000000000, 5.000000000000000000 ) ) ;
#297 = APPROVAL_DATE_TIME ( #4, #211 ) ;
#298 = SECURITY_CLASSIFICATION_LEVEL ( 'unclassified' ) ;
#299 = CARTESIAN_POINT ( 'NONE',  ( 7.000000000000000000, 8.572527594031473190E-16, 0.000000000000000000 ) ) ;
#300 = CIRCLE ( 'NONE', #349, 4.000000000000000000 ) ;
#301 = ORIENTED_EDGE ( 'NONE', *, *, #378, .T. ) ;
#302 = DIRECTION ( 'NONE',  ( -0.000000000000000000, -0.000000000000000000, -1.000000000000000000 ) ) ;
#303 = DIRECTION ( 'NONE',  ( 1.000000000000000000, 0.000000000000000000, 0.000000000000000000 ) ) ;
#304 = EDGE_CURVE ( 'NONE', #206, #62, #250, .T. ) ;
#305 = FACE_OUTER_BOUND ( 'NONE', #88, .T. ) ;
#306 = CIRCLE ( 'NONE', #148, 0.5000000000000004441 ) ;
#307 = EDGE_CURVE ( 'NONE', #144, #62, #71, .T. ) ;
#308 = DIRECTION ( 'NONE',  ( 0.000000000000000000, 0.000000000000000000, 1.000000000000000000 ) ) ;
#309 = VERTEX_POINT ( 'NONE', #108 ) ;
#310 = DIRECTION ( 'NONE',  ( 1.000000000000000000, 0.000000000000000000, 0.000000000000000000 ) ) ;
#311 = APPLICATION_PROTOCOL_DEFINITION ( 'international standard', 'config_control_design', 1994, #180 ) ;
#312 = ORIENTED_EDGE ( 'NONE', *, *, #239, .F. ) ;
#313 = CARTESIAN_POINT ( 'NONE',  ( -4.500000000000000888, 5.510910596163089556E-16, 5.500000000000005329 ) ) ;
#314 = ORIENTED_EDGE ( 'NONE', *, *, #27, .T. ) ;
#315 = DIRECTION ( 'NONE',  ( 1.000000000000000000, 0.000000000000000000, 0.000000000000000000 ) ) ;
#316 = ORIENTED_EDGE ( 'NONE', *, *, #85, .T. ) ;
#317 = CIRCLE ( 'NONE', #98, 2.500000000000000000 ) ;
#318 = VECTOR ( 'NONE', #95, 1000.000000000000000 ) ;
#319 = DATE_AND_TIME ( #156, #53 ) ;
#320 = ORIENTED_EDGE ( 'NONE', *, *, #175, .F. ) ;
#321 = APPROVAL_ROLE ( '' ) ;
#322 = ADVANCED_FACE ( 'NONE', ( #193 ), #118, .F. ) ;
#323 = DIRECTION ( 'NONE',  ( -0.000000000000000000, -0.000000000000000000, -1.000000000000000000 ) ) ;
#324 = DATE_AND_TIME ( #151, #72 ) ;
#325 = EDGE_CURVE ( 'NONE', #144, #178, #169, .T. ) ;
#326 = ORIENTED_EDGE ( 'NONE', *, *, #295, .T. ) ;
#327 = APPROVAL_STATUS ( 'not_yet_approved' ) ;
#328 = DIRECTION ( 'NONE',  ( 1.000000000000000000, 0.000000000000000000, 0.000000000000000000 ) ) ;
#329 = CARTESIAN_POINT ( 'NONE',  ( -4.000000000000000000, 0.000000000000000000, 5.500000000000005329 ) ) ;
#330 = DIRECTION ( 'NONE',  ( 0.000000000000000000, 0.000000000000000000, 1.000000000000000000 ) ) ;
#331 = EDGE_CURVE ( 'NONE', #23, #60, #258, .T. ) ;
#332 = AXIS2_PLACEMENT_3D ( 'NONE', #111, #80, #196 ) ;
#333 = FACE_OUTER_BOUND ( 'NONE', #25, .T. ) ;
#334 = EDGE_CURVE ( 'NONE', #101, #181, #176, .T. ) ;
#335 = ORIENTED_EDGE ( 'NONE', *, *, #331, .F. ) ;
#336 = CIRCLE ( 'NONE', #105, 2.500000000000000000 ) ;
#337 = APPROVAL_PERSON_ORGANIZATION ( #255, #77, #321 ) ;
#338 = DIRECTION ( 'NONE',  ( 0.000000000000000000, 0.000000000000000000, 1.000000000000000000 ) ) ;
#339 = CARTESIAN_POINT ( 'NONE',  ( 2.500000000000000000, 3.061616997868383141E-16, 305.0000000000000000 ) ) ;
#340 = DIRECTION ( 'NONE',  ( 0.000000000000000000, 0.000000000000000000, 1.000000000000000000 ) ) ;
#341 = DIRECTION ( 'NONE',  ( -0.000000000000000000, -0.000000000000000000, -1.000000000000000000 ) ) ;
#342 = ADVANCED_FACE ( 'NONE', ( #97, #143 ), #371, .F. ) ;
#343 = DIRECTION ( 'NONE',  ( -0.000000000000000000, -0.000000000000000000, -1.000000000000000000 ) ) ;
#344 = EDGE_LOOP ( 'NONE', ( #217, #314 ) ) ;
#345 = CARTESIAN_POINT ( 'NONE',  ( 0.000000000000000000, 0.000000000000000000, 5.000000000000000000 ) ) ;
#346 = EDGE_CURVE ( 'NONE', #351, #60, #48, .T. ) ;
#347 = EDGE_LOOP ( 'NONE', ( #335, #320 ) ) ;
#348 = PRODUCT_DEFINITION ( 'NEZNÁMÝ', '', #277, #165 ) ;
#349 = AXIS2_PLACEMENT_3D ( 'NONE', #172, #340, #49 ) ;
#350 = AXIS2_PLACEMENT_3D ( 'NONE', #50, #343, #79 ) ;
#351 = VERTEX_POINT ( 'NONE', #374 ) ;
#352 = LOCAL_TIME ( 17, 19, 46.00000000000000000, #59 ) ;
#353 = PRODUCT ( 'd770', 'd770', '', ( #278 ) ) ;
#354 = APPROVAL_ROLE ( '' ) ;
#355 = ORIENTED_EDGE ( 'NONE', *, *, #372, .T. ) ;
#356 = CARTESIAN_POINT ( 'NONE',  ( 0.000000000000000000, 0.000000000000000000, 5.000000000000000000 ) ) ;
#357 = APPROVAL_DATE_TIME ( #235, #197 ) ;
#358 = DIRECTION ( 'NONE',  ( 1.000000000000000000, 0.000000000000000000, 0.000000000000000000 ) ) ;
#359 = ADVANCED_FACE ( 'NONE', ( #305 ), #247, .T. ) ;
#360 = APPROVAL_STATUS ( 'not_yet_approved' ) ;
#361 = DIRECTION ( 'NONE',  ( -1.000000000000000000, 0.000000000000000000, 0.000000000000000000 ) ) ;
#362 = CARTESIAN_POINT ( 'NONE',  ( 0.000000000000000000, 0.000000000000000000, 305.0000000000000000 ) ) ;
#363 = AXIS2_PLACEMENT_3D ( 'NONE', #24, #273, #136 ) ;
#364 = AXIS2_PLACEMENT_3D ( 'NONE', #64, #3, #358 ) ;
#365 = ADVANCED_FACE ( 'NONE', ( #222 ), #215, .T. ) ;
#366 = DIRECTION ( 'NONE',  ( -1.000000000000000000, 0.000000000000000000, 0.000000000000000000 ) ) ;
#367 = EDGE_LOOP ( 'NONE', ( #14, #376 ) ) ;
#368 = CARTESIAN_POINT ( 'NONE',  ( 0.000000000000000000, 0.000000000000000000, 0.000000000000000000 ) ) ;
#369 = CIRCLE ( 'NONE', #139, 7.000000000000000000 ) ;
#370 = PLANE ( 'NONE',  #363 ) ;
#371 = PLANE ( 'NONE',  #260 ) ;
#372 = EDGE_CURVE ( 'NONE', #241, #23, #76, .T. ) ;
#373 = DIRECTION ( 'NONE',  ( -0.000000000000000000, -0.000000000000000000, -1.000000000000000000 ) ) ;
#374 = CARTESIAN_POINT ( 'NONE',  ( 2.500000000000000000, 3.061616997868383141E-16, 305.0000000000000000 ) ) ;
#375 = FACE_OUTER_BOUND ( 'NONE', #344, .T. ) ;
#376 = ORIENTED_EDGE ( 'NONE', *, *, #203, .F. ) ;
#377 = DIRECTION ( 'NONE',  ( 1.000000000000000000, 0.000000000000000000, 0.000000000000000000 ) ) ;
#378 = EDGE_CURVE ( 'NONE', #62, #144, #170, .T. ) ;
#379 = PERSON_AND_ORGANIZATION ( #34, #2 ) ;
#380 = ORIENTED_EDGE ( 'NONE', *, *, #27, .F. ) ;
#381 = ORIENTED_EDGE ( 'NONE', *, *, #256, .T. ) ;
ENDSEC;
END-ISO-10303-21;
