ISO-10303-21;
HEADER;
FILE_DESCRIPTION (( 'STEP AP203' ),
    '1' );
FILE_NAME ('0bc6.STEP',
    '2022-07-08T15:47:31',
    ( '' ),
    ( '' ),
    'SwSTEP 2.0',
    'SolidWorks 2019',
    '' );
FILE_SCHEMA (( 'CONFIG_CONTROL_DESIGN' ));
ENDSEC;

DATA;
#1 = CARTESIAN_POINT ( 'NONE',  ( 1.250000000000000000, 1.530808498934191571E-16, 253.0000000000000000 ) ) ;
#2 = CIRCLE ( 'NONE', #299, 5.000000000000000000 ) ;
#3 = CARTESIAN_POINT ( 'NONE',  ( -5.000000000000000000, 0.000000000000000000, 0.000000000000000000 ) ) ;
#4 = AXIS2_PLACEMENT_3D ( 'NONE', #95, #267, #198 ) ;
#5 = AXIS2_PLACEMENT_3D ( 'NONE', #130, #245, #44 ) ;
#6 = CARTESIAN_POINT ( 'NONE',  ( 2.500000000000000000, 3.061616997868383141E-16, 3.299999999999997158 ) ) ;
#7 = CC_DESIGN_PERSON_AND_ORGANIZATION_ASSIGNMENT ( #61, #369, ( #354 ) ) ;
#8 = DIRECTION ( 'NONE',  ( -0.000000000000000000, -0.000000000000000000, -1.000000000000000000 ) ) ;
#9 = MANIFOLD_SOLID_BREP ( 'Odebrat vysunutím3', #91 ) ;
#10 = AXIS2_PLACEMENT_3D ( 'NONE', #63, #293, #145 ) ;
#11 = CARTESIAN_POINT ( 'NONE',  ( 5.000000000000000000, 6.123233995736766282E-16, 3.000000000000000000 ) ) ;
#12 = CIRCLE ( 'NONE', #287, 2.500000000000000000 ) ;
#13 = VERTEX_POINT ( 'NONE', #24 ) ;
#14 = ADVANCED_BREP_SHAPE_REPRESENTATION ( '0bc6', ( #9, #317 ), #215 ) ;
#15 = APPLICATION_PROTOCOL_DEFINITION ( 'international standard', 'config_control_design', 1994, #359 ) ;
#16 = ORIENTED_EDGE ( 'NONE', *, *, #73, .F. ) ;
#17 = ORIENTED_EDGE ( 'NONE', *, *, #289, .F. ) ;
#18 = EDGE_CURVE ( 'NONE', #273, #345, #220, .T. ) ;
#19 = TOROIDAL_SURFACE ( 'NONE', #122, 2.799999999999999822, 0.2999999999999999889 ) ;
#20 = VERTEX_POINT ( 'NONE', #257 ) ;
#21 = CALENDAR_DATE ( 2022, 8, 7 ) ;
#22 = ORIENTED_EDGE ( 'NONE', *, *, #46, .T. ) ;
#23 = APPROVAL_ROLE ( '' ) ;
#24 = CARTESIAN_POINT ( 'NONE',  ( -5.000000000000000000, 0.000000000000000000, 3.000000000000000000 ) ) ;
#25 = AXIS2_PLACEMENT_3D ( 'NONE', #92, #90, #370 ) ;
#26 = DATE_TIME_ROLE ( 'creation_date' ) ;
#27 = DIRECTION ( 'NONE',  ( -0.000000000000000000, -0.000000000000000000, -1.000000000000000000 ) ) ;
#28 = LOCAL_TIME ( 17, 47, 31.00000000000000000, #375 ) ;
#29 = DIRECTION ( 'NONE',  ( 1.000000000000000000, 0.000000000000000000, 0.000000000000000000 ) ) ;
#30 = ORIENTED_EDGE ( 'NONE', *, *, #335, .F. ) ;
#31 = EDGE_CURVE ( 'NONE', #275, #282, #64, .T. ) ;
#32 = DIRECTION ( 'NONE',  ( -0.000000000000000000, -0.000000000000000000, -1.000000000000000000 ) ) ;
#33 = CARTESIAN_POINT ( 'NONE',  ( 0.000000000000000000, 0.000000000000000000, 253.0000000000000000 ) ) ;
#34 = CARTESIAN_POINT ( 'NONE',  ( 0.000000000000000000, 0.000000000000000000, 3.000000000000000000 ) ) ;
#35 = UNCERTAINTY_MEASURE_WITH_UNIT (LENGTH_MEASURE( 1.000000000000000082E-05 ), #106, 'distance_accuracy_value', 'NONE');
#36 = FACE_OUTER_BOUND ( 'NONE', #166, .T. ) ;
#37 = LINE ( 'NONE', #172, #301 ) ;
#38 = VERTEX_POINT ( 'NONE', #120 ) ;
#39 = LINE ( 'NONE', #332, #66 ) ;
#40 = EDGE_CURVE ( 'NONE', #186, #273, #113, .T. ) ;
#41 = CIRCLE ( 'NONE', #253, 1.250000000000000000 ) ;
#42 = CARTESIAN_POINT ( 'NONE',  ( 0.000000000000000000, 0.000000000000000000, 0.000000000000000000 ) ) ;
#43 = VERTEX_POINT ( 'NONE', #288 ) ;
#44 = DIRECTION ( 'NONE',  ( -1.000000000000000000, 0.000000000000000000, 0.000000000000000000 ) ) ;
#45 = ORIENTED_EDGE ( 'NONE', *, *, #252, .T. ) ;
#46 = EDGE_CURVE ( 'NONE', #43, #211, #182, .T. ) ;
#47 = DIRECTION ( 'NONE',  ( 0.000000000000000000, 0.000000000000000000, 1.000000000000000000 ) ) ;
#48 = ORIENTED_EDGE ( 'NONE', *, *, #169, .T. ) ;
#49 = AXIS2_PLACEMENT_3D ( 'NONE', #380, #205, #123 ) ;
#50 = ORIENTED_EDGE ( 'NONE', *, *, #155, .F. ) ;
#51 = LOCAL_TIME ( 17, 47, 31.00000000000000000, #281 ) ;
#52 = DESIGN_CONTEXT ( 'detailed design', #352, 'design' ) ;
#53 = DIRECTION ( 'NONE',  ( 0.000000000000000000, 0.000000000000000000, 1.000000000000000000 ) ) ;
#54 = APPLICATION_PROTOCOL_DEFINITION ( 'international standard', 'config_control_design', 1994, #352 ) ;
#55 = ORIENTED_EDGE ( 'NONE', *, *, #306, .T. ) ;
#56 = APPROVAL ( #119, 'NEURÈENÝ' ) ;
#57 = CALENDAR_DATE ( 2022, 8, 7 ) ;
#58 = ORIENTED_EDGE ( 'NONE', *, *, #83, .T. ) ;
#59 = CIRCLE ( 'NONE', #107, 5.000000000000000000 ) ;
#60 = APPROVAL_PERSON_ORGANIZATION ( #112, #137, #23 ) ;
#61 = PERSON_AND_ORGANIZATION ( #266, #295 ) ;
#62 = FACE_OUTER_BOUND ( 'NONE', #171, .T. ) ;
#63 = CARTESIAN_POINT ( 'NONE',  ( 0.000000000000000000, 0.000000000000000000, 3.299999999999997158 ) ) ;
#64 = CIRCLE ( 'NONE', #270, 1.250000000000000000 ) ;
#65 = FACE_OUTER_BOUND ( 'NONE', #305, .T. ) ;
#66 = VECTOR ( 'NONE', #304, 1000.000000000000000 ) ;
#67 = AXIS2_PLACEMENT_3D ( 'NONE', #358, #100, #179 ) ;
#68 = LINE ( 'NONE', #297, #311 ) ;
#69 = CARTESIAN_POINT ( 'NONE',  ( 0.000000000000000000, 0.000000000000000000, 3.000000000000000000 ) ) ;
#70 = EDGE_CURVE ( 'NONE', #345, #38, #233, .T. ) ;
#71 = CARTESIAN_POINT ( 'NONE',  ( 2.500000000000000000, 3.061616997868383141E-16, 253.0000000000000000 ) ) ;
#72 = DIRECTION ( 'NONE',  ( 0.000000000000000000, 0.000000000000000000, 1.000000000000000000 ) ) ;
#73 = EDGE_CURVE ( 'NONE', #365, #13, #158, .T. ) ;
#74 = FACE_BOUND ( 'NONE', #134, .T. ) ;
#75 = ORIENTED_EDGE ( 'NONE', *, *, #173, .F. ) ;
#76 = AXIS2_PLACEMENT_3D ( 'NONE', #197, #194, #85 ) ;
#77 = DIRECTION ( 'NONE',  ( 0.000000000000000000, 0.000000000000000000, -1.000000000000000000 ) ) ;
#78 = EDGE_LOOP ( 'NONE', ( #244, #255 ) ) ;
#79 = MECHANICAL_CONTEXT ( 'NONE', #359, 'mechanical' ) ;
#80 = ORIENTED_EDGE ( 'NONE', *, *, #230, .T. ) ;
#81 = CARTESIAN_POINT ( 'NONE',  ( 0.000000000000000000, 0.000000000000000000, 0.000000000000000000 ) ) ;
#82 = EDGE_LOOP ( 'NONE', ( #213, #242 ) ) ;
#83 = EDGE_CURVE ( 'NONE', #282, #275, #333, .T. ) ;
#84 = DATE_AND_TIME ( #221, #190 ) ;
#85 = DIRECTION ( 'NONE',  ( 1.000000000000000000, 0.000000000000000000, 0.000000000000000000 ) ) ;
#86 = PERSON_AND_ORGANIZATION ( #266, #295 ) ;
#87 = LINE ( 'NONE', #89, #261 ) ;
#88 = PERSON_AND_ORGANIZATION ( #266, #295 ) ;
#89 = CARTESIAN_POINT ( 'NONE',  ( -5.000000000000000000, 0.000000000000000000, 3.000000000000000000 ) ) ;
#90 = DIRECTION ( 'NONE',  ( 0.000000000000000000, 0.000000000000000000, 1.000000000000000000 ) ) ;
#91 = CLOSED_SHELL ( 'NONE', ( #312, #235, #199, #302, #368, #206, #381, #240, #115, #195, #93 ) ) ;
#92 = CARTESIAN_POINT ( 'NONE',  ( 0.000000000000000000, 0.000000000000000000, 253.0000000000000000 ) ) ;
#93 = ADVANCED_FACE ( 'NONE', ( #376 ), #379, .F. ) ;
#94 = CYLINDRICAL_SURFACE ( 'NONE', #4, 2.500000000000000000 ) ;
#95 = CARTESIAN_POINT ( 'NONE',  ( 0.000000000000000000, 0.000000000000000000, 253.0000000000000000 ) ) ;
#96 = DIRECTION ( 'NONE',  ( 0.000000000000000000, -1.000000000000000000, 0.000000000000000000 ) ) ;
#97 = VECTOR ( 'NONE', #207, 1000.000000000000000 ) ;
#98 = EDGE_CURVE ( 'NONE', #13, #254, #87, .T. ) ;
#99 = CARTESIAN_POINT ( 'NONE',  ( -2.500000000000000000, 0.000000000000000000, 3.299999999999997158 ) ) ;
#100 = DIRECTION ( 'NONE',  ( 0.000000000000000000, 0.000000000000000000, 1.000000000000000000 ) ) ;
#101 = PRODUCT_DEFINITION ( 'NEZNÁMÝ', '', #354, #52 ) ;
#102 = CIRCLE ( 'NONE', #10, 2.500000000000000000 ) ;
#103 = ORIENTED_EDGE ( 'NONE', *, *, #46, .F. ) ;
#104 = EDGE_LOOP ( 'NONE', ( #184, #364, #75, #159 ) ) ;
#105 = ORIENTED_EDGE ( 'NONE', *, *, #289, .T. ) ;
#106 =( LENGTH_UNIT ( ) NAMED_UNIT ( * ) SI_UNIT ( .MILLI., .METRE. ) );
#107 = AXIS2_PLACEMENT_3D ( 'NONE', #42, #72, #272 ) ;
#108 = EDGE_CURVE ( 'NONE', #254, #280, #2, .T. ) ;
#109 = ORIENTED_EDGE ( 'NONE', *, *, #162, .T. ) ;
#110 = PERSON_AND_ORGANIZATION_ROLE ( 'design_supplier' ) ;
#111 = ORIENTED_EDGE ( 'NONE', *, *, #31, .F. ) ;
#112 = PERSON_AND_ORGANIZATION ( #266, #295 ) ;
#113 = CIRCLE ( 'NONE', #321, 2.500000000000000000 ) ;
#114 = DIRECTION ( 'NONE',  ( 1.000000000000000000, 0.000000000000000000, 0.000000000000000000 ) ) ;
#115 = ADVANCED_FACE ( 'NONE', ( #143, #62 ), #291, .T. ) ;
#116 = DIRECTION ( 'NONE',  ( 0.000000000000000000, 0.000000000000000000, 1.000000000000000000 ) ) ;
#117 = DATE_AND_TIME ( #57, #126 ) ;
#118 = EDGE_LOOP ( 'NONE', ( #219, #80, #286, #163 ) ) ;
#119 = APPROVAL_STATUS ( 'not_yet_approved' ) ;
#120 = CARTESIAN_POINT ( 'NONE',  ( 2.799999999999999822, 0.000000000000000000, 2.999999999999998668 ) ) ;
#121 = ORIENTED_EDGE ( 'NONE', *, *, #108, .T. ) ;
#122 = AXIS2_PLACEMENT_3D ( 'NONE', #149, #349, #201 ) ;
#123 = DIRECTION ( 'NONE',  ( 1.000000000000000000, 0.000000000000000000, 0.000000000000000000 ) ) ;
#124 = CARTESIAN_POINT ( 'NONE',  ( 0.000000000000000000, 0.000000000000000000, 253.0000000000000000 ) ) ;
#125 = LINE ( 'NONE', #234, #146 ) ;
#126 = LOCAL_TIME ( 17, 47, 31.00000000000000000, #164 ) ;
#127 = PLANE ( 'NONE',  #208 ) ;
#128 = FACE_OUTER_BOUND ( 'NONE', #180, .T. ) ;
#129 = AXIS2_PLACEMENT_3D ( 'NONE', #322, #147, #353 ) ;
#130 = CARTESIAN_POINT ( 'NONE',  ( 0.000000000000000000, 0.000000000000000000, 3.000000000000000000 ) ) ;
#131 = ORIENTED_EDGE ( 'NONE', *, *, #83, .F. ) ;
#132 = AXIS2_PLACEMENT_3D ( 'NONE', #340, #343, #222 ) ;
#133 = PLANE ( 'NONE',  #67 ) ;
#134 = EDGE_LOOP ( 'NONE', ( #111, #131 ) ) ;
#135 = ORIENTED_EDGE ( 'NONE', *, *, #335, .T. ) ;
#136 = ORIENTED_EDGE ( 'NONE', *, *, #40, .F. ) ;
#137 = APPROVAL ( #161, 'NEURÈENÝ' ) ;
#138 = CALENDAR_DATE ( 2022, 8, 7 ) ;
#139 = DIRECTION ( 'NONE',  ( 1.000000000000000000, 0.000000000000000000, 0.000000000000000000 ) ) ;
#140 = APPROVAL_DATE_TIME ( #250, #137 ) ;
#141 = CARTESIAN_POINT ( 'NONE',  ( 0.000000000000000000, 0.000000000000000000, 3.000000000000000000 ) ) ;
#142 = APPROVAL_ROLE ( '' ) ;
#143 = FACE_BOUND ( 'NONE', #78, .T. ) ;
#144 = DIRECTION ( 'NONE',  ( 1.224646799147353207E-16, 1.000000000000000000, -0.000000000000000000 ) ) ;
#145 = DIRECTION ( 'NONE',  ( 1.000000000000000000, 0.000000000000000000, 0.000000000000000000 ) ) ;
#146 = VECTOR ( 'NONE', #355, 1000.000000000000000 ) ;
#147 = DIRECTION ( 'NONE',  ( -0.000000000000000000, -0.000000000000000000, -1.000000000000000000 ) ) ;
#148 = DIRECTION ( 'NONE',  ( 0.000000000000000000, 0.000000000000000000, -1.000000000000000000 ) ) ;
#149 = CARTESIAN_POINT ( 'NONE',  ( 0.000000000000000000, 0.000000000000000000, 3.299999999999997158 ) ) ;
#150 = CC_DESIGN_DATE_AND_TIME_ASSIGNMENT ( #117, #192, ( #348 ) ) ;
#151 = CARTESIAN_POINT ( 'NONE',  ( 2.799999999999999822, 0.000000000000000000, 3.299999999999997158 ) ) ;
#152 = VERTEX_POINT ( 'NONE', #1 ) ;
#153 = CYLINDRICAL_SURFACE ( 'NONE', #214, 5.000000000000000000 ) ;
#154 = ORIENTED_EDGE ( 'NONE', *, *, #323, .T. ) ;
#155 = EDGE_CURVE ( 'NONE', #211, #186, #37, .T. ) ;
#156 = DIRECTION ( 'NONE',  ( 0.000000000000000000, 0.000000000000000000, 1.000000000000000000 ) ) ;
#157 = ORIENTED_EDGE ( 'NONE', *, *, #98, .F. ) ;
#158 = CIRCLE ( 'NONE', #285, 5.000000000000000000 ) ;
#159 = ORIENTED_EDGE ( 'NONE', *, *, #162, .F. ) ;
#160 = TOROIDAL_SURFACE ( 'NONE', #49, 2.799999999999999822, 0.2999999999999999889 ) ;
#161 = APPROVAL_STATUS ( 'not_yet_approved' ) ;
#162 = EDGE_CURVE ( 'NONE', #186, #38, #265, .T. ) ;
#163 = ORIENTED_EDGE ( 'NONE', *, *, #31, .T. ) ;
#164 = COORDINATED_UNIVERSAL_TIME_OFFSET ( 1, 0, .AHEAD. ) ;
#165 = ORIENTED_EDGE ( 'NONE', *, *, #73, .T. ) ;
#166 = EDGE_LOOP ( 'NONE', ( #16, #55, #135, #157 ) ) ;
#167 = CIRCLE ( 'NONE', #373, 2.799999999999999822 ) ;
#168 = CARTESIAN_POINT ( 'NONE',  ( 0.000000000000000000, 0.000000000000000000, 0.000000000000000000 ) ) ;
#169 = EDGE_CURVE ( 'NONE', #211, #43, #12, .T. ) ;
#170 = APPROVAL_ROLE ( '' ) ;
#171 = EDGE_LOOP ( 'NONE', ( #22, #48 ) ) ;
#172 = CARTESIAN_POINT ( 'NONE',  ( 2.500000000000000000, 3.061616997868383141E-16, 253.0000000000000000 ) ) ;
#173 = EDGE_CURVE ( 'NONE', #38, #345, #167, .T. ) ;
#174 = DIRECTION ( 'NONE',  ( 0.000000000000000000, 0.000000000000000000, 1.000000000000000000 ) ) ;
#175 = AXIS2_PLACEMENT_3D ( 'NONE', #313, #53, #300 ) ;
#176 = DIRECTION ( 'NONE',  ( 1.000000000000000000, 0.000000000000000000, 0.000000000000000000 ) ) ;
#177 = DIRECTION ( 'NONE',  ( 0.000000000000000000, 0.000000000000000000, 1.000000000000000000 ) ) ;
#178 = DIRECTION ( 'NONE',  ( 0.000000000000000000, 0.000000000000000000, 1.000000000000000000 ) ) ;
#179 = DIRECTION ( 'NONE',  ( 1.000000000000000000, 0.000000000000000000, -0.000000000000000000 ) ) ;
#180 = EDGE_LOOP ( 'NONE', ( #277, #226, #336, #271 ) ) ;
#181 = FACE_OUTER_BOUND ( 'NONE', #303, .T. ) ;
#182 = CIRCLE ( 'NONE', #25, 2.500000000000000000 ) ;
#183 = DIRECTION ( 'NONE',  ( 1.000000000000000000, 0.000000000000000000, 0.000000000000000000 ) ) ;
#184 = ORIENTED_EDGE ( 'NONE', *, *, #218, .F. ) ;
#185 = CARTESIAN_POINT ( 'NONE',  ( -2.500000000000000000, 0.000000000000000000, 253.0000000000000000 ) ) ;
#186 = VERTEX_POINT ( 'NONE', #6 ) ;
#187 = PRODUCT_RELATED_PRODUCT_CATEGORY ( 'detail', '', ( #262 ) ) ;
#188 = SECURITY_CLASSIFICATION_LEVEL ( 'unclassified' ) ;
#189 = DIRECTION ( 'NONE',  ( 0.000000000000000000, 0.000000000000000000, -1.000000000000000000 ) ) ;
#190 = LOCAL_TIME ( 17, 47, 31.00000000000000000, #283 ) ;
#191 = CARTESIAN_POINT ( 'NONE',  ( 0.000000000000000000, 0.000000000000000000, 0.000000000000000000 ) ) ;
#192 = DATE_TIME_ROLE ( 'classification_date' ) ;
#193 = CARTESIAN_POINT ( 'NONE',  ( -2.799999999999999822, 3.429011037612588783E-16, 3.299999999999997158 ) ) ;
#194 = DIRECTION ( 'NONE',  ( -0.000000000000000000, -0.000000000000000000, -1.000000000000000000 ) ) ;
#195 = ADVANCED_FACE ( 'NONE', ( #320 ), #19, .F. ) ;
#196 = APPROVAL_STATUS ( 'not_yet_approved' ) ;
#197 = CARTESIAN_POINT ( 'NONE',  ( 0.000000000000000000, 0.000000000000000000, 3.000000000000000000 ) ) ;
#198 = DIRECTION ( 'NONE',  ( -1.000000000000000000, 0.000000000000000000, 0.000000000000000000 ) ) ;
#199 = ADVANCED_FACE ( 'NONE', ( #128 ), #94, .T. ) ;
#200 = CYLINDRICAL_SURFACE ( 'NONE', #129, 2.500000000000000000 ) ;
#201 = DIRECTION ( 'NONE',  ( 1.000000000000000000, 0.000000000000000000, 0.000000000000000000 ) ) ;
#202 = AXIS2_PLACEMENT_3D ( 'NONE', #210, #77, #307 ) ;
#203 = CC_DESIGN_APPROVAL ( #137, ( #348 ) ) ;
#204 = CARTESIAN_POINT ( 'NONE',  ( -1.250000000000000000, 0.000000000000000000, 0.000000000000000000 ) ) ;
#205 = DIRECTION ( 'NONE',  ( 0.000000000000000000, 0.000000000000000000, 1.000000000000000000 ) ) ;
#206 = ADVANCED_FACE ( 'NONE', ( #324, #65 ), #127, .T. ) ;
#207 = DIRECTION ( 'NONE',  ( -0.000000000000000000, -0.000000000000000000, -1.000000000000000000 ) ) ;
#208 = AXIS2_PLACEMENT_3D ( 'NONE', #326, #236, #296 ) ;
#209 = CC_DESIGN_APPROVAL ( #256, ( #101 ) ) ;
#210 = CARTESIAN_POINT ( 'NONE',  ( 0.000000000000000000, 0.000000000000000000, 253.0000000000000000 ) ) ;
#211 = VERTEX_POINT ( 'NONE', #71 ) ;
#212 = AXIS2_PLACEMENT_3D ( 'NONE', #316, #189, #310 ) ;
#213 = ORIENTED_EDGE ( 'NONE', *, *, #173, .T. ) ;
#214 = AXIS2_PLACEMENT_3D ( 'NONE', #243, #276, #216 ) ;
#215 =( GEOMETRIC_REPRESENTATION_CONTEXT ( 3 ) GLOBAL_UNCERTAINTY_ASSIGNED_CONTEXT ( ( #35 ) ) GLOBAL_UNIT_ASSIGNED_CONTEXT ( ( #106, #274, #329 ) ) REPRESENTATION_CONTEXT ( 'NONE', 'WORKASPACE' ) );
#216 = DIRECTION ( 'NONE',  ( -1.000000000000000000, 0.000000000000000000, 0.000000000000000000 ) ) ;
#217 = ORIENTED_EDGE ( 'NONE', *, *, #70, .F. ) ;
#218 = EDGE_CURVE ( 'NONE', #273, #186, #102, .T. ) ;
#219 = ORIENTED_EDGE ( 'NONE', *, *, #252, .F. ) ;
#220 = CIRCLE ( 'NONE', #327, 0.2999999999999999334 ) ;
#221 = CALENDAR_DATE ( 2022, 8, 7 ) ;
#222 = DIRECTION ( 'NONE',  ( 1.000000000000000000, 0.000000000000000000, 0.000000000000000000 ) ) ;
#223 = AXIS2_PLACEMENT_3D ( 'NONE', #33, #178, #176 ) ;
#224 = APPROVAL_PERSON_ORGANIZATION ( #377, #56, #170 ) ;
#225 = CALENDAR_DATE ( 2022, 8, 7 ) ;
#226 = ORIENTED_EDGE ( 'NONE', *, *, #155, .T. ) ;
#227 = DATE_AND_TIME ( #138, #28 ) ;
#228 = DIRECTION ( 'NONE',  ( 0.000000000000000000, 0.000000000000000000, 1.000000000000000000 ) ) ;
#229 = DIRECTION ( 'NONE',  ( 0.000000000000000000, 0.000000000000000000, 1.000000000000000000 ) ) ;
#230 = EDGE_CURVE ( 'NONE', #152, #20, #330, .T. ) ;
#231 = FACE_OUTER_BOUND ( 'NONE', #347, .T. ) ;
#232 = DIRECTION ( 'NONE',  ( 1.000000000000000000, 0.000000000000000000, 0.000000000000000000 ) ) ;
#233 = CIRCLE ( 'NONE', #76, 2.799999999999999822 ) ;
#234 = CARTESIAN_POINT ( 'NONE',  ( -1.250000000000000000, 0.000000000000000000, 253.0000000000000000 ) ) ;
#235 = ADVANCED_FACE ( 'NONE', ( #356 ), #160, .F. ) ;
#236 = DIRECTION ( 'NONE',  ( 0.000000000000000000, 0.000000000000000000, 1.000000000000000000 ) ) ;
#237 = CYLINDRICAL_SURFACE ( 'NONE', #202, 1.250000000000000000 ) ;
#238 = FACE_OUTER_BOUND ( 'NONE', #367, .T. ) ;
#239 = ORIENTED_EDGE ( 'NONE', *, *, #263, .F. ) ;
#240 = ADVANCED_FACE ( 'NONE', ( #231 ), #200, .T. ) ;
#241 = FACE_OUTER_BOUND ( 'NONE', #362, .T. ) ;
#242 = ORIENTED_EDGE ( 'NONE', *, *, #70, .T. ) ;
#243 = CARTESIAN_POINT ( 'NONE',  ( 0.000000000000000000, 0.000000000000000000, 3.000000000000000000 ) ) ;
#244 = ORIENTED_EDGE ( 'NONE', *, *, #323, .F. ) ;
#245 = DIRECTION ( 'NONE',  ( -0.000000000000000000, -0.000000000000000000, -1.000000000000000000 ) ) ;
#246 = ORIENTED_EDGE ( 'NONE', *, *, #98, .T. ) ;
#247 = CC_DESIGN_SECURITY_CLASSIFICATION ( #348, ( #354 ) ) ;
#248 = EDGE_LOOP ( 'NONE', ( #284, #136, #109, #217 ) ) ;
#249 = PERSON_AND_ORGANIZATION ( #266, #295 ) ;
#250 = DATE_AND_TIME ( #21, #51 ) ;
#251 = CARTESIAN_POINT ( 'NONE',  ( 0.000000000000000000, 0.000000000000000000, 3.299999999999997158 ) ) ;
#252 = EDGE_CURVE ( 'NONE', #152, #282, #68, .T. ) ;
#253 = AXIS2_PLACEMENT_3D ( 'NONE', #331, #156, #183 ) ;
#254 = VERTEX_POINT ( 'NONE', #3 ) ;
#255 = ORIENTED_EDGE ( 'NONE', *, *, #230, .F. ) ;
#256 = APPROVAL ( #196, 'NEURÈENÝ' ) ;
#257 = CARTESIAN_POINT ( 'NONE',  ( -1.250000000000000000, 0.000000000000000000, 253.0000000000000000 ) ) ;
#258 = AXIS2_PLACEMENT_3D ( 'NONE', #151, #96, #148 ) ;
#259 = LOCAL_TIME ( 17, 47, 31.00000000000000000, #318 ) ;
#260 = DIRECTION ( 'NONE',  ( 0.000000000000000000, 0.000000000000000000, -1.000000000000000000 ) ) ;
#261 = VECTOR ( 'NONE', #319, 1000.000000000000000 ) ;
#262 = PRODUCT ( '0bc6', '0bc6', '', ( #79 ) ) ;
#263 = EDGE_CURVE ( 'NONE', #20, #275, #125, .T. ) ;
#264 = CARTESIAN_POINT ( 'NONE',  ( 1.250000000000000000, 1.530808498934191571E-16, 0.000000000000000000 ) ) ;
#265 = CIRCLE ( 'NONE', #258, 0.2999999999999999334 ) ;
#266 = PERSON ( 'NEURÈENÝ', 'NEURÈENÝ', 'NEURÈENÝ', ('NEURÈENÝ'), ('NEURÈENÝ'), ('NEURÈENÝ') ) ;
#267 = DIRECTION ( 'NONE',  ( -0.000000000000000000, -0.000000000000000000, -1.000000000000000000 ) ) ;
#268 = LINE ( 'NONE', #185, #97 ) ;
#269 = CC_DESIGN_PERSON_AND_ORGANIZATION_ASSIGNMENT ( #309, #371, ( #348 ) ) ;
#270 = AXIS2_PLACEMENT_3D ( 'NONE', #168, #27, #139 ) ;
#271 = ORIENTED_EDGE ( 'NONE', *, *, #328, .F. ) ;
#272 = DIRECTION ( 'NONE',  ( 1.000000000000000000, 0.000000000000000000, 0.000000000000000000 ) ) ;
#273 = VERTEX_POINT ( 'NONE', #99 ) ;
#274 =( NAMED_UNIT ( * ) PLANE_ANGLE_UNIT ( ) SI_UNIT ( $, .RADIAN. ) );
#275 = VERTEX_POINT ( 'NONE', #204 ) ;
#276 = DIRECTION ( 'NONE',  ( -0.000000000000000000, -0.000000000000000000, -1.000000000000000000 ) ) ;
#277 = ORIENTED_EDGE ( 'NONE', *, *, #169, .F. ) ;
#278 = CC_DESIGN_PERSON_AND_ORGANIZATION_ASSIGNMENT ( #88, #110, ( #354 ) ) ;
#279 = CYLINDRICAL_SURFACE ( 'NONE', #5, 5.000000000000000000 ) ;
#280 = VERTEX_POINT ( 'NONE', #325 ) ;
#281 = COORDINATED_UNIVERSAL_TIME_OFFSET ( 1, 0, .AHEAD. ) ;
#282 = VERTEX_POINT ( 'NONE', #264 ) ;
#283 = COORDINATED_UNIVERSAL_TIME_OFFSET ( 1, 0, .AHEAD. ) ;
#284 = ORIENTED_EDGE ( 'NONE', *, *, #18, .F. ) ;
#285 = AXIS2_PLACEMENT_3D ( 'NONE', #141, #116, #114 ) ;
#286 = ORIENTED_EDGE ( 'NONE', *, *, #263, .T. ) ;
#287 = AXIS2_PLACEMENT_3D ( 'NONE', #124, #174, #350 ) ;
#288 = CARTESIAN_POINT ( 'NONE',  ( -2.500000000000000000, 0.000000000000000000, 253.0000000000000000 ) ) ;
#289 = EDGE_CURVE ( 'NONE', #13, #365, #294, .T. ) ;
#290 = PERSON_AND_ORGANIZATION ( #266, #295 ) ;
#291 = PLANE ( 'NONE',  #175 ) ;
#292 = PRODUCT_DEFINITION_SHAPE ( 'NONE', 'NONE',  #101 ) ;
#293 = DIRECTION ( 'NONE',  ( 0.000000000000000000, 0.000000000000000000, 1.000000000000000000 ) ) ;
#294 = CIRCLE ( 'NONE', #341, 5.000000000000000000 ) ;
#295 = ORGANIZATION ( 'NEURÈENÝ', 'NEURÈENÝ', '' ) ;
#296 = DIRECTION ( 'NONE',  ( 1.000000000000000000, 0.000000000000000000, -0.000000000000000000 ) ) ;
#297 = CARTESIAN_POINT ( 'NONE',  ( 1.250000000000000000, 1.530808498934191571E-16, 253.0000000000000000 ) ) ;
#298 = DIRECTION ( 'NONE',  ( 1.000000000000000000, 0.000000000000000000, 0.000000000000000000 ) ) ;
#299 = AXIS2_PLACEMENT_3D ( 'NONE', #191, #228, #29 ) ;
#300 = DIRECTION ( 'NONE',  ( 1.000000000000000000, 0.000000000000000000, -0.000000000000000000 ) ) ;
#301 = VECTOR ( 'NONE', #32, 1000.000000000000000 ) ;
#302 = ADVANCED_FACE ( 'NONE', ( #36 ), #153, .T. ) ;
#303 = EDGE_LOOP ( 'NONE', ( #337, #17, #246, #121 ) ) ;
#304 = DIRECTION ( 'NONE',  ( -0.000000000000000000, -0.000000000000000000, -1.000000000000000000 ) ) ;
#305 = EDGE_LOOP ( 'NONE', ( #105, #165 ) ) ;
#306 = EDGE_CURVE ( 'NONE', #365, #280, #39, .T. ) ;
#307 = DIRECTION ( 'NONE',  ( -1.000000000000000000, 0.000000000000000000, 0.000000000000000000 ) ) ;
#308 = ORIENTED_EDGE ( 'NONE', *, *, #218, .T. ) ;
#309 = PERSON_AND_ORGANIZATION ( #266, #295 ) ;
#310 = DIRECTION ( 'NONE',  ( -1.000000000000000000, 0.000000000000000000, 0.000000000000000000 ) ) ;
#311 = VECTOR ( 'NONE', #260, 1000.000000000000000 ) ;
#312 = ADVANCED_FACE ( 'NONE', ( #238 ), #237, .F. ) ;
#313 = CARTESIAN_POINT ( 'NONE',  ( 0.000000000000000000, 0.000000000000000000, 253.0000000000000000 ) ) ;
#314 = PERSON_AND_ORGANIZATION_ROLE ( 'design_owner' ) ;
#315 = DIRECTION ( 'NONE',  ( -1.000000000000000000, 1.224646799147353207E-16, 0.000000000000000000 ) ) ;
#316 = CARTESIAN_POINT ( 'NONE',  ( 0.000000000000000000, 0.000000000000000000, 253.0000000000000000 ) ) ;
#317 = AXIS2_PLACEMENT_3D ( 'NONE', #81, #47, #334 ) ;
#318 = COORDINATED_UNIVERSAL_TIME_OFFSET ( 1, 0, .AHEAD. ) ;
#319 = DIRECTION ( 'NONE',  ( -0.000000000000000000, -0.000000000000000000, -1.000000000000000000 ) ) ;
#320 = FACE_OUTER_BOUND ( 'NONE', #248, .T. ) ;
#321 = AXIS2_PLACEMENT_3D ( 'NONE', #251, #229, #372 ) ;
#322 = CARTESIAN_POINT ( 'NONE',  ( 0.000000000000000000, 0.000000000000000000, 253.0000000000000000 ) ) ;
#323 = EDGE_CURVE ( 'NONE', #20, #152, #41, .T. ) ;
#324 = FACE_BOUND ( 'NONE', #82, .T. ) ;
#325 = CARTESIAN_POINT ( 'NONE',  ( 5.000000000000000000, 6.123233995736766282E-16, 0.000000000000000000 ) ) ;
#326 = CARTESIAN_POINT ( 'NONE',  ( 0.000000000000000000, 0.000000000000000000, 3.000000000000000000 ) ) ;
#327 = AXIS2_PLACEMENT_3D ( 'NONE', #193, #144, #315 ) ;
#328 = EDGE_CURVE ( 'NONE', #43, #273, #268, .T. ) ;
#329 =( NAMED_UNIT ( * ) SI_UNIT ( $, .STERADIAN. ) SOLID_ANGLE_UNIT ( ) );
#330 = CIRCLE ( 'NONE', #223, 1.250000000000000000 ) ;
#331 = CARTESIAN_POINT ( 'NONE',  ( 0.000000000000000000, 0.000000000000000000, 253.0000000000000000 ) ) ;
#332 = CARTESIAN_POINT ( 'NONE',  ( 5.000000000000000000, 6.123233995736766282E-16, 3.000000000000000000 ) ) ;
#333 = CIRCLE ( 'NONE', #132, 1.250000000000000000 ) ;
#334 = DIRECTION ( 'NONE',  ( 1.000000000000000000, 0.000000000000000000, 0.000000000000000000 ) ) ;
#335 = EDGE_CURVE ( 'NONE', #280, #254, #59, .T. ) ;
#336 = ORIENTED_EDGE ( 'NONE', *, *, #40, .T. ) ;
#337 = ORIENTED_EDGE ( 'NONE', *, *, #306, .F. ) ;
#338 = CC_DESIGN_DATE_AND_TIME_ASSIGNMENT ( #227, #26, ( #101 ) ) ;
#339 = PERSON_AND_ORGANIZATION_ROLE ( 'creator' ) ;
#340 = CARTESIAN_POINT ( 'NONE',  ( 0.000000000000000000, 0.000000000000000000, 0.000000000000000000 ) ) ;
#341 = AXIS2_PLACEMENT_3D ( 'NONE', #69, #177, #298 ) ;
#342 = APPROVAL_DATE_TIME ( #346, #56 ) ;
#343 = DIRECTION ( 'NONE',  ( -0.000000000000000000, -0.000000000000000000, -1.000000000000000000 ) ) ;
#344 = SHAPE_DEFINITION_REPRESENTATION ( #292, #14 ) ;
#345 = VERTEX_POINT ( 'NONE', #360 ) ;
#346 = DATE_AND_TIME ( #225, #259 ) ;
#347 = EDGE_LOOP ( 'NONE', ( #50, #103, #378, #308 ) ) ;
#348 = SECURITY_CLASSIFICATION ( '', '', #188 ) ;
#349 = DIRECTION ( 'NONE',  ( 0.000000000000000000, 0.000000000000000000, 1.000000000000000000 ) ) ;
#350 = DIRECTION ( 'NONE',  ( 1.000000000000000000, 0.000000000000000000, 0.000000000000000000 ) ) ;
#351 = CC_DESIGN_PERSON_AND_ORGANIZATION_ASSIGNMENT ( #86, #314, ( #262 ) ) ;
#352 = APPLICATION_CONTEXT ( 'configuration controlled 3d designs of mechanical parts and assemblies' ) ;
#353 = DIRECTION ( 'NONE',  ( -1.000000000000000000, 0.000000000000000000, 0.000000000000000000 ) ) ;
#354 = PRODUCT_DEFINITION_FORMATION_WITH_SPECIFIED_SOURCE ( 'LIBOVOLNÝ', '', #262, .NOT_KNOWN. ) ;
#355 = DIRECTION ( 'NONE',  ( 0.000000000000000000, 0.000000000000000000, -1.000000000000000000 ) ) ;
#356 = FACE_OUTER_BOUND ( 'NONE', #104, .T. ) ;
#357 = CC_DESIGN_PERSON_AND_ORGANIZATION_ASSIGNMENT ( #290, #339, ( #101 ) ) ;
#358 = CARTESIAN_POINT ( 'NONE',  ( 0.000000000000000000, 0.000000000000000000, 0.000000000000000000 ) ) ;
#359 = APPLICATION_CONTEXT ( 'configuration controlled 3d designs of mechanical parts and assemblies' ) ;
#360 = CARTESIAN_POINT ( 'NONE',  ( -2.799999999999999822, 3.429011037612589276E-16, 2.999999999999998668 ) ) ;
#361 = APPROVAL_PERSON_ORGANIZATION ( #249, #256, #142 ) ;
#362 = EDGE_LOOP ( 'NONE', ( #363, #30 ) ) ;
#363 = ORIENTED_EDGE ( 'NONE', *, *, #108, .F. ) ;
#364 = ORIENTED_EDGE ( 'NONE', *, *, #18, .T. ) ;
#365 = VERTEX_POINT ( 'NONE', #11 ) ;
#366 = APPROVAL_DATE_TIME ( #84, #256 ) ;
#367 = EDGE_LOOP ( 'NONE', ( #154, #45, #58, #239 ) ) ;
#368 = ADVANCED_FACE ( 'NONE', ( #181 ), #279, .T. ) ;
#369 = PERSON_AND_ORGANIZATION_ROLE ( 'creator' ) ;
#370 = DIRECTION ( 'NONE',  ( 1.000000000000000000, 0.000000000000000000, 0.000000000000000000 ) ) ;
#371 = PERSON_AND_ORGANIZATION_ROLE ( 'classification_officer' ) ;
#372 = DIRECTION ( 'NONE',  ( 1.000000000000000000, 0.000000000000000000, 0.000000000000000000 ) ) ;
#373 = AXIS2_PLACEMENT_3D ( 'NONE', #34, #8, #232 ) ;
#374 = CC_DESIGN_APPROVAL ( #56, ( #354 ) ) ;
#375 = COORDINATED_UNIVERSAL_TIME_OFFSET ( 1, 0, .AHEAD. ) ;
#376 = FACE_OUTER_BOUND ( 'NONE', #118, .T. ) ;
#377 = PERSON_AND_ORGANIZATION ( #266, #295 ) ;
#378 = ORIENTED_EDGE ( 'NONE', *, *, #328, .T. ) ;
#379 = CYLINDRICAL_SURFACE ( 'NONE', #212, 1.250000000000000000 ) ;
#380 = CARTESIAN_POINT ( 'NONE',  ( 0.000000000000000000, 0.000000000000000000, 3.299999999999997158 ) ) ;
#381 = ADVANCED_FACE ( 'NONE', ( #74, #241 ), #133, .F. ) ;
ENDSEC;
END-ISO-10303-21;
