ISO-10303-21;
HEADER;
FILE_DESCRIPTION (( 'STEP AP203' ),
    '1' );
FILE_NAME ('9050.STEP',
    '2022-07-08T15:31:44',
    ( '' ),
    ( '' ),
    'SwSTEP 2.0',
    'SolidWorks 2019',
    '' );
FILE_SCHEMA (( 'CONFIG_CONTROL_DESIGN' ));
ENDSEC;

DATA;
#1 = AXIS2_PLACEMENT_3D ( 'NONE', #318, #230, #286 ) ;
#2 = DIRECTION ( 'NONE',  ( 1.000000000000000000, 0.000000000000000000, 0.000000000000000000 ) ) ;
#3 = CARTESIAN_POINT ( 'NONE',  ( 0.000000000000000000, 0.000000000000000000, 205.0000000000000284 ) ) ;
#4 = EDGE_LOOP ( 'NONE', ( #348, #85 ) ) ;
#5 = CIRCLE ( 'NONE', #248, 4.500000000000000888 ) ;
#6 = CARTESIAN_POINT ( 'NONE',  ( 4.500000000000000888, 0.000000000000000000, 5.500000000000005329 ) ) ;
#7 = ORIENTED_EDGE ( 'NONE', *, *, #227, .T. ) ;
#8 = DIRECTION ( 'NONE',  ( 1.000000000000000000, 0.000000000000000000, 0.000000000000000000 ) ) ;
#9 = CARTESIAN_POINT ( 'NONE',  ( -2.000000000000000000, 0.000000000000000000, 0.000000000000000000 ) ) ;
#10 = DIRECTION ( 'NONE',  ( -0.000000000000000000, -0.000000000000000000, -1.000000000000000000 ) ) ;
#11 = ORIENTED_EDGE ( 'NONE', *, *, #295, .F. ) ;
#12 = DIRECTION ( 'NONE',  ( 1.224646799147353207E-16, 1.000000000000000000, -0.000000000000000000 ) ) ;
#13 = VECTOR ( 'NONE', #153, 1000.000000000000000 ) ;
#14 = PRODUCT_DEFINITION_SHAPE ( 'NONE', 'NONE',  #222 ) ;
#15 = DIRECTION ( 'NONE',  ( 0.000000000000000000, 0.000000000000000000, 1.000000000000000000 ) ) ;
#16 = CARTESIAN_POINT ( 'NONE',  ( 0.000000000000000000, 0.000000000000000000, 5.000000000000000000 ) ) ;
#17 = CARTESIAN_POINT ( 'NONE',  ( -4.000000000000000000, 0.000000000000000000, 5.500000000000005329 ) ) ;
#18 = CARTESIAN_POINT ( 'NONE',  ( 7.000000000000000000, 8.572527594031473190E-16, 5.000000000000000000 ) ) ;
#19 = PERSON_AND_ORGANIZATION_ROLE ( 'design_supplier' ) ;
#20 = PRODUCT ( '9050', '9050', '', ( #133 ) ) ;
#21 = PERSON_AND_ORGANIZATION_ROLE ( 'creator' ) ;
#22 = DIRECTION ( 'NONE',  ( 1.000000000000000000, 0.000000000000000000, 0.000000000000000000 ) ) ;
#23 = TOROIDAL_SURFACE ( 'NONE', #218, 4.500000000000000888, 0.5000000000000000000 ) ;
#24 = DIRECTION ( 'NONE',  ( -0.000000000000000000, -0.000000000000000000, -1.000000000000000000 ) ) ;
#25 = CC_DESIGN_PERSON_AND_ORGANIZATION_ASSIGNMENT ( #100, #272, ( #139 ) ) ;
#26 = ORIENTED_EDGE ( 'NONE', *, *, #67, .F. ) ;
#27 = ADVANCED_BREP_SHAPE_REPRESENTATION ( '9050', ( #50, #60 ), #190 ) ;
#28 = PERSON_AND_ORGANIZATION ( #242, #270 ) ;
#29 = EDGE_LOOP ( 'NONE', ( #201, #231, #75, #255 ) ) ;
#30 = VERTEX_POINT ( 'NONE', #180 ) ;
#31 = ADVANCED_FACE ( 'NONE', ( #42, #147 ), #185, .T. ) ;
#32 = DIRECTION ( 'NONE',  ( 1.000000000000000000, 0.000000000000000000, 0.000000000000000000 ) ) ;
#33 = VERTEX_POINT ( 'NONE', #243 ) ;
#34 = ORIENTED_EDGE ( 'NONE', *, *, #67, .T. ) ;
#35 = CYLINDRICAL_SURFACE ( 'NONE', #149, 2.000000000000000000 ) ;
#36 = DIRECTION ( 'NONE',  ( 0.000000000000000000, 0.000000000000000000, 1.000000000000000000 ) ) ;
#37 = EDGE_CURVE ( 'NONE', #84, #196, #125, .T. ) ;
#38 = CC_DESIGN_PERSON_AND_ORGANIZATION_ASSIGNMENT ( #56, #21, ( #222 ) ) ;
#39 = CYLINDRICAL_SURFACE ( 'NONE', #210, 4.000000000000000000 ) ;
#40 = FACE_BOUND ( 'NONE', #80, .T. ) ;
#41 = VERTEX_POINT ( 'NONE', #175 ) ;
#42 = FACE_BOUND ( 'NONE', #262, .T. ) ;
#43 = DIRECTION ( 'NONE',  ( -1.000000000000000000, 0.000000000000000000, 0.000000000000000000 ) ) ;
#44 = CARTESIAN_POINT ( 'NONE',  ( 4.000000000000000000, 4.898587196589412829E-16, 5.500000000000005329 ) ) ;
#45 = CIRCLE ( 'NONE', #116, 7.000000000000000000 ) ;
#46 = APPROVAL_PERSON_ORGANIZATION ( #102, #151, #71 ) ;
#47 = ADVANCED_FACE ( 'NONE', ( #232 ), #35, .F. ) ;
#48 = DIRECTION ( 'NONE',  ( -0.000000000000000000, -0.000000000000000000, -1.000000000000000000 ) ) ;
#49 = AXIS2_PLACEMENT_3D ( 'NONE', #347, #10, #179 ) ;
#50 = MANIFOLD_SOLID_BREP ( 'Odebrat vysunutím3', #288 ) ;
#51 = PERSON_AND_ORGANIZATION_ROLE ( 'design_owner' ) ;
#52 = PERSON_AND_ORGANIZATION_ROLE ( 'classification_officer' ) ;
#53 = EDGE_CURVE ( 'NONE', #84, #351, #202, .T. ) ;
#54 = DIRECTION ( 'NONE',  ( 1.000000000000000000, 0.000000000000000000, 0.000000000000000000 ) ) ;
#55 = LINE ( 'NONE', #276, #166 ) ;
#56 = PERSON_AND_ORGANIZATION ( #242, #270 ) ;
#57 = CIRCLE ( 'NONE', #332, 0.5000000000000004441 ) ;
#58 = ORIENTED_EDGE ( 'NONE', *, *, #316, .F. ) ;
#59 = APPROVAL_ROLE ( '' ) ;
#60 = AXIS2_PLACEMENT_3D ( 'NONE', #224, #334, #69 ) ;
#61 = CARTESIAN_POINT ( 'NONE',  ( 0.000000000000000000, 0.000000000000000000, 205.0000000000000284 ) ) ;
#62 = CALENDAR_DATE ( 2022, 8, 7 ) ;
#63 = FACE_BOUND ( 'NONE', #4, .T. ) ;
#64 = ORIENTED_EDGE ( 'NONE', *, *, #245, .F. ) ;
#65 = EDGE_CURVE ( 'NONE', #30, #33, #309, .T. ) ;
#66 = AXIS2_PLACEMENT_3D ( 'NONE', #349, #214, #371 ) ;
#67 = EDGE_CURVE ( 'NONE', #173, #326, #129, .T. ) ;
#68 = ADVANCED_FACE ( 'NONE', ( #304 ), #373, .T. ) ;
#69 = DIRECTION ( 'NONE',  ( 1.000000000000000000, 0.000000000000000000, 0.000000000000000000 ) ) ;
#70 = APPLICATION_CONTEXT ( 'configuration controlled 3d designs of mechanical parts and assemblies' ) ;
#71 = APPROVAL_ROLE ( '' ) ;
#72 = CARTESIAN_POINT ( 'NONE',  ( 0.000000000000000000, 0.000000000000000000, 5.000000000000000000 ) ) ;
#73 = CIRCLE ( 'NONE', #328, 0.5000000000000004441 ) ;
#74 = EDGE_CURVE ( 'NONE', #93, #326, #273, .T. ) ;
#75 = ORIENTED_EDGE ( 'NONE', *, *, #295, .T. ) ;
#76 = DATE_AND_TIME ( #221, #146 ) ;
#77 = CARTESIAN_POINT ( 'NONE',  ( 0.000000000000000000, 0.000000000000000000, 0.000000000000000000 ) ) ;
#78 = ORIENTED_EDGE ( 'NONE', *, *, #333, .T. ) ;
#79 = CALENDAR_DATE ( 2022, 8, 7 ) ;
#80 = EDGE_LOOP ( 'NONE', ( #26, #58 ) ) ;
#81 = SHAPE_DEFINITION_REPRESENTATION ( #14, #27 ) ;
#82 = AXIS2_PLACEMENT_3D ( 'NONE', #61, #90, #32 ) ;
#83 = CARTESIAN_POINT ( 'NONE',  ( 0.000000000000000000, 0.000000000000000000, 0.000000000000000000 ) ) ;
#84 = VERTEX_POINT ( 'NONE', #101 ) ;
#85 = ORIENTED_EDGE ( 'NONE', *, *, #305, .T. ) ;
#86 = EDGE_CURVE ( 'NONE', #30, #167, #330, .T. ) ;
#87 = PRODUCT_RELATED_PRODUCT_CATEGORY ( 'detail', '', ( #20 ) ) ;
#88 = DIRECTION ( 'NONE',  ( -0.000000000000000000, -0.000000000000000000, -1.000000000000000000 ) ) ;
#89 = AXIS2_PLACEMENT_3D ( 'NONE', #3, #350, #203 ) ;
#90 = DIRECTION ( 'NONE',  ( 0.000000000000000000, 0.000000000000000000, 1.000000000000000000 ) ) ;
#91 = DIRECTION ( 'NONE',  ( 0.000000000000000000, 0.000000000000000000, -1.000000000000000000 ) ) ;
#92 = DIRECTION ( 'NONE',  ( -0.000000000000000000, -0.000000000000000000, -1.000000000000000000 ) ) ;
#93 = VERTEX_POINT ( 'NONE', #112 ) ;
#94 = AXIS2_PLACEMENT_3D ( 'NONE', #140, #278, #338 ) ;
#95 = FACE_OUTER_BOUND ( 'NONE', #356, .T. ) ;
#96 = EDGE_LOOP ( 'NONE', ( #136, #7 ) ) ;
#97 = DIRECTION ( 'NONE',  ( -1.000000000000000000, 1.224646799147351482E-16, 0.000000000000000000 ) ) ;
#98 = FACE_OUTER_BOUND ( 'NONE', #380, .T. ) ;
#99 = LOCAL_TIME ( 17, 31, 44.00000000000000000, #158 ) ;
#100 = PERSON_AND_ORGANIZATION ( #242, #270 ) ;
#101 = CARTESIAN_POINT ( 'NONE',  ( -4.000000000000000000, 0.000000000000000000, 205.0000000000000284 ) ) ;
#102 = PERSON_AND_ORGANIZATION ( #242, #270 ) ;
#103 = ORIENTED_EDGE ( 'NONE', *, *, #315, .F. ) ;
#104 = ORIENTED_EDGE ( 'NONE', *, *, #162, .T. ) ;
#105 = CARTESIAN_POINT ( 'NONE',  ( 0.000000000000000000, 0.000000000000000000, 5.000000000000000000 ) ) ;
#106 = EDGE_CURVE ( 'NONE', #167, #30, #45, .T. ) ;
#107 = ORIENTED_EDGE ( 'NONE', *, *, #362, .T. ) ;
#108 = ORIENTED_EDGE ( 'NONE', *, *, #367, .F. ) ;
#109 = AXIS2_PLACEMENT_3D ( 'NONE', #105, #258, #172 ) ;
#110 = CARTESIAN_POINT ( 'NONE',  ( 0.000000000000000000, 0.000000000000000000, 0.000000000000000000 ) ) ;
#111 = VERTEX_POINT ( 'NONE', #128 ) ;
#112 = CARTESIAN_POINT ( 'NONE',  ( 2.000000000000000000, 2.449293598294706414E-16, 205.0000000000000284 ) ) ;
#113 = DIRECTION ( 'NONE',  ( -1.000000000000000000, 0.000000000000000000, 0.000000000000000000 ) ) ;
#114 = AXIS2_PLACEMENT_3D ( 'NONE', #110, #48, #290 ) ;
#115 = CARTESIAN_POINT ( 'NONE',  ( 2.000000000000000000, 2.449293598294706414E-16, 0.000000000000000000 ) ) ;
#116 = AXIS2_PLACEMENT_3D ( 'NONE', #178, #358, #268 ) ;
#117 = CIRCLE ( 'NONE', #324, 2.000000000000000000 ) ;
#118 = CARTESIAN_POINT ( 'NONE',  ( 0.000000000000000000, 0.000000000000000000, 205.0000000000000284 ) ) ;
#119 = APPROVAL_ROLE ( '' ) ;
#120 = ADVANCED_FACE ( 'NONE', ( #98 ), #23, .F. ) ;
#121 = AXIS2_PLACEMENT_3D ( 'NONE', #169, #226, #142 ) ;
#122 = APPROVAL_PERSON_ORGANIZATION ( #168, #264, #119 ) ;
#123 = COORDINATED_UNIVERSAL_TIME_OFFSET ( 1, 0, .AHEAD. ) ;
#124 = CARTESIAN_POINT ( 'NONE',  ( 2.000000000000000000, 2.449293598294706414E-16, 205.0000000000000284 ) ) ;
#125 = LINE ( 'NONE', #130, #294 ) ;
#126 = CALENDAR_DATE ( 2022, 8, 7 ) ;
#127 = CARTESIAN_POINT ( 'NONE',  ( 0.000000000000000000, 0.000000000000000000, 5.000000000000000000 ) ) ;
#128 = CARTESIAN_POINT ( 'NONE',  ( 4.500000000000000888, 0.000000000000000000, 5.000000000000002665 ) ) ;
#129 = CIRCLE ( 'NONE', #235, 2.000000000000000000 ) ;
#130 = CARTESIAN_POINT ( 'NONE',  ( -4.000000000000000000, 0.000000000000000000, 205.0000000000000284 ) ) ;
#131 = TOROIDAL_SURFACE ( 'NONE', #66, 4.500000000000000888, 0.5000000000000000000 ) ;
#132 = ORIENTED_EDGE ( 'NONE', *, *, #297, .T. ) ;
#133 = MECHANICAL_CONTEXT ( 'NONE', #209, 'mechanical' ) ;
#134 = EDGE_CURVE ( 'NONE', #111, #41, #321, .T. ) ;
#135 = EDGE_LOOP ( 'NONE', ( #163, #320, #107, #287 ) ) ;
#136 = ORIENTED_EDGE ( 'NONE', *, *, #53, .T. ) ;
#137 = FACE_OUTER_BOUND ( 'NONE', #265, .T. ) ;
#138 = ORIENTED_EDGE ( 'NONE', *, *, #333, .F. ) ;
#139 = PRODUCT_DEFINITION_FORMATION_WITH_SPECIFIED_SOURCE ( 'LIBOVOLNÝ', '', #20, .NOT_KNOWN. ) ;
#140 = CARTESIAN_POINT ( 'NONE',  ( 0.000000000000000000, 0.000000000000000000, 5.000000000000000000 ) ) ;
#141 = ORIENTED_EDGE ( 'NONE', *, *, #245, .T. ) ;
#142 = DIRECTION ( 'NONE',  ( 1.000000000000000000, 0.000000000000000000, 0.000000000000000000 ) ) ;
#143 = DIRECTION ( 'NONE',  ( 0.000000000000000000, 0.000000000000000000, -1.000000000000000000 ) ) ;
#144 = DATE_AND_TIME ( #62, #361 ) ;
#145 = FACE_OUTER_BOUND ( 'NONE', #212, .T. ) ;
#146 = LOCAL_TIME ( 17, 31, 44.00000000000000000, #123 ) ;
#147 = FACE_OUTER_BOUND ( 'NONE', #96, .T. ) ;
#148 = ORIENTED_EDGE ( 'NONE', *, *, #74, .T. ) ;
#149 = AXIS2_PLACEMENT_3D ( 'NONE', #205, #143, #113 ) ;
#150 = CIRCLE ( 'NONE', #204, 2.000000000000000000 ) ;
#151 = APPROVAL ( #249, 'NEURÈENÝ' ) ;
#152 = DIRECTION ( 'NONE',  ( -0.000000000000000000, -0.000000000000000000, -1.000000000000000000 ) ) ;
#153 = DIRECTION ( 'NONE',  ( -0.000000000000000000, -0.000000000000000000, -1.000000000000000000 ) ) ;
#154 = EDGE_CURVE ( 'NONE', #339, #111, #73, .T. ) ;
#155 = DATE_AND_TIME ( #126, #228 ) ;
#156 = DIRECTION ( 'NONE',  ( -0.000000000000000000, -0.000000000000000000, -1.000000000000000000 ) ) ;
#157 = CIRCLE ( 'NONE', #1, 7.000000000000000000 ) ;
#158 = COORDINATED_UNIVERSAL_TIME_OFFSET ( 1, 0, .AHEAD. ) ;
#159 = COORDINATED_UNIVERSAL_TIME_OFFSET ( 1, 0, .AHEAD. ) ;
#160 = DIRECTION ( 'NONE',  ( -0.000000000000000000, -0.000000000000000000, -1.000000000000000000 ) ) ;
#161 = DIRECTION ( 'NONE',  ( 1.000000000000000000, 0.000000000000000000, -0.000000000000000000 ) ) ;
#162 = EDGE_CURVE ( 'NONE', #93, #381, #150, .T. ) ;
#163 = ORIENTED_EDGE ( 'NONE', *, *, #227, .F. ) ;
#164 = APPLICATION_PROTOCOL_DEFINITION ( 'international standard', 'config_control_design', 1994, #209 ) ;
#165 = AXIS2_PLACEMENT_3D ( 'NONE', #72, #188, #174 ) ;
#166 = VECTOR ( 'NONE', #24, 1000.000000000000000 ) ;
#167 = VERTEX_POINT ( 'NONE', #183 ) ;
#168 = PERSON_AND_ORGANIZATION ( #242, #270 ) ;
#169 = CARTESIAN_POINT ( 'NONE',  ( 0.000000000000000000, 0.000000000000000000, 5.500000000000005329 ) ) ;
#170 = CARTESIAN_POINT ( 'NONE',  ( -7.000000000000000000, 0.000000000000000000, 0.000000000000000000 ) ) ;
#171 = ORIENTED_EDGE ( 'NONE', *, *, #305, .F. ) ;
#172 = DIRECTION ( 'NONE',  ( 1.000000000000000000, 0.000000000000000000, -0.000000000000000000 ) ) ;
#173 = VERTEX_POINT ( 'NONE', #9 ) ;
#174 = DIRECTION ( 'NONE',  ( 1.000000000000000000, 0.000000000000000000, 0.000000000000000000 ) ) ;
#175 = CARTESIAN_POINT ( 'NONE',  ( -4.500000000000000888, 5.510910596163088569E-16, 5.000000000000002665 ) ) ;
#176 = CIRCLE ( 'NONE', #121, 4.000000000000000000 ) ;
#177 = EDGE_LOOP ( 'NONE', ( #342, #104, #283, #34 ) ) ;
#178 = CARTESIAN_POINT ( 'NONE',  ( 0.000000000000000000, 0.000000000000000000, 5.000000000000000000 ) ) ;
#179 = DIRECTION ( 'NONE',  ( -1.000000000000000000, 0.000000000000000000, 0.000000000000000000 ) ) ;
#180 = CARTESIAN_POINT ( 'NONE',  ( 7.000000000000000000, 8.572527594031473190E-16, 5.000000000000000000 ) ) ;
#181 = CC_DESIGN_SECURITY_CLASSIFICATION ( #314, ( #139 ) ) ;
#182 = ORIENTED_EDGE ( 'NONE', *, *, #65, .T. ) ;
#183 = CARTESIAN_POINT ( 'NONE',  ( -7.000000000000000000, 0.000000000000000000, 5.000000000000000000 ) ) ;
#184 = ORIENTED_EDGE ( 'NONE', *, *, #86, .T. ) ;
#185 = PLANE ( 'NONE',  #368 ) ;
#186 = PERSON_AND_ORGANIZATION ( #242, #270 ) ;
#187 = CARTESIAN_POINT ( 'NONE',  ( -2.000000000000000000, 0.000000000000000000, 205.0000000000000284 ) ) ;
#188 = DIRECTION ( 'NONE',  ( 0.000000000000000000, 0.000000000000000000, 1.000000000000000000 ) ) ;
#189 = AXIS2_PLACEMENT_3D ( 'NONE', #16, #156, #366 ) ;
#190 =( GEOMETRIC_REPRESENTATION_CONTEXT ( 3 ) GLOBAL_UNCERTAINTY_ASSIGNED_CONTEXT ( ( #365 ) ) GLOBAL_UNIT_ASSIGNED_CONTEXT ( ( #256, #313, #378 ) ) REPRESENTATION_CONTEXT ( 'NONE', 'WORKASPACE' ) );
#191 = SECURITY_CLASSIFICATION_LEVEL ( 'unclassified' ) ;
#192 = ADVANCED_FACE ( 'NONE', ( #40, #95 ), #211, .F. ) ;
#193 = ORIENTED_EDGE ( 'NONE', *, *, #225, .F. ) ;
#194 = EDGE_CURVE ( 'NONE', #351, #339, #234, .T. ) ;
#195 = APPROVAL_PERSON_ORGANIZATION ( #28, #271, #59 ) ;
#196 = VERTEX_POINT ( 'NONE', #17 ) ;
#197 = DIRECTION ( 'NONE',  ( 0.000000000000000000, 0.000000000000000000, 1.000000000000000000 ) ) ;
#198 = ADVANCED_FACE ( 'NONE', ( #206 ), #39, .T. ) ;
#199 = EDGE_LOOP ( 'NONE', ( #132, #148, #257, #108 ) ) ;
#200 = FACE_OUTER_BOUND ( 'NONE', #377, .T. ) ;
#201 = ORIENTED_EDGE ( 'NONE', *, *, #65, .F. ) ;
#202 = CIRCLE ( 'NONE', #251, 4.000000000000000000 ) ;
#203 = DIRECTION ( 'NONE',  ( -1.000000000000000000, 0.000000000000000000, 0.000000000000000000 ) ) ;
#204 = AXIS2_PLACEMENT_3D ( 'NONE', #208, #298, #296 ) ;
#205 = CARTESIAN_POINT ( 'NONE',  ( 0.000000000000000000, 0.000000000000000000, 205.0000000000000284 ) ) ;
#206 = FACE_OUTER_BOUND ( 'NONE', #135, .T. ) ;
#207 = DESIGN_CONTEXT ( 'detailed design', #70, 'design' ) ;
#208 = CARTESIAN_POINT ( 'NONE',  ( 0.000000000000000000, 0.000000000000000000, 205.0000000000000284 ) ) ;
#209 = APPLICATION_CONTEXT ( 'configuration controlled 3d designs of mechanical parts and assemblies' ) ;
#210 = AXIS2_PLACEMENT_3D ( 'NONE', #357, #92, #43 ) ;
#211 = PLANE ( 'NONE',  #253 ) ;
#212 = EDGE_LOOP ( 'NONE', ( #220, #184 ) ) ;
#213 = AXIS2_PLACEMENT_3D ( 'NONE', #83, #197, #2 ) ;
#214 = DIRECTION ( 'NONE',  ( 0.000000000000000000, 0.000000000000000000, 1.000000000000000000 ) ) ;
#215 = DATE_TIME_ROLE ( 'classification_date' ) ;
#216 = COORDINATED_UNIVERSAL_TIME_OFFSET ( 1, 0, .AHEAD. ) ;
#217 = LINE ( 'NONE', #275, #241 ) ;
#218 = AXIS2_PLACEMENT_3D ( 'NONE', #370, #15, #266 ) ;
#219 = DIRECTION ( 'NONE',  ( 1.000000000000000000, 0.000000000000000000, 0.000000000000000000 ) ) ;
#220 = ORIENTED_EDGE ( 'NONE', *, *, #106, .T. ) ;
#221 = CALENDAR_DATE ( 2022, 8, 7 ) ;
#222 = PRODUCT_DEFINITION ( 'NEZNÁMÝ', '', #139, #207 ) ;
#223 = ORIENTED_EDGE ( 'NONE', *, *, #297, .F. ) ;
#224 = CARTESIAN_POINT ( 'NONE',  ( 0.000000000000000000, 0.000000000000000000, 0.000000000000000000 ) ) ;
#225 = EDGE_CURVE ( 'NONE', #312, #33, #157, .T. ) ;
#226 = DIRECTION ( 'NONE',  ( 0.000000000000000000, 0.000000000000000000, 1.000000000000000000 ) ) ;
#227 = EDGE_CURVE ( 'NONE', #351, #84, #274, .T. ) ;
#228 = LOCAL_TIME ( 17, 31, 44.00000000000000000, #159 ) ;
#229 = ORIENTED_EDGE ( 'NONE', *, *, #37, .T. ) ;
#230 = DIRECTION ( 'NONE',  ( 0.000000000000000000, 0.000000000000000000, 1.000000000000000000 ) ) ;
#231 = ORIENTED_EDGE ( 'NONE', *, *, #106, .F. ) ;
#232 = FACE_OUTER_BOUND ( 'NONE', #199, .T. ) ;
#233 = CARTESIAN_POINT ( 'NONE',  ( 4.000000000000000000, 4.898587196589412829E-16, 205.0000000000000284 ) ) ;
#234 = LINE ( 'NONE', #364, #13 ) ;
#235 = AXIS2_PLACEMENT_3D ( 'NONE', #77, #311, #246 ) ;
#236 = CC_DESIGN_PERSON_AND_ORGANIZATION_ASSIGNMENT ( #308, #52, ( #314 ) ) ;
#237 = FACE_OUTER_BOUND ( 'NONE', #259, .T. ) ;
#238 = ORIENTED_EDGE ( 'NONE', *, *, #154, .T. ) ;
#239 = ADVANCED_FACE ( 'NONE', ( #137 ), #131, .F. ) ;
#240 = CYLINDRICAL_SURFACE ( 'NONE', #94, 7.000000000000000000 ) ;
#241 = VECTOR ( 'NONE', #310, 1000.000000000000000 ) ;
#242 = PERSON ( 'NEURÈENÝ', 'NEURÈENÝ', 'NEURÈENÝ', ('NEURÈENÝ'), ('NEURÈENÝ'), ('NEURÈENÝ') ) ;
#243 = CARTESIAN_POINT ( 'NONE',  ( 7.000000000000000000, 8.572527594031473190E-16, 0.000000000000000000 ) ) ;
#244 = APPLICATION_PROTOCOL_DEFINITION ( 'international standard', 'config_control_design', 1994, #70 ) ;
#245 = EDGE_CURVE ( 'NONE', #196, #339, #176, .T. ) ;
#246 = DIRECTION ( 'NONE',  ( 1.000000000000000000, 0.000000000000000000, 0.000000000000000000 ) ) ;
#247 = ADVANCED_FACE ( 'NONE', ( #63, #145 ), #379, .T. ) ;
#248 = AXIS2_PLACEMENT_3D ( 'NONE', #127, #376, #219 ) ;
#249 = APPROVAL_STATUS ( 'not_yet_approved' ) ;
#250 = CARTESIAN_POINT ( 'NONE',  ( 0.000000000000000000, 0.000000000000000000, 5.500000000000005329 ) ) ;
#251 = AXIS2_PLACEMENT_3D ( 'NONE', #325, #36, #300 ) ;
#252 = APPROVAL_STATUS ( 'not_yet_approved' ) ;
#253 = AXIS2_PLACEMENT_3D ( 'NONE', #329, #299, #291 ) ;
#254 = CARTESIAN_POINT ( 'NONE',  ( 0.000000000000000000, 0.000000000000000000, 205.0000000000000284 ) ) ;
#255 = ORIENTED_EDGE ( 'NONE', *, *, #225, .T. ) ;
#256 =( LENGTH_UNIT ( ) NAMED_UNIT ( * ) SI_UNIT ( .MILLI., .METRE. ) );
#257 = ORIENTED_EDGE ( 'NONE', *, *, #316, .T. ) ;
#258 = DIRECTION ( 'NONE',  ( 0.000000000000000000, 0.000000000000000000, 1.000000000000000000 ) ) ;
#259 = EDGE_LOOP ( 'NONE', ( #322, #182, #317, #11 ) ) ;
#260 = CYLINDRICAL_SURFACE ( 'NONE', #49, 4.000000000000000000 ) ;
#261 = CIRCLE ( 'NONE', #307, 4.000000000000000000 ) ;
#262 = EDGE_LOOP ( 'NONE', ( #223, #285 ) ) ;
#263 = FACE_OUTER_BOUND ( 'NONE', #177, .T. ) ;
#264 = APPROVAL ( #252, 'NEURÈENÝ' ) ;
#265 = EDGE_LOOP ( 'NONE', ( #138, #292, #238, #171 ) ) ;
#266 = DIRECTION ( 'NONE',  ( 1.000000000000000000, 0.000000000000000000, 0.000000000000000000 ) ) ;
#267 = CC_DESIGN_APPROVAL ( #151, ( #222 ) ) ;
#268 = DIRECTION ( 'NONE',  ( 1.000000000000000000, 0.000000000000000000, 0.000000000000000000 ) ) ;
#269 = CARTESIAN_POINT ( 'NONE',  ( 0.000000000000000000, 0.000000000000000000, 5.000000000000000000 ) ) ;
#270 = ORGANIZATION ( 'NEURÈENÝ', 'NEURÈENÝ', '' ) ;
#271 = APPROVAL ( #352, 'NEURÈENÝ' ) ;
#272 = PERSON_AND_ORGANIZATION_ROLE ( 'creator' ) ;
#273 = LINE ( 'NONE', #124, #359 ) ;
#274 = CIRCLE ( 'NONE', #82, 4.000000000000000000 ) ;
#275 = CARTESIAN_POINT ( 'NONE',  ( -2.000000000000000000, 0.000000000000000000, 205.0000000000000284 ) ) ;
#276 = CARTESIAN_POINT ( 'NONE',  ( -7.000000000000000000, 0.000000000000000000, 5.000000000000000000 ) ) ;
#277 = CALENDAR_DATE ( 2022, 8, 7 ) ;
#278 = DIRECTION ( 'NONE',  ( -0.000000000000000000, -0.000000000000000000, -1.000000000000000000 ) ) ;
#279 = ORIENTED_EDGE ( 'NONE', *, *, #194, .F. ) ;
#280 = APPROVAL_DATE_TIME ( #369, #264 ) ;
#281 = DIRECTION ( 'NONE',  ( 0.000000000000000000, 0.000000000000000000, 1.000000000000000000 ) ) ;
#282 = ADVANCED_FACE ( 'NONE', ( #200 ), #260, .T. ) ;
#283 = ORIENTED_EDGE ( 'NONE', *, *, #367, .T. ) ;
#284 = APPROVAL_DATE_TIME ( #340, #151 ) ;
#285 = ORIENTED_EDGE ( 'NONE', *, *, #162, .F. ) ;
#286 = DIRECTION ( 'NONE',  ( 1.000000000000000000, 0.000000000000000000, 0.000000000000000000 ) ) ;
#287 = ORIENTED_EDGE ( 'NONE', *, *, #37, .F. ) ;
#288 = CLOSED_SHELL ( 'NONE', ( #47, #120, #198, #289, #68, #247, #192, #282, #31, #239, #323 ) ) ;
#289 = ADVANCED_FACE ( 'NONE', ( #237 ), #240, .T. ) ;
#290 = DIRECTION ( 'NONE',  ( 1.000000000000000000, 0.000000000000000000, 0.000000000000000000 ) ) ;
#291 = DIRECTION ( 'NONE',  ( 1.000000000000000000, 0.000000000000000000, -0.000000000000000000 ) ) ;
#292 = ORIENTED_EDGE ( 'NONE', *, *, #362, .F. ) ;
#293 = DIRECTION ( 'NONE',  ( 0.000000000000000000, 0.000000000000000000, 1.000000000000000000 ) ) ;
#294 = VECTOR ( 'NONE', #88, 1000.000000000000000 ) ;
#295 = EDGE_CURVE ( 'NONE', #167, #312, #55, .T. ) ;
#296 = DIRECTION ( 'NONE',  ( 1.000000000000000000, 0.000000000000000000, 0.000000000000000000 ) ) ;
#297 = EDGE_CURVE ( 'NONE', #381, #93, #117, .T. ) ;
#298 = DIRECTION ( 'NONE',  ( 0.000000000000000000, 0.000000000000000000, 1.000000000000000000 ) ) ;
#299 = DIRECTION ( 'NONE',  ( 0.000000000000000000, 0.000000000000000000, 1.000000000000000000 ) ) ;
#300 = DIRECTION ( 'NONE',  ( 1.000000000000000000, 0.000000000000000000, 0.000000000000000000 ) ) ;
#301 = VECTOR ( 'NONE', #160, 1000.000000000000000 ) ;
#302 = LOCAL_TIME ( 17, 31, 44.00000000000000000, #216 ) ;
#303 = DIRECTION ( 'NONE',  ( 0.000000000000000000, 0.000000000000000000, 1.000000000000000000 ) ) ;
#304 = FACE_OUTER_BOUND ( 'NONE', #29, .T. ) ;
#305 = EDGE_CURVE ( 'NONE', #41, #111, #5, .T. ) ;
#306 = CC_DESIGN_PERSON_AND_ORGANIZATION_ASSIGNMENT ( #374, #19, ( #139 ) ) ;
#307 = AXIS2_PLACEMENT_3D ( 'NONE', #250, #293, #54 ) ;
#308 = PERSON_AND_ORGANIZATION ( #242, #270 ) ;
#309 = LINE ( 'NONE', #18, #301 ) ;
#310 = DIRECTION ( 'NONE',  ( 0.000000000000000000, 0.000000000000000000, -1.000000000000000000 ) ) ;
#311 = DIRECTION ( 'NONE',  ( -0.000000000000000000, -0.000000000000000000, -1.000000000000000000 ) ) ;
#312 = VERTEX_POINT ( 'NONE', #170 ) ;
#313 =( NAMED_UNIT ( * ) PLANE_ANGLE_UNIT ( ) SI_UNIT ( $, .RADIAN. ) );
#314 = SECURITY_CLASSIFICATION ( '', '', #191 ) ;
#315 = EDGE_CURVE ( 'NONE', #33, #312, #336, .T. ) ;
#316 = EDGE_CURVE ( 'NONE', #326, #173, #344, .T. ) ;
#317 = ORIENTED_EDGE ( 'NONE', *, *, #315, .T. ) ;
#318 = CARTESIAN_POINT ( 'NONE',  ( 0.000000000000000000, 0.000000000000000000, 0.000000000000000000 ) ) ;
#319 = CYLINDRICAL_SURFACE ( 'NONE', #89, 2.000000000000000000 ) ;
#320 = ORIENTED_EDGE ( 'NONE', *, *, #194, .T. ) ;
#321 = CIRCLE ( 'NONE', #375, 4.500000000000000888 ) ;
#322 = ORIENTED_EDGE ( 'NONE', *, *, #86, .F. ) ;
#323 = ADVANCED_FACE ( 'NONE', ( #263 ), #319, .F. ) ;
#324 = AXIS2_PLACEMENT_3D ( 'NONE', #254, #281, #22 ) ;
#325 = CARTESIAN_POINT ( 'NONE',  ( 0.000000000000000000, 0.000000000000000000, 205.0000000000000284 ) ) ;
#326 = VERTEX_POINT ( 'NONE', #115 ) ;
#327 = ORIENTED_EDGE ( 'NONE', *, *, #134, .F. ) ;
#328 = AXIS2_PLACEMENT_3D ( 'NONE', #6, #355, #91 ) ;
#329 = CARTESIAN_POINT ( 'NONE',  ( 0.000000000000000000, 0.000000000000000000, 0.000000000000000000 ) ) ;
#330 = CIRCLE ( 'NONE', #165, 7.000000000000000000 ) ;
#331 = CC_DESIGN_DATE_AND_TIME_ASSIGNMENT ( #76, #215, ( #314 ) ) ;
#332 = AXIS2_PLACEMENT_3D ( 'NONE', #360, #12, #97 ) ;
#333 = EDGE_CURVE ( 'NONE', #196, #41, #57, .T. ) ;
#334 = DIRECTION ( 'NONE',  ( 0.000000000000000000, 0.000000000000000000, 1.000000000000000000 ) ) ;
#335 = DATE_TIME_ROLE ( 'creation_date' ) ;
#336 = CIRCLE ( 'NONE', #213, 7.000000000000000000 ) ;
#337 = ORIENTED_EDGE ( 'NONE', *, *, #53, .F. ) ;
#338 = DIRECTION ( 'NONE',  ( -1.000000000000000000, 0.000000000000000000, 0.000000000000000000 ) ) ;
#339 = VERTEX_POINT ( 'NONE', #44 ) ;
#340 = DATE_AND_TIME ( #277, #99 ) ;
#341 = CC_DESIGN_DATE_AND_TIME_ASSIGNMENT ( #155, #335, ( #222 ) ) ;
#342 = ORIENTED_EDGE ( 'NONE', *, *, #74, .F. ) ;
#343 = CC_DESIGN_APPROVAL ( #271, ( #314 ) ) ;
#344 = CIRCLE ( 'NONE', #114, 2.000000000000000000 ) ;
#345 = ORIENTED_EDGE ( 'NONE', *, *, #154, .F. ) ;
#346 = COORDINATED_UNIVERSAL_TIME_OFFSET ( 1, 0, .AHEAD. ) ;
#347 = CARTESIAN_POINT ( 'NONE',  ( 0.000000000000000000, 0.000000000000000000, 205.0000000000000284 ) ) ;
#348 = ORIENTED_EDGE ( 'NONE', *, *, #134, .T. ) ;
#349 = CARTESIAN_POINT ( 'NONE',  ( 0.000000000000000000, 0.000000000000000000, 5.500000000000005329 ) ) ;
#350 = DIRECTION ( 'NONE',  ( 0.000000000000000000, 0.000000000000000000, -1.000000000000000000 ) ) ;
#351 = VERTEX_POINT ( 'NONE', #233 ) ;
#352 = APPROVAL_STATUS ( 'not_yet_approved' ) ;
#353 = CC_DESIGN_APPROVAL ( #264, ( #139 ) ) ;
#354 = APPROVAL_DATE_TIME ( #144, #271 ) ;
#355 = DIRECTION ( 'NONE',  ( 0.000000000000000000, -1.000000000000000000, 0.000000000000000000 ) ) ;
#356 = EDGE_LOOP ( 'NONE', ( #193, #103 ) ) ;
#357 = CARTESIAN_POINT ( 'NONE',  ( 0.000000000000000000, 0.000000000000000000, 205.0000000000000284 ) ) ;
#358 = DIRECTION ( 'NONE',  ( 0.000000000000000000, 0.000000000000000000, 1.000000000000000000 ) ) ;
#359 = VECTOR ( 'NONE', #372, 1000.000000000000000 ) ;
#360 = CARTESIAN_POINT ( 'NONE',  ( -4.500000000000000888, 5.510910596163089556E-16, 5.500000000000005329 ) ) ;
#361 = LOCAL_TIME ( 17, 31, 44.00000000000000000, #346 ) ;
#362 = EDGE_CURVE ( 'NONE', #339, #196, #261, .T. ) ;
#363 = CC_DESIGN_PERSON_AND_ORGANIZATION_ASSIGNMENT ( #186, #51, ( #20 ) ) ;
#364 = CARTESIAN_POINT ( 'NONE',  ( 4.000000000000000000, 4.898587196589412829E-16, 205.0000000000000284 ) ) ;
#365 = UNCERTAINTY_MEASURE_WITH_UNIT (LENGTH_MEASURE( 1.000000000000000082E-05 ), #256, 'distance_accuracy_value', 'NONE');
#366 = DIRECTION ( 'NONE',  ( -1.000000000000000000, 0.000000000000000000, 0.000000000000000000 ) ) ;
#367 = EDGE_CURVE ( 'NONE', #381, #173, #217, .T. ) ;
#368 = AXIS2_PLACEMENT_3D ( 'NONE', #118, #303, #161 ) ;
#369 = DATE_AND_TIME ( #79, #302 ) ;
#370 = CARTESIAN_POINT ( 'NONE',  ( 0.000000000000000000, 0.000000000000000000, 5.500000000000005329 ) ) ;
#371 = DIRECTION ( 'NONE',  ( 1.000000000000000000, 0.000000000000000000, 0.000000000000000000 ) ) ;
#372 = DIRECTION ( 'NONE',  ( 0.000000000000000000, 0.000000000000000000, -1.000000000000000000 ) ) ;
#373 = CYLINDRICAL_SURFACE ( 'NONE', #189, 7.000000000000000000 ) ;
#374 = PERSON_AND_ORGANIZATION ( #242, #270 ) ;
#375 = AXIS2_PLACEMENT_3D ( 'NONE', #269, #152, #8 ) ;
#376 = DIRECTION ( 'NONE',  ( -0.000000000000000000, -0.000000000000000000, -1.000000000000000000 ) ) ;
#377 = EDGE_LOOP ( 'NONE', ( #279, #337, #229, #141 ) ) ;
#378 =( NAMED_UNIT ( * ) SI_UNIT ( $, .STERADIAN. ) SOLID_ANGLE_UNIT ( ) );
#379 = PLANE ( 'NONE',  #109 ) ;
#380 = EDGE_LOOP ( 'NONE', ( #64, #78, #327, #345 ) ) ;
#381 = VERTEX_POINT ( 'NONE', #187 ) ;
ENDSEC;
END-ISO-10303-21;
