ISO-10303-21;
HEADER;
FILE_DESCRIPTION (( 'STEP AP203' ),
    '1' );
FILE_NAME ('5a8e.STEP',
    '2022-07-08T15:45:33',
    ( '' ),
    ( '' ),
    'SwSTEP 2.0',
    'SolidWorks 2019',
    '' );
FILE_SCHEMA (( 'CONFIG_CONTROL_DESIGN' ));
ENDSEC;

DATA;
#1 = VERTEX_POINT ( 'NONE', #306 ) ;
#2 = CARTESIAN_POINT ( 'NONE',  ( -2.799999999999999822, 3.429011037612588783E-16, 3.299999999999997158 ) ) ;
#3 = ADVANCED_FACE ( 'NONE', ( #285 ), #282, .T. ) ;
#4 = CARTESIAN_POINT ( 'NONE',  ( 5.000000000000000000, 6.123233995736766282E-16, 3.000000000000000000 ) ) ;
#5 = CARTESIAN_POINT ( 'NONE',  ( 2.500000000000000000, 3.061616997868383141E-16, 163.0000000000000000 ) ) ;
#6 = EDGE_LOOP ( 'NONE', ( #307, #240, #232, #52 ) ) ;
#7 = AXIS2_PLACEMENT_3D ( 'NONE', #155, #191, #278 ) ;
#8 = ADVANCED_FACE ( 'NONE', ( #77 ), #72, .T. ) ;
#9 = CARTESIAN_POINT ( 'NONE',  ( -1.500000000000000222, 0.000000000000000000, 163.0000000000000000 ) ) ;
#10 = APPROVAL_ROLE ( '' ) ;
#11 = ORIENTED_EDGE ( 'NONE', *, *, #34, .T. ) ;
#12 = EDGE_CURVE ( 'NONE', #31, #196, #128, .T. ) ;
#13 = ADVANCED_BREP_SHAPE_REPRESENTATION ( '5a8e', ( #256, #260 ), #252 ) ;
#14 = DIRECTION ( 'NONE',  ( -0.000000000000000000, -0.000000000000000000, -1.000000000000000000 ) ) ;
#15 = DIRECTION ( 'NONE',  ( 0.000000000000000000, 0.000000000000000000, 1.000000000000000000 ) ) ;
#16 = DIRECTION ( 'NONE',  ( 0.000000000000000000, 0.000000000000000000, 1.000000000000000000 ) ) ;
#17 = VERTEX_POINT ( 'NONE', #107 ) ;
#18 = APPLICATION_PROTOCOL_DEFINITION ( 'international standard', 'config_control_design', 1994, #257 ) ;
#19 = DIRECTION ( 'NONE',  ( -0.000000000000000000, -0.000000000000000000, -1.000000000000000000 ) ) ;
#20 = CC_DESIGN_PERSON_AND_ORGANIZATION_ASSIGNMENT ( #248, #132, ( #174 ) ) ;
#21 = DIRECTION ( 'NONE',  ( 0.000000000000000000, 0.000000000000000000, 1.000000000000000000 ) ) ;
#22 = CIRCLE ( 'NONE', #66, 5.000000000000000000 ) ;
#23 = PLANE ( 'NONE',  #151 ) ;
#24 = EDGE_LOOP ( 'NONE', ( #65, #277 ) ) ;
#25 = LOCAL_TIME ( 17, 45, 33.00000000000000000, #241 ) ;
#26 = CARTESIAN_POINT ( 'NONE',  ( 0.000000000000000000, 0.000000000000000000, 0.000000000000000000 ) ) ;
#27 = CARTESIAN_POINT ( 'NONE',  ( 1.500000000000000222, 1.836970198721030181E-16, 163.0000000000000000 ) ) ;
#28 = CARTESIAN_POINT ( 'NONE',  ( -1.500000000000000222, 0.000000000000000000, 0.000000000000000000 ) ) ;
#29 = CC_DESIGN_SECURITY_CLASSIFICATION ( #194, ( #124 ) ) ;
#30 = DIRECTION ( 'NONE',  ( 1.000000000000000000, 0.000000000000000000, 0.000000000000000000 ) ) ;
#31 = VERTEX_POINT ( 'NONE', #133 ) ;
#32 = PRODUCT_DEFINITION_SHAPE ( 'NONE', 'NONE',  #174 ) ;
#33 = FACE_BOUND ( 'NONE', #262, .T. ) ;
#34 = EDGE_CURVE ( 'NONE', #31, #274, #142, .T. ) ;
#35 = CARTESIAN_POINT ( 'NONE',  ( 1.500000000000000222, 1.836970198721030181E-16, 163.0000000000000000 ) ) ;
#36 = CIRCLE ( 'NONE', #60, 2.799999999999999822 ) ;
#37 = CIRCLE ( 'NONE', #370, 2.799999999999999822 ) ;
#38 = EDGE_LOOP ( 'NONE', ( #171, #366, #318, #376 ) ) ;
#39 = CARTESIAN_POINT ( 'NONE',  ( 0.000000000000000000, 0.000000000000000000, 0.000000000000000000 ) ) ;
#40 = DIRECTION ( 'NONE',  ( -1.000000000000000000, 0.000000000000000000, 0.000000000000000000 ) ) ;
#41 = APPROVAL_ROLE ( '' ) ;
#42 = ADVANCED_FACE ( 'NONE', ( #247 ), #220, .T. ) ;
#43 = ORIENTED_EDGE ( 'NONE', *, *, #321, .T. ) ;
#44 = DATE_AND_TIME ( #362, #346 ) ;
#45 = ORIENTED_EDGE ( 'NONE', *, *, #93, .T. ) ;
#46 = EDGE_LOOP ( 'NONE', ( #70, #324, #43, #270 ) ) ;
#47 = EDGE_CURVE ( 'NONE', #140, #17, #361, .T. ) ;
#48 = ORIENTED_EDGE ( 'NONE', *, *, #234, .F. ) ;
#49 = DIRECTION ( 'NONE',  ( 0.000000000000000000, 0.000000000000000000, 1.000000000000000000 ) ) ;
#50 = AXIS2_PLACEMENT_3D ( 'NONE', #264, #148, #120 ) ;
#51 = EDGE_CURVE ( 'NONE', #344, #196, #296, .T. ) ;
#52 = ORIENTED_EDGE ( 'NONE', *, *, #298, .T. ) ;
#53 = ORIENTED_EDGE ( 'NONE', *, *, #197, .T. ) ;
#54 = FACE_OUTER_BOUND ( 'NONE', #24, .T. ) ;
#55 = EDGE_LOOP ( 'NONE', ( #209, #295 ) ) ;
#56 = AXIS2_PLACEMENT_3D ( 'NONE', #208, #273, #299 ) ;
#57 = FACE_OUTER_BOUND ( 'NONE', #268, .T. ) ;
#58 = LINE ( 'NONE', #92, #212 ) ;
#59 = FACE_BOUND ( 'NONE', #169, .T. ) ;
#60 = AXIS2_PLACEMENT_3D ( 'NONE', #79, #166, #379 ) ;
#61 = CIRCLE ( 'NONE', #315, 1.500000000000000222 ) ;
#62 = CARTESIAN_POINT ( 'NONE',  ( 0.000000000000000000, 0.000000000000000000, 163.0000000000000000 ) ) ;
#63 = ADVANCED_FACE ( 'NONE', ( #320 ), #203, .T. ) ;
#64 = CARTESIAN_POINT ( 'NONE',  ( -2.799999999999999822, 3.429011037612589276E-16, 2.999999999999998668 ) ) ;
#65 = ORIENTED_EDGE ( 'NONE', *, *, #228, .F. ) ;
#66 = AXIS2_PLACEMENT_3D ( 'NONE', #231, #349, #319 ) ;
#67 = PERSON_AND_ORGANIZATION_ROLE ( 'creator' ) ;
#68 = ORIENTED_EDGE ( 'NONE', *, *, #305, .T. ) ;
#69 = APPLICATION_PROTOCOL_DEFINITION ( 'international standard', 'config_control_design', 1994, #195 ) ;
#70 = ORIENTED_EDGE ( 'NONE', *, *, #99, .F. ) ;
#71 =( LENGTH_UNIT ( ) NAMED_UNIT ( * ) SI_UNIT ( .MILLI., .METRE. ) );
#72 = CYLINDRICAL_SURFACE ( 'NONE', #7, 5.000000000000000000 ) ;
#73 = SECURITY_CLASSIFICATION_LEVEL ( 'unclassified' ) ;
#74 = CIRCLE ( 'NONE', #123, 1.500000000000000222 ) ;
#75 = ORIENTED_EDGE ( 'NONE', *, *, #197, .F. ) ;
#76 = VECTOR ( 'NONE', #175, 1000.000000000000000 ) ;
#77 = FACE_OUTER_BOUND ( 'NONE', #205, .T. ) ;
#78 = DESIGN_CONTEXT ( 'detailed design', #257, 'design' ) ;
#79 = CARTESIAN_POINT ( 'NONE',  ( 0.000000000000000000, 0.000000000000000000, 3.000000000000000000 ) ) ;
#80 = ADVANCED_FACE ( 'NONE', ( #287 ), #138, .F. ) ;
#81 = DIRECTION ( 'NONE',  ( 1.000000000000000000, 0.000000000000000000, 0.000000000000000000 ) ) ;
#82 = AXIS2_PLACEMENT_3D ( 'NONE', #352, #179, #30 ) ;
#83 = DIRECTION ( 'NONE',  ( -1.000000000000000000, 0.000000000000000000, 0.000000000000000000 ) ) ;
#84 = COORDINATED_UNIVERSAL_TIME_OFFSET ( 1, 0, .AHEAD. ) ;
#85 = DIRECTION ( 'NONE',  ( 0.000000000000000000, -1.000000000000000000, 0.000000000000000000 ) ) ;
#86 = FACE_OUTER_BOUND ( 'NONE', #190, .T. ) ;
#87 = EDGE_CURVE ( 'NONE', #222, #17, #36, .T. ) ;
#88 = EDGE_LOOP ( 'NONE', ( #199, #157, #162, #322 ) ) ;
#89 = AXIS2_PLACEMENT_3D ( 'NONE', #225, #21, #114 ) ;
#90 = ORGANIZATION ( 'NEURÈENÝ', 'NEURÈENÝ', '' ) ;
#91 = DIRECTION ( 'NONE',  ( -0.000000000000000000, -0.000000000000000000, -1.000000000000000000 ) ) ;
#92 = CARTESIAN_POINT ( 'NONE',  ( -2.500000000000000000, 0.000000000000000000, 163.0000000000000000 ) ) ;
#93 = EDGE_CURVE ( 'NONE', #96, #338, #74, .T. ) ;
#94 = DIRECTION ( 'NONE',  ( 0.000000000000000000, 0.000000000000000000, 1.000000000000000000 ) ) ;
#95 = DIRECTION ( 'NONE',  ( 0.000000000000000000, 0.000000000000000000, 1.000000000000000000 ) ) ;
#96 = VERTEX_POINT ( 'NONE', #112 ) ;
#97 = FACE_OUTER_BOUND ( 'NONE', #312, .T. ) ;
#98 = ORIENTED_EDGE ( 'NONE', *, *, #93, .F. ) ;
#99 = EDGE_CURVE ( 'NONE', #290, #140, #163, .T. ) ;
#100 = AXIS2_PLACEMENT_3D ( 'NONE', #243, #334, #40 ) ;
#101 = TOROIDAL_SURFACE ( 'NONE', #363, 2.799999999999999822, 0.2999999999999999889 ) ;
#102 = ORIENTED_EDGE ( 'NONE', *, *, #271, .T. ) ;
#103 =( NAMED_UNIT ( * ) SI_UNIT ( $, .STERADIAN. ) SOLID_ANGLE_UNIT ( ) );
#104 = DATE_TIME_ROLE ( 'creation_date' ) ;
#105 = ORIENTED_EDGE ( 'NONE', *, *, #321, .F. ) ;
#106 = DIRECTION ( 'NONE',  ( 1.000000000000000000, 0.000000000000000000, 0.000000000000000000 ) ) ;
#107 = CARTESIAN_POINT ( 'NONE',  ( 2.799999999999999822, 0.000000000000000000, 2.999999999999998668 ) ) ;
#108 = CIRCLE ( 'NONE', #297, 1.500000000000000222 ) ;
#109 = FACE_BOUND ( 'NONE', #55, .T. ) ;
#110 = CARTESIAN_POINT ( 'NONE',  ( 0.000000000000000000, 0.000000000000000000, 163.0000000000000000 ) ) ;
#111 = APPROVAL ( #341, 'NEURÈENÝ' ) ;
#112 = CARTESIAN_POINT ( 'NONE',  ( -1.500000000000000222, 0.000000000000000000, 163.0000000000000000 ) ) ;
#113 = LOCAL_TIME ( 17, 45, 33.00000000000000000, #84 ) ;
#114 = DIRECTION ( 'NONE',  ( 1.000000000000000000, 0.000000000000000000, 0.000000000000000000 ) ) ;
#115 = DIRECTION ( 'NONE',  ( 1.000000000000000000, 0.000000000000000000, 0.000000000000000000 ) ) ;
#116 = TOROIDAL_SURFACE ( 'NONE', #335, 2.799999999999999822, 0.2999999999999999889 ) ;
#117 = LINE ( 'NONE', #35, #328 ) ;
#118 = ADVANCED_FACE ( 'NONE', ( #109, #54 ), #23, .F. ) ;
#119 = PLANE ( 'NONE',  #50 ) ;
#120 = DIRECTION ( 'NONE',  ( 1.000000000000000000, 0.000000000000000000, -0.000000000000000000 ) ) ;
#121 = AXIS2_PLACEMENT_3D ( 'NONE', #313, #85, #348 ) ;
#122 = EDGE_LOOP ( 'NONE', ( #75, #250, #330, #105 ) ) ;
#123 = AXIS2_PLACEMENT_3D ( 'NONE', #110, #288, #261 ) ;
#124 = PRODUCT_DEFINITION_FORMATION_WITH_SPECIFIED_SOURCE ( 'LIBOVOLNÝ', '', #147, .NOT_KNOWN. ) ;
#125 = CARTESIAN_POINT ( 'NONE',  ( 0.000000000000000000, 0.000000000000000000, 163.0000000000000000 ) ) ;
#126 = CALENDAR_DATE ( 2022, 8, 7 ) ;
#127 = PRODUCT_RELATED_PRODUCT_CATEGORY ( 'detail', '', ( #147 ) ) ;
#128 = LINE ( 'NONE', #280, #314 ) ;
#129 = PERSON_AND_ORGANIZATION ( #206, #90 ) ;
#130 = DIRECTION ( 'NONE',  ( 1.000000000000000000, 0.000000000000000000, 0.000000000000000000 ) ) ;
#131 = CARTESIAN_POINT ( 'NONE',  ( 0.000000000000000000, 0.000000000000000000, 3.000000000000000000 ) ) ;
#132 = PERSON_AND_ORGANIZATION_ROLE ( 'creator' ) ;
#133 = CARTESIAN_POINT ( 'NONE',  ( -5.000000000000000000, 0.000000000000000000, 3.000000000000000000 ) ) ;
#134 = CARTESIAN_POINT ( 'NONE',  ( -5.000000000000000000, 0.000000000000000000, 0.000000000000000000 ) ) ;
#135 = CC_DESIGN_APPROVAL ( #347, ( #174 ) ) ;
#136 = CARTESIAN_POINT ( 'NONE',  ( 0.000000000000000000, 0.000000000000000000, 0.000000000000000000 ) ) ;
#137 = SHAPE_DEFINITION_REPRESENTATION ( #32, #13 ) ;
#138 = CYLINDRICAL_SURFACE ( 'NONE', #251, 1.500000000000000222 ) ;
#139 = CARTESIAN_POINT ( 'NONE',  ( 2.500000000000000000, 3.061616997868383141E-16, 3.299999999999997158 ) ) ;
#140 = VERTEX_POINT ( 'NONE', #139 ) ;
#141 = CYLINDRICAL_SURFACE ( 'NONE', #275, 1.500000000000000222 ) ;
#142 = CIRCLE ( 'NONE', #291, 5.000000000000000000 ) ;
#143 = DIRECTION ( 'NONE',  ( -0.000000000000000000, -0.000000000000000000, -1.000000000000000000 ) ) ;
#144 = ORIENTED_EDGE ( 'NONE', *, *, #47, .T. ) ;
#145 = CIRCLE ( 'NONE', #82, 5.000000000000000000 ) ;
#146 = DIRECTION ( 'NONE',  ( 0.000000000000000000, 0.000000000000000000, -1.000000000000000000 ) ) ;
#147 = PRODUCT ( '5a8e', '5a8e', '', ( #216 ) ) ;
#148 = DIRECTION ( 'NONE',  ( 0.000000000000000000, 0.000000000000000000, 1.000000000000000000 ) ) ;
#149 = CARTESIAN_POINT ( 'NONE',  ( 5.000000000000000000, 6.123233995736766282E-16, 0.000000000000000000 ) ) ;
#150 = ORIENTED_EDGE ( 'NONE', *, *, #12, .T. ) ;
#151 = AXIS2_PLACEMENT_3D ( 'NONE', #26, #345, #375 ) ;
#152 = VECTOR ( 'NONE', #91, 1000.000000000000000 ) ;
#153 = EDGE_CURVE ( 'NONE', #140, #1, #369, .T. ) ;
#154 = DIRECTION ( 'NONE',  ( 1.000000000000000000, 0.000000000000000000, 0.000000000000000000 ) ) ;
#155 = CARTESIAN_POINT ( 'NONE',  ( 0.000000000000000000, 0.000000000000000000, 3.000000000000000000 ) ) ;
#156 = CARTESIAN_POINT ( 'NONE',  ( 1.500000000000000222, 1.836970198721030181E-16, 0.000000000000000000 ) ) ;
#157 = ORIENTED_EDGE ( 'NONE', *, *, #316, .T. ) ;
#158 = CC_DESIGN_PERSON_AND_ORGANIZATION_ASSIGNMENT ( #331, #284, ( #147 ) ) ;
#159 = LOCAL_TIME ( 17, 45, 33.00000000000000000, #368 ) ;
#160 = PERSON_AND_ORGANIZATION ( #206, #90 ) ;
#161 = DATE_TIME_ROLE ( 'classification_date' ) ;
#162 = ORIENTED_EDGE ( 'NONE', *, *, #305, .F. ) ;
#163 = LINE ( 'NONE', #253, #309 ) ;
#164 = CC_DESIGN_DATE_AND_TIME_ASSIGNMENT ( #187, #104, ( #174 ) ) ;
#165 = APPROVAL_PERSON_ORGANIZATION ( #221, #111, #41 ) ;
#166 = DIRECTION ( 'NONE',  ( -0.000000000000000000, -0.000000000000000000, -1.000000000000000000 ) ) ;
#167 = DATE_AND_TIME ( #343, #113 ) ;
#168 = CC_DESIGN_PERSON_AND_ORGANIZATION_ASSIGNMENT ( #129, #189, ( #194 ) ) ;
#169 = EDGE_LOOP ( 'NONE', ( #68, #178 ) ) ;
#170 = AXIS2_PLACEMENT_3D ( 'NONE', #2, #238, #293 ) ;
#171 = ORIENTED_EDGE ( 'NONE', *, *, #180, .F. ) ;
#172 = DIRECTION ( 'NONE',  ( 1.000000000000000000, 0.000000000000000000, 0.000000000000000000 ) ) ;
#173 = DIRECTION ( 'NONE',  ( 0.000000000000000000, 0.000000000000000000, 1.000000000000000000 ) ) ;
#174 = PRODUCT_DEFINITION ( 'NEZNÁMÝ', '', #124, #78 ) ;
#175 = DIRECTION ( 'NONE',  ( 0.000000000000000000, 0.000000000000000000, -1.000000000000000000 ) ) ;
#176 = ORIENTED_EDGE ( 'NONE', *, *, #153, .F. ) ;
#177 = FACE_OUTER_BOUND ( 'NONE', #311, .T. ) ;
#178 = ORIENTED_EDGE ( 'NONE', *, *, #87, .T. ) ;
#179 = DIRECTION ( 'NONE',  ( 0.000000000000000000, 0.000000000000000000, 1.000000000000000000 ) ) ;
#180 = EDGE_CURVE ( 'NONE', #274, #31, #22, .T. ) ;
#181 = UNCERTAINTY_MEASURE_WITH_UNIT (LENGTH_MEASURE( 1.000000000000000082E-05 ), #71, 'distance_accuracy_value', 'NONE');
#182 = AXIS2_PLACEMENT_3D ( 'NONE', #233, #173, #326 ) ;
#183 = PERSON_AND_ORGANIZATION ( #206, #90 ) ;
#184 = ORIENTED_EDGE ( 'NONE', *, *, #255, .F. ) ;
#185 = ADVANCED_FACE ( 'NONE', ( #86 ), #116, .F. ) ;
#186 = DATE_AND_TIME ( #126, #159 ) ;
#187 = DATE_AND_TIME ( #359, #25 ) ;
#188 = DIRECTION ( 'NONE',  ( -0.000000000000000000, -0.000000000000000000, -1.000000000000000000 ) ) ;
#189 = PERSON_AND_ORGANIZATION_ROLE ( 'classification_officer' ) ;
#190 = EDGE_LOOP ( 'NONE', ( #350, #176, #144, #360 ) ) ;
#191 = DIRECTION ( 'NONE',  ( -0.000000000000000000, -0.000000000000000000, -1.000000000000000000 ) ) ;
#192 = APPROVAL ( #226, 'NEURÈENÝ' ) ;
#193 = CARTESIAN_POINT ( 'NONE',  ( 0.000000000000000000, 0.000000000000000000, 3.299999999999997158 ) ) ;
#194 = SECURITY_CLASSIFICATION ( '', '', #73 ) ;
#195 = APPLICATION_CONTEXT ( 'configuration controlled 3d designs of mechanical parts and assemblies' ) ;
#196 = VERTEX_POINT ( 'NONE', #134 ) ;
#197 = EDGE_CURVE ( 'NONE', #290, #300, #245, .T. ) ;
#198 = DIRECTION ( 'NONE',  ( -0.000000000000000000, -0.000000000000000000, -1.000000000000000000 ) ) ;
#199 = ORIENTED_EDGE ( 'NONE', *, *, #214, .F. ) ;
#200 = PERSON_AND_ORGANIZATION ( #206, #90 ) ;
#201 = DIRECTION ( 'NONE',  ( -1.000000000000000000, 0.000000000000000000, 0.000000000000000000 ) ) ;
#202 = AXIS2_PLACEMENT_3D ( 'NONE', #378, #198, #201 ) ;
#203 = CYLINDRICAL_SURFACE ( 'NONE', #202, 2.500000000000000000 ) ;
#204 = CIRCLE ( 'NONE', #182, 2.500000000000000000 ) ;
#205 = EDGE_LOOP ( 'NONE', ( #48, #224, #150, #259 ) ) ;
#206 = PERSON ( 'NEURÈENÝ', 'NEURÈENÝ', 'NEURÈENÝ', ('NEURÈENÝ'), ('NEURÈENÝ'), ('NEURÈENÝ') ) ;
#207 = FACE_OUTER_BOUND ( 'NONE', #88, .T. ) ;
#208 = CARTESIAN_POINT ( 'NONE',  ( 0.000000000000000000, 0.000000000000000000, 163.0000000000000000 ) ) ;
#209 = ORIENTED_EDGE ( 'NONE', *, *, #298, .F. ) ;
#210 = DIRECTION ( 'NONE',  ( -0.000000000000000000, -0.000000000000000000, -1.000000000000000000 ) ) ;
#211 = ORIENTED_EDGE ( 'NONE', *, *, #372, .F. ) ;
#212 = VECTOR ( 'NONE', #354, 1000.000000000000000 ) ;
#213 = CARTESIAN_POINT ( 'NONE',  ( 0.000000000000000000, 0.000000000000000000, 3.000000000000000000 ) ) ;
#214 = EDGE_CURVE ( 'NONE', #1, #140, #204, .T. ) ;
#215 = PLANE ( 'NONE',  #229 ) ;
#216 = MECHANICAL_CONTEXT ( 'NONE', #195, 'mechanical' ) ;
#217 = ORIENTED_EDGE ( 'NONE', *, *, #180, .T. ) ;
#218 = PERSON_AND_ORGANIZATION ( #206, #90 ) ;
#219 = DIRECTION ( 'NONE',  ( 1.000000000000000000, 0.000000000000000000, 0.000000000000000000 ) ) ;
#220 = CYLINDRICAL_SURFACE ( 'NONE', #374, 2.500000000000000000 ) ;
#221 = PERSON_AND_ORGANIZATION ( #206, #90 ) ;
#222 = VERTEX_POINT ( 'NONE', #64 ) ;
#223 = APPROVAL_PERSON_ORGANIZATION ( #200, #192, #286 ) ;
#224 = ORIENTED_EDGE ( 'NONE', *, *, #34, .F. ) ;
#225 = CARTESIAN_POINT ( 'NONE',  ( 0.000000000000000000, 0.000000000000000000, 3.299999999999997158 ) ) ;
#226 = APPROVAL_STATUS ( 'not_yet_approved' ) ;
#227 = AXIS2_PLACEMENT_3D ( 'NONE', #136, #317, #289 ) ;
#228 = EDGE_CURVE ( 'NONE', #196, #344, #145, .T. ) ;
#229 = AXIS2_PLACEMENT_3D ( 'NONE', #213, #272, #236 ) ;
#230 = DIRECTION ( 'NONE',  ( -1.000000000000000000, 0.000000000000000000, 0.000000000000000000 ) ) ;
#231 = CARTESIAN_POINT ( 'NONE',  ( 0.000000000000000000, 0.000000000000000000, 3.000000000000000000 ) ) ;
#232 = ORIENTED_EDGE ( 'NONE', *, *, #255, .T. ) ;
#233 = CARTESIAN_POINT ( 'NONE',  ( 0.000000000000000000, 0.000000000000000000, 3.299999999999997158 ) ) ;
#234 = EDGE_CURVE ( 'NONE', #274, #344, #381, .T. ) ;
#235 = DIRECTION ( 'NONE',  ( 0.000000000000000000, 0.000000000000000000, -1.000000000000000000 ) ) ;
#236 = DIRECTION ( 'NONE',  ( 1.000000000000000000, 0.000000000000000000, -0.000000000000000000 ) ) ;
#237 = ADVANCED_FACE ( 'NONE', ( #207 ), #101, .F. ) ;
#238 = DIRECTION ( 'NONE',  ( 1.224646799147353207E-16, 1.000000000000000000, -0.000000000000000000 ) ) ;
#239 = CARTESIAN_POINT ( 'NONE',  ( 5.000000000000000000, 6.123233995736766282E-16, 3.000000000000000000 ) ) ;
#240 = ORIENTED_EDGE ( 'NONE', *, *, #372, .T. ) ;
#241 = COORDINATED_UNIVERSAL_TIME_OFFSET ( 1, 0, .AHEAD. ) ;
#242 = VERTEX_POINT ( 'NONE', #28 ) ;
#243 = CARTESIAN_POINT ( 'NONE',  ( 0.000000000000000000, 0.000000000000000000, 3.000000000000000000 ) ) ;
#244 = ADVANCED_FACE ( 'NONE', ( #59, #97 ), #215, .T. ) ;
#245 = CIRCLE ( 'NONE', #56, 2.500000000000000000 ) ;
#246 = CALENDAR_DATE ( 2022, 8, 7 ) ;
#247 = FACE_OUTER_BOUND ( 'NONE', #46, .T. ) ;
#248 = PERSON_AND_ORGANIZATION ( #206, #90 ) ;
#249 = ADVANCED_FACE ( 'NONE', ( #33, #177 ), #119, .T. ) ;
#250 = ORIENTED_EDGE ( 'NONE', *, *, #99, .T. ) ;
#251 = AXIS2_PLACEMENT_3D ( 'NONE', #258, #373, #230 ) ;
#252 =( GEOMETRIC_REPRESENTATION_CONTEXT ( 3 ) GLOBAL_UNCERTAINTY_ASSIGNED_CONTEXT ( ( #181 ) ) GLOBAL_UNIT_ASSIGNED_CONTEXT ( ( #71, #276, #103 ) ) REPRESENTATION_CONTEXT ( 'NONE', 'WORKASPACE' ) );
#253 = CARTESIAN_POINT ( 'NONE',  ( 2.500000000000000000, 3.061616997868383141E-16, 163.0000000000000000 ) ) ;
#254 = APPROVAL_DATE_TIME ( #167, #192 ) ;
#255 = EDGE_CURVE ( 'NONE', #96, #242, #355, .T. ) ;
#256 = MANIFOLD_SOLID_BREP ( 'Odebrat vysunutím3', #302 ) ;
#257 = APPLICATION_CONTEXT ( 'configuration controlled 3d designs of mechanical parts and assemblies' ) ;
#258 = CARTESIAN_POINT ( 'NONE',  ( 0.000000000000000000, 0.000000000000000000, 163.0000000000000000 ) ) ;
#259 = ORIENTED_EDGE ( 'NONE', *, *, #228, .T. ) ;
#260 = AXIS2_PLACEMENT_3D ( 'NONE', #39, #16, #219 ) ;
#261 = DIRECTION ( 'NONE',  ( 1.000000000000000000, 0.000000000000000000, 0.000000000000000000 ) ) ;
#262 = EDGE_LOOP ( 'NONE', ( #98, #211 ) ) ;
#263 = CC_DESIGN_DATE_AND_TIME_ASSIGNMENT ( #365, #161, ( #194 ) ) ;
#264 = CARTESIAN_POINT ( 'NONE',  ( 0.000000000000000000, 0.000000000000000000, 163.0000000000000000 ) ) ;
#265 = DIRECTION ( 'NONE',  ( 0.000000000000000000, 0.000000000000000000, 1.000000000000000000 ) ) ;
#266 = CIRCLE ( 'NONE', #267, 1.500000000000000222 ) ;
#267 = AXIS2_PLACEMENT_3D ( 'NONE', #357, #143, #329 ) ;
#268 = EDGE_LOOP ( 'NONE', ( #45, #367, #358, #184 ) ) ;
#269 = DIRECTION ( 'NONE',  ( 1.000000000000000000, 0.000000000000000000, 0.000000000000000000 ) ) ;
#270 = ORIENTED_EDGE ( 'NONE', *, *, #214, .T. ) ;
#271 = EDGE_CURVE ( 'NONE', #300, #290, #356, .T. ) ;
#272 = DIRECTION ( 'NONE',  ( 0.000000000000000000, 0.000000000000000000, 1.000000000000000000 ) ) ;
#273 = DIRECTION ( 'NONE',  ( 0.000000000000000000, 0.000000000000000000, 1.000000000000000000 ) ) ;
#274 = VERTEX_POINT ( 'NONE', #239 ) ;
#275 = AXIS2_PLACEMENT_3D ( 'NONE', #353, #146, #327 ) ;
#276 =( NAMED_UNIT ( * ) PLANE_ANGLE_UNIT ( ) SI_UNIT ( $, .RADIAN. ) );
#277 = ORIENTED_EDGE ( 'NONE', *, *, #51, .F. ) ;
#278 = DIRECTION ( 'NONE',  ( -1.000000000000000000, 0.000000000000000000, 0.000000000000000000 ) ) ;
#279 = APPROVAL_DATE_TIME ( #44, #111 ) ;
#280 = CARTESIAN_POINT ( 'NONE',  ( -5.000000000000000000, 0.000000000000000000, 3.000000000000000000 ) ) ;
#281 = CC_DESIGN_APPROVAL ( #111, ( #124 ) ) ;
#282 = CYLINDRICAL_SURFACE ( 'NONE', #100, 5.000000000000000000 ) ;
#283 = CC_DESIGN_PERSON_AND_ORGANIZATION_ASSIGNMENT ( #218, #337, ( #124 ) ) ;
#284 = PERSON_AND_ORGANIZATION_ROLE ( 'design_owner' ) ;
#285 = FACE_OUTER_BOUND ( 'NONE', #38, .T. ) ;
#286 = APPROVAL_ROLE ( '' ) ;
#287 = FACE_OUTER_BOUND ( 'NONE', #6, .T. ) ;
#288 = DIRECTION ( 'NONE',  ( 0.000000000000000000, 0.000000000000000000, 1.000000000000000000 ) ) ;
#289 = DIRECTION ( 'NONE',  ( 1.000000000000000000, 0.000000000000000000, 0.000000000000000000 ) ) ;
#290 = VERTEX_POINT ( 'NONE', #5 ) ;
#291 = AXIS2_PLACEMENT_3D ( 'NONE', #131, #15, #130 ) ;
#292 = LOCAL_TIME ( 17, 45, 33.00000000000000000, #310 ) ;
#293 = DIRECTION ( 'NONE',  ( -1.000000000000000000, 1.224646799147353207E-16, 0.000000000000000000 ) ) ;
#294 = CARTESIAN_POINT ( 'NONE',  ( 0.000000000000000000, 0.000000000000000000, 3.299999999999997158 ) ) ;
#295 = ORIENTED_EDGE ( 'NONE', *, *, #377, .F. ) ;
#296 = CIRCLE ( 'NONE', #227, 5.000000000000000000 ) ;
#297 = AXIS2_PLACEMENT_3D ( 'NONE', #339, #14, #106 ) ;
#298 = EDGE_CURVE ( 'NONE', #242, #380, #266, .T. ) ;
#299 = DIRECTION ( 'NONE',  ( 1.000000000000000000, 0.000000000000000000, 0.000000000000000000 ) ) ;
#300 = VERTEX_POINT ( 'NONE', #323 ) ;
#301 = CARTESIAN_POINT ( 'NONE',  ( 0.000000000000000000, 0.000000000000000000, 3.000000000000000000 ) ) ;
#302 = CLOSED_SHELL ( 'NONE', ( #364, #237, #63, #3, #8, #244, #118, #42, #249, #185, #80 ) ) ;
#303 = APPROVAL_DATE_TIME ( #186, #347 ) ;
#304 = APPROVAL_PERSON_ORGANIZATION ( #183, #347, #10 ) ;
#305 = EDGE_CURVE ( 'NONE', #17, #222, #37, .T. ) ;
#306 = CARTESIAN_POINT ( 'NONE',  ( -2.500000000000000000, 0.000000000000000000, 3.299999999999997158 ) ) ;
#307 = ORIENTED_EDGE ( 'NONE', *, *, #325, .F. ) ;
#308 = COORDINATED_UNIVERSAL_TIME_OFFSET ( 1, 0, .AHEAD. ) ;
#309 = VECTOR ( 'NONE', #371, 1000.000000000000000 ) ;
#310 = COORDINATED_UNIVERSAL_TIME_OFFSET ( 1, 0, .AHEAD. ) ;
#311 = EDGE_LOOP ( 'NONE', ( #102, #53 ) ) ;
#312 = EDGE_LOOP ( 'NONE', ( #11, #217 ) ) ;
#313 = CARTESIAN_POINT ( 'NONE',  ( 2.799999999999999822, 0.000000000000000000, 3.299999999999997158 ) ) ;
#314 = VECTOR ( 'NONE', #19, 1000.000000000000000 ) ;
#315 = AXIS2_PLACEMENT_3D ( 'NONE', #125, #94, #154 ) ;
#316 = EDGE_CURVE ( 'NONE', #1, #222, #342, .T. ) ;
#317 = DIRECTION ( 'NONE',  ( 0.000000000000000000, 0.000000000000000000, 1.000000000000000000 ) ) ;
#318 = ORIENTED_EDGE ( 'NONE', *, *, #51, .T. ) ;
#319 = DIRECTION ( 'NONE',  ( 1.000000000000000000, 0.000000000000000000, 0.000000000000000000 ) ) ;
#320 = FACE_OUTER_BOUND ( 'NONE', #122, .T. ) ;
#321 = EDGE_CURVE ( 'NONE', #300, #1, #58, .T. ) ;
#322 = ORIENTED_EDGE ( 'NONE', *, *, #47, .F. ) ;
#323 = CARTESIAN_POINT ( 'NONE',  ( -2.500000000000000000, 0.000000000000000000, 163.0000000000000000 ) ) ;
#324 = ORIENTED_EDGE ( 'NONE', *, *, #271, .F. ) ;
#325 = EDGE_CURVE ( 'NONE', #338, #380, #117, .T. ) ;
#326 = DIRECTION ( 'NONE',  ( 1.000000000000000000, 0.000000000000000000, 0.000000000000000000 ) ) ;
#327 = DIRECTION ( 'NONE',  ( -1.000000000000000000, 0.000000000000000000, 0.000000000000000000 ) ) ;
#328 = VECTOR ( 'NONE', #235, 1000.000000000000000 ) ;
#329 = DIRECTION ( 'NONE',  ( 1.000000000000000000, 0.000000000000000000, 0.000000000000000000 ) ) ;
#330 = ORIENTED_EDGE ( 'NONE', *, *, #153, .T. ) ;
#331 = PERSON_AND_ORGANIZATION ( #206, #90 ) ;
#332 = CC_DESIGN_PERSON_AND_ORGANIZATION_ASSIGNMENT ( #160, #67, ( #124 ) ) ;
#333 = APPROVAL_STATUS ( 'not_yet_approved' ) ;
#334 = DIRECTION ( 'NONE',  ( -0.000000000000000000, -0.000000000000000000, -1.000000000000000000 ) ) ;
#335 = AXIS2_PLACEMENT_3D ( 'NONE', #193, #49, #81 ) ;
#336 = AXIS2_PLACEMENT_3D ( 'NONE', #62, #265, #269 ) ;
#337 = PERSON_AND_ORGANIZATION_ROLE ( 'design_supplier' ) ;
#338 = VERTEX_POINT ( 'NONE', #27 ) ;
#339 = CARTESIAN_POINT ( 'NONE',  ( 0.000000000000000000, 0.000000000000000000, 0.000000000000000000 ) ) ;
#340 = CARTESIAN_POINT ( 'NONE',  ( 0.000000000000000000, 0.000000000000000000, 163.0000000000000000 ) ) ;
#341 = APPROVAL_STATUS ( 'not_yet_approved' ) ;
#342 = CIRCLE ( 'NONE', #170, 0.2999999999999999334 ) ;
#343 = CALENDAR_DATE ( 2022, 8, 7 ) ;
#344 = VERTEX_POINT ( 'NONE', #149 ) ;
#345 = DIRECTION ( 'NONE',  ( 0.000000000000000000, 0.000000000000000000, 1.000000000000000000 ) ) ;
#346 = LOCAL_TIME ( 17, 45, 33.00000000000000000, #308 ) ;
#347 = APPROVAL ( #333, 'NEURÈENÝ' ) ;
#348 = DIRECTION ( 'NONE',  ( 0.000000000000000000, 0.000000000000000000, -1.000000000000000000 ) ) ;
#349 = DIRECTION ( 'NONE',  ( 0.000000000000000000, 0.000000000000000000, 1.000000000000000000 ) ) ;
#350 = ORIENTED_EDGE ( 'NONE', *, *, #316, .F. ) ;
#351 = CC_DESIGN_APPROVAL ( #192, ( #194 ) ) ;
#352 = CARTESIAN_POINT ( 'NONE',  ( 0.000000000000000000, 0.000000000000000000, 0.000000000000000000 ) ) ;
#353 = CARTESIAN_POINT ( 'NONE',  ( 0.000000000000000000, 0.000000000000000000, 163.0000000000000000 ) ) ;
#354 = DIRECTION ( 'NONE',  ( -0.000000000000000000, -0.000000000000000000, -1.000000000000000000 ) ) ;
#355 = LINE ( 'NONE', #9, #76 ) ;
#356 = CIRCLE ( 'NONE', #336, 2.500000000000000000 ) ;
#357 = CARTESIAN_POINT ( 'NONE',  ( 0.000000000000000000, 0.000000000000000000, 0.000000000000000000 ) ) ;
#358 = ORIENTED_EDGE ( 'NONE', *, *, #377, .T. ) ;
#359 = CALENDAR_DATE ( 2022, 8, 7 ) ;
#360 = ORIENTED_EDGE ( 'NONE', *, *, #87, .F. ) ;
#361 = CIRCLE ( 'NONE', #121, 0.2999999999999999334 ) ;
#362 = CALENDAR_DATE ( 2022, 8, 7 ) ;
#363 = AXIS2_PLACEMENT_3D ( 'NONE', #294, #95, #115 ) ;
#364 = ADVANCED_FACE ( 'NONE', ( #57 ), #141, .F. ) ;
#365 = DATE_AND_TIME ( #246, #292 ) ;
#366 = ORIENTED_EDGE ( 'NONE', *, *, #234, .T. ) ;
#367 = ORIENTED_EDGE ( 'NONE', *, *, #325, .T. ) ;
#368 = COORDINATED_UNIVERSAL_TIME_OFFSET ( 1, 0, .AHEAD. ) ;
#369 = CIRCLE ( 'NONE', #89, 2.500000000000000000 ) ;
#370 = AXIS2_PLACEMENT_3D ( 'NONE', #301, #210, #172 ) ;
#371 = DIRECTION ( 'NONE',  ( -0.000000000000000000, -0.000000000000000000, -1.000000000000000000 ) ) ;
#372 = EDGE_CURVE ( 'NONE', #338, #96, #61, .T. ) ;
#373 = DIRECTION ( 'NONE',  ( 0.000000000000000000, 0.000000000000000000, -1.000000000000000000 ) ) ;
#374 = AXIS2_PLACEMENT_3D ( 'NONE', #340, #188, #83 ) ;
#375 = DIRECTION ( 'NONE',  ( 1.000000000000000000, 0.000000000000000000, -0.000000000000000000 ) ) ;
#376 = ORIENTED_EDGE ( 'NONE', *, *, #12, .F. ) ;
#377 = EDGE_CURVE ( 'NONE', #380, #242, #108, .T. ) ;
#378 = CARTESIAN_POINT ( 'NONE',  ( 0.000000000000000000, 0.000000000000000000, 163.0000000000000000 ) ) ;
#379 = DIRECTION ( 'NONE',  ( 1.000000000000000000, 0.000000000000000000, 0.000000000000000000 ) ) ;
#380 = VERTEX_POINT ( 'NONE', #156 ) ;
#381 = LINE ( 'NONE', #4, #152 ) ;
ENDSEC;
END-ISO-10303-21;
