ISO-10303-21;
HEADER;
FILE_DESCRIPTION (( 'STEP AP203' ),
    '1' );
FILE_NAME ('1856.STEP',
    '2022-07-08T14:47:28',
    ( '' ),
    ( '' ),
    'SwSTEP 2.0',
    'SolidWorks 2019',
    '' );
FILE_SCHEMA (( 'CONFIG_CONTROL_DESIGN' ));
ENDSEC;

DATA;
#1 = ORIENTED_EDGE ( 'NONE', *, *, #244, .F. ) ;
#2 = CARTESIAN_POINT ( 'NONE',  ( 5.500000000000000000, 0.000000000000000000, 5.000000000000002665 ) ) ;
#3 = PRODUCT_RELATED_PRODUCT_CATEGORY ( 'detail', '', ( #241 ) ) ;
#4 = MANIFOLD_SOLID_BREP ( 'Odebrat vysunutím3', #237 ) ;
#5 = LINE ( 'NONE', #263, #179 ) ;
#6 = DIRECTION ( 'NONE',  ( 1.000000000000000000, 0.000000000000000000, 0.000000000000000000 ) ) ;
#7 = AXIS2_PLACEMENT_3D ( 'NONE', #151, #35, #97 ) ;
#8 = CC_DESIGN_PERSON_AND_ORGANIZATION_ASSIGNMENT ( #93, #270, ( #137 ) ) ;
#9 =( GEOMETRIC_REPRESENTATION_CONTEXT ( 3 ) GLOBAL_UNCERTAINTY_ASSIGNED_CONTEXT ( ( #157 ) ) GLOBAL_UNIT_ASSIGNED_CONTEXT ( ( #348, #289, #50 ) ) REPRESENTATION_CONTEXT ( 'NONE', 'WORKASPACE' ) );
#10 = DATE_TIME_ROLE ( 'classification_date' ) ;
#11 = FACE_OUTER_BOUND ( 'NONE', #282, .T. ) ;
#12 = COORDINATED_UNIVERSAL_TIME_OFFSET ( 1, 0, .AHEAD. ) ;
#13 = CARTESIAN_POINT ( 'NONE',  ( 0.000000000000000000, 0.000000000000000000, 5.000000000000000000 ) ) ;
#14 = ADVANCED_FACE ( 'NONE', ( #220 ), #30, .F. ) ;
#15 = SECURITY_CLASSIFICATION_LEVEL ( 'unclassified' ) ;
#16 = DIRECTION ( 'NONE',  ( -1.000000000000000000, 1.224646799147351482E-16, 0.000000000000000000 ) ) ;
#17 = FACE_OUTER_BOUND ( 'NONE', #309, .T. ) ;
#18 = CC_DESIGN_DATE_AND_TIME_ASSIGNMENT ( #239, #293, ( #137 ) ) ;
#19 = PLANE ( 'NONE',  #378 ) ;
#20 = CC_DESIGN_DATE_AND_TIME_ASSIGNMENT ( #114, #10, ( #26 ) ) ;
#21 = CARTESIAN_POINT ( 'NONE',  ( 0.000000000000000000, 0.000000000000000000, 105.0000000000000142 ) ) ;
#22 = DIRECTION ( 'NONE',  ( 1.000000000000000000, 0.000000000000000000, 0.000000000000000000 ) ) ;
#23 = EDGE_LOOP ( 'NONE', ( #253, #320, #318, #79 ) ) ;
#24 = CARTESIAN_POINT ( 'NONE',  ( 0.000000000000000000, 0.000000000000000000, 105.0000000000000142 ) ) ;
#25 = AXIS2_PLACEMENT_3D ( 'NONE', #59, #178, #6 ) ;
#26 = SECURITY_CLASSIFICATION ( '', '', #15 ) ;
#27 = VERTEX_POINT ( 'NONE', #191 ) ;
#28 = APPLICATION_PROTOCOL_DEFINITION ( 'international standard', 'config_control_design', 1994, #192 ) ;
#29 = ORIENTED_EDGE ( 'NONE', *, *, #331, .F. ) ;
#30 = TOROIDAL_SURFACE ( 'NONE', #205, 5.500000000000000000, 0.5000000000000000000 ) ;
#31 = CC_DESIGN_APPROVAL ( #324, ( #116 ) ) ;
#32 = AXIS2_PLACEMENT_3D ( 'NONE', #13, #183, #272 ) ;
#33 = DIRECTION ( 'NONE',  ( -0.000000000000000000, -0.000000000000000000, -1.000000000000000000 ) ) ;
#34 = APPROVAL_ROLE ( '' ) ;
#35 = DIRECTION ( 'NONE',  ( -0.000000000000000000, -0.000000000000000000, -1.000000000000000000 ) ) ;
#36 = PERSON_AND_ORGANIZATION ( #95, #52 ) ;
#37 = CARTESIAN_POINT ( 'NONE',  ( -8.000000000000000000, 0.000000000000000000, 5.000000000000000000 ) ) ;
#38 = EDGE_CURVE ( 'NONE', #234, #353, #146, .T. ) ;
#39 = CYLINDRICAL_SURFACE ( 'NONE', #7, 5.000000000000000000 ) ;
#40 = CARTESIAN_POINT ( 'NONE',  ( 8.000000000000000000, 9.797174393178825657E-16, 0.000000000000000000 ) ) ;
#41 = AXIS2_PLACEMENT_3D ( 'NONE', #162, #48, #22 ) ;
#42 = AXIS2_PLACEMENT_3D ( 'NONE', #112, #180, #209 ) ;
#43 = DIRECTION ( 'NONE',  ( 0.000000000000000000, 0.000000000000000000, 1.000000000000000000 ) ) ;
#44 = AXIS2_PLACEMENT_3D ( 'NONE', #275, #63, #369 ) ;
#45 = ORIENTED_EDGE ( 'NONE', *, *, #301, .F. ) ;
#46 = CARTESIAN_POINT ( 'NONE',  ( 8.000000000000000000, 9.797174393178825657E-16, 5.000000000000000000 ) ) ;
#47 = EDGE_LOOP ( 'NONE', ( #236, #134, #349, #246 ) ) ;
#48 = DIRECTION ( 'NONE',  ( 0.000000000000000000, 0.000000000000000000, 1.000000000000000000 ) ) ;
#49 = ORIENTED_EDGE ( 'NONE', *, *, #278, .T. ) ;
#50 =( NAMED_UNIT ( * ) SI_UNIT ( $, .STERADIAN. ) SOLID_ANGLE_UNIT ( ) );
#51 = ORIENTED_EDGE ( 'NONE', *, *, #160, .T. ) ;
#52 = ORGANIZATION ( 'NEURÈENÝ', 'NEURÈENÝ', '' ) ;
#53 = PERSON_AND_ORGANIZATION_ROLE ( 'design_owner' ) ;
#54 = CIRCLE ( 'NONE', #125, 3.250000000000000444 ) ;
#55 = VERTEX_POINT ( 'NONE', #40 ) ;
#56 = CC_DESIGN_PERSON_AND_ORGANIZATION_ASSIGNMENT ( #325, #266, ( #26 ) ) ;
#57 = APPROVAL_STATUS ( 'not_yet_approved' ) ;
#58 = CARTESIAN_POINT ( 'NONE',  ( -3.250000000000000444, 0.000000000000000000, 105.0000000000000142 ) ) ;
#59 = CARTESIAN_POINT ( 'NONE',  ( 0.000000000000000000, 0.000000000000000000, 0.000000000000000000 ) ) ;
#60 = AXIS2_PLACEMENT_3D ( 'NONE', #100, #68, #120 ) ;
#61 = ADVANCED_FACE ( 'NONE', ( #299 ), #334, .F. ) ;
#62 = APPROVAL_STATUS ( 'not_yet_approved' ) ;
#63 = DIRECTION ( 'NONE',  ( 0.000000000000000000, 0.000000000000000000, 1.000000000000000000 ) ) ;
#64 = EDGE_CURVE ( 'NONE', #230, #333, #77, .T. ) ;
#65 = DIRECTION ( 'NONE',  ( 1.000000000000000000, 0.000000000000000000, 0.000000000000000000 ) ) ;
#66 = PERSON_AND_ORGANIZATION_ROLE ( 'creator' ) ;
#67 = DIRECTION ( 'NONE',  ( 0.000000000000000000, -1.000000000000000000, 0.000000000000000000 ) ) ;
#68 = DIRECTION ( 'NONE',  ( 0.000000000000000000, 0.000000000000000000, 1.000000000000000000 ) ) ;
#69 = ORIENTED_EDGE ( 'NONE', *, *, #377, .T. ) ;
#70 = DIRECTION ( 'NONE',  ( -0.000000000000000000, -0.000000000000000000, -1.000000000000000000 ) ) ;
#71 = AXIS2_PLACEMENT_3D ( 'NONE', #357, #350, #138 ) ;
#72 = APPROVAL ( #57, 'NEURÈENÝ' ) ;
#73 = CIRCLE ( 'NONE', #366, 5.000000000000000000 ) ;
#74 = APPROVAL ( #330, 'NEURÈENÝ' ) ;
#75 = LINE ( 'NONE', #335, #323 ) ;
#76 = EDGE_LOOP ( 'NONE', ( #45, #141, #51, #262 ) ) ;
#77 = CIRCLE ( 'NONE', #251, 0.5000000000000004441 ) ;
#78 = ADVANCED_FACE ( 'NONE', ( #267 ), #243, .T. ) ;
#79 = ORIENTED_EDGE ( 'NONE', *, *, #126, .T. ) ;
#80 = CIRCLE ( 'NONE', #32, 8.000000000000000000 ) ;
#81 = DIRECTION ( 'NONE',  ( 0.000000000000000000, 0.000000000000000000, -1.000000000000000000 ) ) ;
#82 = EDGE_CURVE ( 'NONE', #228, #153, #170, .T. ) ;
#83 = ORIENTED_EDGE ( 'NONE', *, *, #307, .T. ) ;
#84 = VERTEX_POINT ( 'NONE', #188 ) ;
#85 = CARTESIAN_POINT ( 'NONE',  ( -8.000000000000000000, 0.000000000000000000, 0.000000000000000000 ) ) ;
#86 = CARTESIAN_POINT ( 'NONE',  ( 0.000000000000000000, 0.000000000000000000, 105.0000000000000142 ) ) ;
#87 = CIRCLE ( 'NONE', #25, 3.250000000000000444 ) ;
#88 = DATE_AND_TIME ( #328, #295 ) ;
#89 = COORDINATED_UNIVERSAL_TIME_OFFSET ( 1, 0, .AHEAD. ) ;
#90 = CARTESIAN_POINT ( 'NONE',  ( -5.000000000000000000, 0.000000000000000000, 105.0000000000000142 ) ) ;
#91 = ADVANCED_FACE ( 'NONE', ( #17 ), #39, .T. ) ;
#92 = DIRECTION ( 'NONE',  ( 0.000000000000000000, 0.000000000000000000, 1.000000000000000000 ) ) ;
#93 = PERSON_AND_ORGANIZATION ( #95, #52 ) ;
#94 = AXIS2_PLACEMENT_3D ( 'NONE', #127, #67, #176 ) ;
#95 = PERSON ( 'NEURÈENÝ', 'NEURÈENÝ', 'NEURÈENÝ', ('NEURÈENÝ'), ('NEURÈENÝ'), ('NEURÈENÝ') ) ;
#96 = APPROVAL_DATE_TIME ( #362, #74 ) ;
#97 = DIRECTION ( 'NONE',  ( -1.000000000000000000, 0.000000000000000000, 0.000000000000000000 ) ) ;
#98 = EDGE_LOOP ( 'NONE', ( #49, #69 ) ) ;
#99 = EDGE_CURVE ( 'NONE', #55, #287, #343, .T. ) ;
#100 = CARTESIAN_POINT ( 'NONE',  ( 0.000000000000000000, 0.000000000000000000, 5.500000000000005329 ) ) ;
#101 = EDGE_LOOP ( 'NONE', ( #226, #337 ) ) ;
#102 = CIRCLE ( 'NONE', #60, 5.000000000000000000 ) ;
#103 = CYLINDRICAL_SURFACE ( 'NONE', #317, 3.250000000000000444 ) ;
#104 = ORIENTED_EDGE ( 'NONE', *, *, #278, .F. ) ;
#105 = VECTOR ( 'NONE', #368, 1000.000000000000000 ) ;
#106 = CARTESIAN_POINT ( 'NONE',  ( -3.250000000000000444, 0.000000000000000000, 0.000000000000000000 ) ) ;
#107 = ORIENTED_EDGE ( 'NONE', *, *, #331, .T. ) ;
#108 = FACE_OUTER_BOUND ( 'NONE', #76, .T. ) ;
#109 = DIRECTION ( 'NONE',  ( 0.000000000000000000, 0.000000000000000000, 1.000000000000000000 ) ) ;
#110 = ORIENTED_EDGE ( 'NONE', *, *, #154, .T. ) ;
#111 = EDGE_LOOP ( 'NONE', ( #107, #189 ) ) ;
#112 = CARTESIAN_POINT ( 'NONE',  ( 0.000000000000000000, 0.000000000000000000, 5.000000000000000000 ) ) ;
#113 = CARTESIAN_POINT ( 'NONE',  ( 0.000000000000000000, 0.000000000000000000, 105.0000000000000142 ) ) ;
#114 = DATE_AND_TIME ( #242, #123 ) ;
#115 = AXIS2_PLACEMENT_3D ( 'NONE', #294, #361, #150 ) ;
#116 = PRODUCT_DEFINITION_FORMATION_WITH_SPECIFIED_SOURCE ( 'LIBOVOLNÝ', '', #241, .NOT_KNOWN. ) ;
#117 = APPROVAL_DATE_TIME ( #88, #324 ) ;
#118 = EDGE_CURVE ( 'NONE', #27, #230, #102, .T. ) ;
#119 = AXIS2_PLACEMENT_3D ( 'NONE', #345, #43, #370 ) ;
#120 = DIRECTION ( 'NONE',  ( 1.000000000000000000, 0.000000000000000000, 0.000000000000000000 ) ) ;
#121 = CALENDAR_DATE ( 2022, 8, 7 ) ;
#122 = CYLINDRICAL_SURFACE ( 'NONE', #269, 8.000000000000000000 ) ;
#123 = LOCAL_TIME ( 16, 47, 28.00000000000000000, #12 ) ;
#124 = CARTESIAN_POINT ( 'NONE',  ( 0.000000000000000000, 0.000000000000000000, 0.000000000000000000 ) ) ;
#125 = AXIS2_PLACEMENT_3D ( 'NONE', #376, #70, #304 ) ;
#126 = EDGE_CURVE ( 'NONE', #287, #55, #314, .T. ) ;
#127 = CARTESIAN_POINT ( 'NONE',  ( 5.500000000000000000, 0.000000000000000000, 5.500000000000005329 ) ) ;
#128 = CARTESIAN_POINT ( 'NONE',  ( 5.000000000000000000, 6.123233995736766282E-16, 105.0000000000000142 ) ) ;
#129 = ORIENTED_EDGE ( 'NONE', *, *, #219, .F. ) ;
#130 = DIRECTION ( 'NONE',  ( 1.000000000000000000, 0.000000000000000000, 0.000000000000000000 ) ) ;
#131 = DIRECTION ( 'NONE',  ( -0.000000000000000000, -0.000000000000000000, -1.000000000000000000 ) ) ;
#132 = ORIENTED_EDGE ( 'NONE', *, *, #367, .T. ) ;
#133 = FACE_OUTER_BOUND ( 'NONE', #136, .T. ) ;
#134 = ORIENTED_EDGE ( 'NONE', *, *, #258, .T. ) ;
#135 = DIRECTION ( 'NONE',  ( -1.000000000000000000, 0.000000000000000000, 0.000000000000000000 ) ) ;
#136 = EDGE_LOOP ( 'NONE', ( #315, #110 ) ) ;
#137 = PRODUCT_DEFINITION ( 'NEZNÁMÝ', '', #116, #300 ) ;
#138 = DIRECTION ( 'NONE',  ( 1.000000000000000000, 0.000000000000000000, 0.000000000000000000 ) ) ;
#139 = VERTEX_POINT ( 'NONE', #37 ) ;
#140 = PERSON_AND_ORGANIZATION ( #95, #52 ) ;
#141 = ORIENTED_EDGE ( 'NONE', *, *, #38, .T. ) ;
#142 = APPROVAL_ROLE ( '' ) ;
#143 = CIRCLE ( 'NONE', #346, 5.500000000000000000 ) ;
#144 = CARTESIAN_POINT ( 'NONE',  ( 0.000000000000000000, 0.000000000000000000, 105.0000000000000142 ) ) ;
#145 = PERSON_AND_ORGANIZATION_ROLE ( 'design_supplier' ) ;
#146 = CIRCLE ( 'NONE', #182, 3.250000000000000444 ) ;
#147 = LOCAL_TIME ( 16, 47, 28.00000000000000000, #89 ) ;
#148 = PERSON_AND_ORGANIZATION ( #95, #52 ) ;
#149 = VECTOR ( 'NONE', #33, 1000.000000000000000 ) ;
#150 = DIRECTION ( 'NONE',  ( 1.000000000000000000, 0.000000000000000000, 0.000000000000000000 ) ) ;
#151 = CARTESIAN_POINT ( 'NONE',  ( 0.000000000000000000, 0.000000000000000000, 105.0000000000000142 ) ) ;
#152 = COORDINATED_UNIVERSAL_TIME_OFFSET ( 1, 0, .AHEAD. ) ;
#153 = VERTEX_POINT ( 'NONE', #90 ) ;
#154 = EDGE_CURVE ( 'NONE', #84, #139, #80, .T. ) ;
#155 = CALENDAR_DATE ( 2022, 8, 7 ) ;
#156 = DIRECTION ( 'NONE',  ( 1.000000000000000000, 0.000000000000000000, 0.000000000000000000 ) ) ;
#157 = UNCERTAINTY_MEASURE_WITH_UNIT (LENGTH_MEASURE( 1.000000000000000082E-05 ), #348, 'distance_accuracy_value', 'NONE');
#158 = DIRECTION ( 'NONE',  ( -0.000000000000000000, -0.000000000000000000, -1.000000000000000000 ) ) ;
#159 = ORIENTED_EDGE ( 'NONE', *, *, #271, .T. ) ;
#160 = EDGE_CURVE ( 'NONE', #353, #252, #329, .T. ) ;
#161 = CYLINDRICAL_SURFACE ( 'NONE', #338, 3.250000000000000444 ) ;
#162 = CARTESIAN_POINT ( 'NONE',  ( 0.000000000000000000, 0.000000000000000000, 5.500000000000005329 ) ) ;
#163 = CIRCLE ( 'NONE', #42, 5.500000000000000000 ) ;
#164 = FACE_BOUND ( 'NONE', #101, .T. ) ;
#165 = EDGE_LOOP ( 'NONE', ( #207, #257, #104, #204 ) ) ;
#166 = APPLICATION_CONTEXT ( 'configuration controlled 3d designs of mechanical parts and assemblies' ) ;
#167 = DIRECTION ( 'NONE',  ( -0.000000000000000000, -0.000000000000000000, -1.000000000000000000 ) ) ;
#168 = EDGE_CURVE ( 'NONE', #27, #351, #291, .T. ) ;
#169 = ORIENTED_EDGE ( 'NONE', *, *, #168, .T. ) ;
#170 = CIRCLE ( 'NONE', #245, 5.000000000000000000 ) ;
#171 = AXIS2_PLACEMENT_3D ( 'NONE', #342, #283, #194 ) ;
#172 = ORIENTED_EDGE ( 'NONE', *, *, #118, .F. ) ;
#173 = DIRECTION ( 'NONE',  ( 0.000000000000000000, 0.000000000000000000, 1.000000000000000000 ) ) ;
#174 = ADVANCED_FACE ( 'NONE', ( #11 ), #122, .T. ) ;
#175 = LINE ( 'NONE', #261, #149 ) ;
#176 = DIRECTION ( 'NONE',  ( 0.000000000000000000, 0.000000000000000000, -1.000000000000000000 ) ) ;
#177 = AXIS2_PLACEMENT_3D ( 'NONE', #124, #248, #273 ) ;
#178 = DIRECTION ( 'NONE',  ( -0.000000000000000000, -0.000000000000000000, -1.000000000000000000 ) ) ;
#179 = VECTOR ( 'NONE', #380, 1000.000000000000000 ) ;
#180 = DIRECTION ( 'NONE',  ( -0.000000000000000000, -0.000000000000000000, -1.000000000000000000 ) ) ;
#181 = CALENDAR_DATE ( 2022, 8, 7 ) ;
#182 = AXIS2_PLACEMENT_3D ( 'NONE', #222, #92, #65 ) ;
#183 = DIRECTION ( 'NONE',  ( 0.000000000000000000, 0.000000000000000000, 1.000000000000000000 ) ) ;
#184 = APPROVAL_PERSON_ORGANIZATION ( #148, #324, #34 ) ;
#185 = DIRECTION ( 'NONE',  ( 1.224646799147353207E-16, 1.000000000000000000, -0.000000000000000000 ) ) ;
#186 = PERSON_AND_ORGANIZATION ( #95, #52 ) ;
#187 = ADVANCED_FACE ( 'NONE', ( #164, #196 ), #306, .F. ) ;
#188 = CARTESIAN_POINT ( 'NONE',  ( 8.000000000000000000, 9.797174393178825657E-16, 5.000000000000000000 ) ) ;
#189 = ORIENTED_EDGE ( 'NONE', *, *, #82, .T. ) ;
#190 = COORDINATED_UNIVERSAL_TIME_OFFSET ( 1, 0, .AHEAD. ) ;
#191 = CARTESIAN_POINT ( 'NONE',  ( 5.000000000000000000, 6.123233995736766282E-16, 5.500000000000005329 ) ) ;
#192 = APPLICATION_CONTEXT ( 'configuration controlled 3d designs of mechanical parts and assemblies' ) ;
#193 = VECTOR ( 'NONE', #158, 1000.000000000000000 ) ;
#194 = DIRECTION ( 'NONE',  ( 1.000000000000000000, 0.000000000000000000, 0.000000000000000000 ) ) ;
#195 = ORIENTED_EDGE ( 'NONE', *, *, #285, .T. ) ;
#196 = FACE_OUTER_BOUND ( 'NONE', #375, .T. ) ;
#197 = CARTESIAN_POINT ( 'NONE',  ( -5.000000000000000000, 0.000000000000000000, 5.500000000000005329 ) ) ;
#198 = ORIENTED_EDGE ( 'NONE', *, *, #99, .F. ) ;
#199 = LINE ( 'NONE', #46, #193 ) ;
#200 = ORIENTED_EDGE ( 'NONE', *, *, #126, .F. ) ;
#201 = CARTESIAN_POINT ( 'NONE',  ( 0.000000000000000000, 0.000000000000000000, 105.0000000000000142 ) ) ;
#202 = ADVANCED_FACE ( 'NONE', ( #229, #133 ), #19, .T. ) ;
#203 = ORIENTED_EDGE ( 'NONE', *, *, #99, .T. ) ;
#204 = ORIENTED_EDGE ( 'NONE', *, *, #168, .F. ) ;
#205 = AXIS2_PLACEMENT_3D ( 'NONE', #365, #277, #363 ) ;
#206 = PERSON_AND_ORGANIZATION ( #95, #52 ) ;
#207 = ORIENTED_EDGE ( 'NONE', *, *, #271, .F. ) ;
#208 = ADVANCED_FACE ( 'NONE', ( #108 ), #103, .F. ) ;
#209 = DIRECTION ( 'NONE',  ( 1.000000000000000000, 0.000000000000000000, 0.000000000000000000 ) ) ;
#210 = ADVANCED_BREP_SHAPE_REPRESENTATION ( '1856', ( #4, #71 ), #9 ) ;
#211 = DIRECTION ( 'NONE',  ( 1.000000000000000000, 0.000000000000000000, -0.000000000000000000 ) ) ;
#212 = CIRCLE ( 'NONE', #41, 5.000000000000000000 ) ;
#213 = SHAPE_DEFINITION_REPRESENTATION ( #322, #210 ) ;
#214 = CC_DESIGN_PERSON_AND_ORGANIZATION_ASSIGNMENT ( #206, #53, ( #241 ) ) ;
#215 = CARTESIAN_POINT ( 'NONE',  ( 0.000000000000000000, 0.000000000000000000, 5.000000000000000000 ) ) ;
#216 = COORDINATED_UNIVERSAL_TIME_OFFSET ( 1, 0, .AHEAD. ) ;
#217 = CARTESIAN_POINT ( 'NONE',  ( 0.000000000000000000, 0.000000000000000000, 105.0000000000000142 ) ) ;
#218 = LOCAL_TIME ( 16, 47, 28.00000000000000000, #190 ) ;
#219 = EDGE_CURVE ( 'NONE', #139, #287, #75, .T. ) ;
#220 = FACE_OUTER_BOUND ( 'NONE', #165, .T. ) ;
#221 = DIRECTION ( 'NONE',  ( -0.000000000000000000, -0.000000000000000000, -1.000000000000000000 ) ) ;
#222 = CARTESIAN_POINT ( 'NONE',  ( 0.000000000000000000, 0.000000000000000000, 105.0000000000000142 ) ) ;
#223 = ORIENTED_EDGE ( 'NONE', *, *, #160, .F. ) ;
#224 = DIRECTION ( 'NONE',  ( -1.000000000000000000, 0.000000000000000000, 0.000000000000000000 ) ) ;
#225 = FACE_OUTER_BOUND ( 'NONE', #254, .T. ) ;
#226 = ORIENTED_EDGE ( 'NONE', *, *, #238, .F. ) ;
#227 = DIRECTION ( 'NONE',  ( 0.000000000000000000, 0.000000000000000000, 1.000000000000000000 ) ) ;
#228 = VERTEX_POINT ( 'NONE', #340 ) ;
#229 = FACE_BOUND ( 'NONE', #98, .T. ) ;
#230 = VERTEX_POINT ( 'NONE', #197 ) ;
#231 = DIRECTION ( 'NONE',  ( -0.000000000000000000, -0.000000000000000000, -1.000000000000000000 ) ) ;
#232 = ORIENTED_EDGE ( 'NONE', *, *, #154, .F. ) ;
#233 = PLANE ( 'NONE',  #247 ) ;
#234 = VERTEX_POINT ( 'NONE', #279 ) ;
#235 = DIRECTION ( 'NONE',  ( 0.000000000000000000, 0.000000000000000000, 1.000000000000000000 ) ) ;
#236 = ORIENTED_EDGE ( 'NONE', *, *, #82, .F. ) ;
#237 = CLOSED_SHELL ( 'NONE', ( #264, #14, #371, #174, #78, #202, #187, #91, #354, #61, #208 ) ) ;
#238 = EDGE_CURVE ( 'NONE', #252, #379, #54, .T. ) ;
#239 = DATE_AND_TIME ( #181, #344 ) ;
#240 = DIRECTION ( 'NONE',  ( -1.000000000000000000, 0.000000000000000000, 0.000000000000000000 ) ) ;
#241 = PRODUCT ( '1856', '1856', '', ( #292 ) ) ;
#242 = CALENDAR_DATE ( 2022, 8, 7 ) ;
#243 = CYLINDRICAL_SURFACE ( 'NONE', #364, 8.000000000000000000 ) ;
#244 = EDGE_CURVE ( 'NONE', #353, #234, #312, .T. ) ;
#245 = AXIS2_PLACEMENT_3D ( 'NONE', #217, #296, #156 ) ;
#246 = ORIENTED_EDGE ( 'NONE', *, *, #307, .F. ) ;
#247 = AXIS2_PLACEMENT_3D ( 'NONE', #144, #235, #211 ) ;
#248 = DIRECTION ( 'NONE',  ( 0.000000000000000000, 0.000000000000000000, 1.000000000000000000 ) ) ;
#249 = DIRECTION ( 'NONE',  ( -0.000000000000000000, -0.000000000000000000, -1.000000000000000000 ) ) ;
#250 = DIRECTION ( 'NONE',  ( -0.000000000000000000, -0.000000000000000000, -1.000000000000000000 ) ) ;
#251 = AXIS2_PLACEMENT_3D ( 'NONE', #326, #185, #16 ) ;
#252 = VERTEX_POINT ( 'NONE', #106 ) ;
#253 = ORIENTED_EDGE ( 'NONE', *, *, #285, .F. ) ;
#254 = EDGE_LOOP ( 'NONE', ( #341, #298, #132, #223 ) ) ;
#255 = CARTESIAN_POINT ( 'NONE',  ( 0.000000000000000000, 0.000000000000000000, 5.000000000000000000 ) ) ;
#256 = CC_DESIGN_APPROVAL ( #72, ( #137 ) ) ;
#257 = ORIENTED_EDGE ( 'NONE', *, *, #64, .T. ) ;
#258 = EDGE_CURVE ( 'NONE', #228, #27, #311, .T. ) ;
#259 = CYLINDRICAL_SURFACE ( 'NONE', #327, 5.000000000000000000 ) ;
#260 = ORIENTED_EDGE ( 'NONE', *, *, #64, .F. ) ;
#261 = CARTESIAN_POINT ( 'NONE',  ( -5.000000000000000000, 0.000000000000000000, 105.0000000000000142 ) ) ;
#262 = ORIENTED_EDGE ( 'NONE', *, *, #238, .T. ) ;
#263 = CARTESIAN_POINT ( 'NONE',  ( 3.250000000000000444, 3.980102097228898231E-16, 105.0000000000000142 ) ) ;
#264 = ADVANCED_FACE ( 'NONE', ( #225 ), #161, .F. ) ;
#265 = FACE_OUTER_BOUND ( 'NONE', #111, .T. ) ;
#266 = PERSON_AND_ORGANIZATION_ROLE ( 'classification_officer' ) ;
#267 = FACE_OUTER_BOUND ( 'NONE', #23, .T. ) ;
#268 = APPROVAL_PERSON_ORGANIZATION ( #140, #72, #142 ) ;
#269 = AXIS2_PLACEMENT_3D ( 'NONE', #297, #221, #332 ) ;
#270 = PERSON_AND_ORGANIZATION_ROLE ( 'creator' ) ;
#271 = EDGE_CURVE ( 'NONE', #230, #27, #212, .T. ) ;
#272 = DIRECTION ( 'NONE',  ( 1.000000000000000000, 0.000000000000000000, 0.000000000000000000 ) ) ;
#273 = DIRECTION ( 'NONE',  ( 1.000000000000000000, 0.000000000000000000, 0.000000000000000000 ) ) ;
#274 = DATE_AND_TIME ( #155, #147 ) ;
#275 = CARTESIAN_POINT ( 'NONE',  ( 0.000000000000000000, 0.000000000000000000, 5.500000000000005329 ) ) ;
#276 = APPROVAL_DATE_TIME ( #274, #72 ) ;
#277 = DIRECTION ( 'NONE',  ( 0.000000000000000000, 0.000000000000000000, 1.000000000000000000 ) ) ;
#278 = EDGE_CURVE ( 'NONE', #351, #333, #143, .T. ) ;
#279 = CARTESIAN_POINT ( 'NONE',  ( 3.250000000000000444, 3.980102097228898231E-16, 105.0000000000000142 ) ) ;
#280 = EDGE_CURVE ( 'NONE', #139, #84, #359, .T. ) ;
#281 = EDGE_LOOP ( 'NONE', ( #260, #172, #169, #284 ) ) ;
#282 = EDGE_LOOP ( 'NONE', ( #232, #195, #203, #129 ) ) ;
#283 = DIRECTION ( 'NONE',  ( 0.000000000000000000, 0.000000000000000000, 1.000000000000000000 ) ) ;
#284 = ORIENTED_EDGE ( 'NONE', *, *, #377, .F. ) ;
#285 = EDGE_CURVE ( 'NONE', #84, #55, #199, .T. ) ;
#286 = APPLICATION_PROTOCOL_DEFINITION ( 'international standard', 'config_control_design', 1994, #166 ) ;
#287 = VERTEX_POINT ( 'NONE', #85 ) ;
#288 = EDGE_LOOP ( 'NONE', ( #1, #313 ) ) ;
#289 =( NAMED_UNIT ( * ) PLANE_ANGLE_UNIT ( ) SI_UNIT ( $, .RADIAN. ) );
#290 = FACE_OUTER_BOUND ( 'NONE', #47, .T. ) ;
#291 = CIRCLE ( 'NONE', #94, 0.5000000000000004441 ) ;
#292 = MECHANICAL_CONTEXT ( 'NONE', #166, 'mechanical' ) ;
#293 = DATE_TIME_ROLE ( 'creation_date' ) ;
#294 = CARTESIAN_POINT ( 'NONE',  ( 0.000000000000000000, 0.000000000000000000, 0.000000000000000000 ) ) ;
#295 = LOCAL_TIME ( 16, 47, 28.00000000000000000, #152 ) ;
#296 = DIRECTION ( 'NONE',  ( 0.000000000000000000, 0.000000000000000000, 1.000000000000000000 ) ) ;
#297 = CARTESIAN_POINT ( 'NONE',  ( 0.000000000000000000, 0.000000000000000000, 5.000000000000000000 ) ) ;
#298 = ORIENTED_EDGE ( 'NONE', *, *, #301, .T. ) ;
#299 = FACE_OUTER_BOUND ( 'NONE', #281, .T. ) ;
#300 = DESIGN_CONTEXT ( 'detailed design', #192, 'design' ) ;
#301 = EDGE_CURVE ( 'NONE', #234, #379, #5, .T. ) ;
#302 = AXIS2_PLACEMENT_3D ( 'NONE', #21, #227, #130 ) ;
#303 = CC_DESIGN_APPROVAL ( #74, ( #26 ) ) ;
#304 = DIRECTION ( 'NONE',  ( 1.000000000000000000, 0.000000000000000000, 0.000000000000000000 ) ) ;
#305 = CC_DESIGN_PERSON_AND_ORGANIZATION_ASSIGNMENT ( #186, #66, ( #116 ) ) ;
#306 = PLANE ( 'NONE',  #119 ) ;
#307 = EDGE_CURVE ( 'NONE', #153, #230, #175, .T. ) ;
#308 = DIRECTION ( 'NONE',  ( 0.000000000000000000, 0.000000000000000000, -1.000000000000000000 ) ) ;
#309 = EDGE_LOOP ( 'NONE', ( #347, #29, #83, #159 ) ) ;
#310 = CC_DESIGN_SECURITY_CLASSIFICATION ( #26, ( #116 ) ) ;
#311 = LINE ( 'NONE', #128, #336 ) ;
#312 = CIRCLE ( 'NONE', #302, 3.250000000000000444 ) ;
#313 = ORIENTED_EDGE ( 'NONE', *, *, #38, .F. ) ;
#314 = CIRCLE ( 'NONE', #115, 8.000000000000000000 ) ;
#315 = ORIENTED_EDGE ( 'NONE', *, *, #280, .T. ) ;
#316 = DIRECTION ( 'NONE',  ( -1.000000000000000000, 0.000000000000000000, 0.000000000000000000 ) ) ;
#317 = AXIS2_PLACEMENT_3D ( 'NONE', #24, #81, #135 ) ;
#318 = ORIENTED_EDGE ( 'NONE', *, *, #219, .T. ) ;
#319 = CARTESIAN_POINT ( 'NONE',  ( -5.500000000000000000, 6.735557395310442023E-16, 5.000000000000002665 ) ) ;
#320 = ORIENTED_EDGE ( 'NONE', *, *, #280, .F. ) ;
#321 = FACE_BOUND ( 'NONE', #288, .T. ) ;
#322 = PRODUCT_DEFINITION_SHAPE ( 'NONE', 'NONE',  #137 ) ;
#323 = VECTOR ( 'NONE', #167, 1000.000000000000000 ) ;
#324 = APPROVAL ( #62, 'NEURÈENÝ' ) ;
#325 = PERSON_AND_ORGANIZATION ( #95, #52 ) ;
#326 = CARTESIAN_POINT ( 'NONE',  ( -5.500000000000000000, 6.735557395310442023E-16, 5.500000000000005329 ) ) ;
#327 = AXIS2_PLACEMENT_3D ( 'NONE', #86, #231, #316 ) ;
#328 = CALENDAR_DATE ( 2022, 8, 7 ) ;
#329 = LINE ( 'NONE', #58, #105 ) ;
#330 = APPROVAL_STATUS ( 'not_yet_approved' ) ;
#331 = EDGE_CURVE ( 'NONE', #153, #228, #73, .T. ) ;
#332 = DIRECTION ( 'NONE',  ( -1.000000000000000000, 0.000000000000000000, 0.000000000000000000 ) ) ;
#333 = VERTEX_POINT ( 'NONE', #319 ) ;
#334 = TOROIDAL_SURFACE ( 'NONE', #44, 5.500000000000000000, 0.5000000000000000000 ) ;
#335 = CARTESIAN_POINT ( 'NONE',  ( -8.000000000000000000, 0.000000000000000000, 5.000000000000000000 ) ) ;
#336 = VECTOR ( 'NONE', #250, 1000.000000000000000 ) ;
#337 = ORIENTED_EDGE ( 'NONE', *, *, #367, .F. ) ;
#338 = AXIS2_PLACEMENT_3D ( 'NONE', #201, #308, #224 ) ;
#339 = CARTESIAN_POINT ( 'NONE',  ( 0.000000000000000000, 0.000000000000000000, 5.000000000000000000 ) ) ;
#340 = CARTESIAN_POINT ( 'NONE',  ( 5.000000000000000000, 6.123233995736766282E-16, 105.0000000000000142 ) ) ;
#341 = ORIENTED_EDGE ( 'NONE', *, *, #244, .T. ) ;
#342 = CARTESIAN_POINT ( 'NONE',  ( 0.000000000000000000, 0.000000000000000000, 5.000000000000000000 ) ) ;
#343 = CIRCLE ( 'NONE', #177, 8.000000000000000000 ) ;
#344 = LOCAL_TIME ( 16, 47, 28.00000000000000000, #216 ) ;
#345 = CARTESIAN_POINT ( 'NONE',  ( 0.000000000000000000, 0.000000000000000000, 0.000000000000000000 ) ) ;
#346 = AXIS2_PLACEMENT_3D ( 'NONE', #339, #131, #374 ) ;
#347 = ORIENTED_EDGE ( 'NONE', *, *, #258, .F. ) ;
#348 =( LENGTH_UNIT ( ) NAMED_UNIT ( * ) SI_UNIT ( .MILLI., .METRE. ) );
#349 = ORIENTED_EDGE ( 'NONE', *, *, #118, .T. ) ;
#350 = DIRECTION ( 'NONE',  ( 0.000000000000000000, 0.000000000000000000, 1.000000000000000000 ) ) ;
#351 = VERTEX_POINT ( 'NONE', #2 ) ;
#352 = CARTESIAN_POINT ( 'NONE',  ( -3.250000000000000444, 0.000000000000000000, 105.0000000000000142 ) ) ;
#353 = VERTEX_POINT ( 'NONE', #352 ) ;
#354 = ADVANCED_FACE ( 'NONE', ( #321, #265 ), #233, .T. ) ;
#355 = CARTESIAN_POINT ( 'NONE',  ( 3.250000000000000444, 3.980102097228898231E-16, 0.000000000000000000 ) ) ;
#356 = CC_DESIGN_PERSON_AND_ORGANIZATION_ASSIGNMENT ( #358, #145, ( #116 ) ) ;
#357 = CARTESIAN_POINT ( 'NONE',  ( 0.000000000000000000, 0.000000000000000000, 0.000000000000000000 ) ) ;
#358 = PERSON_AND_ORGANIZATION ( #95, #52 ) ;
#359 = CIRCLE ( 'NONE', #171, 8.000000000000000000 ) ;
#360 = APPROVAL_ROLE ( '' ) ;
#361 = DIRECTION ( 'NONE',  ( 0.000000000000000000, 0.000000000000000000, 1.000000000000000000 ) ) ;
#362 = DATE_AND_TIME ( #121, #218 ) ;
#363 = DIRECTION ( 'NONE',  ( 1.000000000000000000, 0.000000000000000000, 0.000000000000000000 ) ) ;
#364 = AXIS2_PLACEMENT_3D ( 'NONE', #215, #249, #240 ) ;
#365 = CARTESIAN_POINT ( 'NONE',  ( 0.000000000000000000, 0.000000000000000000, 5.500000000000005329 ) ) ;
#366 = AXIS2_PLACEMENT_3D ( 'NONE', #113, #173, #381 ) ;
#367 = EDGE_CURVE ( 'NONE', #379, #252, #87, .T. ) ;
#368 = DIRECTION ( 'NONE',  ( 0.000000000000000000, 0.000000000000000000, -1.000000000000000000 ) ) ;
#369 = DIRECTION ( 'NONE',  ( 1.000000000000000000, 0.000000000000000000, 0.000000000000000000 ) ) ;
#370 = DIRECTION ( 'NONE',  ( 1.000000000000000000, 0.000000000000000000, -0.000000000000000000 ) ) ;
#371 = ADVANCED_FACE ( 'NONE', ( #290 ), #259, .T. ) ;
#372 = APPROVAL_PERSON_ORGANIZATION ( #36, #74, #360 ) ;
#373 = DIRECTION ( 'NONE',  ( 1.000000000000000000, 0.000000000000000000, -0.000000000000000000 ) ) ;
#374 = DIRECTION ( 'NONE',  ( 1.000000000000000000, 0.000000000000000000, 0.000000000000000000 ) ) ;
#375 = EDGE_LOOP ( 'NONE', ( #200, #198 ) ) ;
#376 = CARTESIAN_POINT ( 'NONE',  ( 0.000000000000000000, 0.000000000000000000, 0.000000000000000000 ) ) ;
#377 = EDGE_CURVE ( 'NONE', #333, #351, #163, .T. ) ;
#378 = AXIS2_PLACEMENT_3D ( 'NONE', #255, #109, #373 ) ;
#379 = VERTEX_POINT ( 'NONE', #355 ) ;
#380 = DIRECTION ( 'NONE',  ( 0.000000000000000000, 0.000000000000000000, -1.000000000000000000 ) ) ;
#381 = DIRECTION ( 'NONE',  ( 1.000000000000000000, 0.000000000000000000, 0.000000000000000000 ) ) ;
ENDSEC;
END-ISO-10303-21;
