ISO-10303-21;
HEADER;
FILE_DESCRIPTION (( 'STEP AP203' ),
    '1' );
FILE_NAME ('2b36.STEP',
    '2022-07-08T15:15:18',
    ( '' ),
    ( '' ),
    'SwSTEP 2.0',
    'SolidWorks 2019',
    '' );
FILE_SCHEMA (( 'CONFIG_CONTROL_DESIGN' ));
ENDSEC;

DATA;
#1 = DIRECTION ( 'NONE',  ( -1.000000000000000000, 0.000000000000000000, 0.000000000000000000 ) ) ;
#2 = CARTESIAN_POINT ( 'NONE',  ( 8.000000000000000000, 9.797174393178825657E-16, 5.000000000000000000 ) ) ;
#3 = DIRECTION ( 'NONE',  ( 1.000000000000000000, 0.000000000000000000, 0.000000000000000000 ) ) ;
#4 = PERSON_AND_ORGANIZATION_ROLE ( 'creator' ) ;
#5 = DIRECTION ( 'NONE',  ( 1.000000000000000000, 0.000000000000000000, 0.000000000000000000 ) ) ;
#6 = ADVANCED_FACE ( 'NONE', ( #196 ), #377, .T. ) ;
#7 = CARTESIAN_POINT ( 'NONE',  ( 0.000000000000000000, 0.000000000000000000, 505.0000000000000000 ) ) ;
#8 = ADVANCED_FACE ( 'NONE', ( #169 ), #164, .T. ) ;
#9 = FACE_OUTER_BOUND ( 'NONE', #312, .T. ) ;
#10 = APPROVAL_ROLE ( '' ) ;
#11 = EDGE_CURVE ( 'NONE', #344, #265, #253, .T. ) ;
#12 = DIRECTION ( 'NONE',  ( 1.000000000000000000, 0.000000000000000000, -0.000000000000000000 ) ) ;
#13 = VECTOR ( 'NONE', #248, 1000.000000000000000 ) ;
#14 = FACE_BOUND ( 'NONE', #125, .T. ) ;
#15 = APPROVAL_DATE_TIME ( #153, #79 ) ;
#16 = AXIS2_PLACEMENT_3D ( 'NONE', #149, #120, #78 ) ;
#17 = EDGE_LOOP ( 'NONE', ( #254, #311, #190, #160 ) ) ;
#18 = EDGE_CURVE ( 'NONE', #24, #225, #74, .T. ) ;
#19 = DIRECTION ( 'NONE',  ( 1.000000000000000000, 0.000000000000000000, 0.000000000000000000 ) ) ;
#20 = AXIS2_PLACEMENT_3D ( 'NONE', #375, #89, #3 ) ;
#21 = ORIENTED_EDGE ( 'NONE', *, *, #360, .T. ) ;
#22 = DIRECTION ( 'NONE',  ( -0.000000000000000000, -0.000000000000000000, -1.000000000000000000 ) ) ;
#23 = EDGE_CURVE ( 'NONE', #374, #107, #203, .T. ) ;
#24 = VERTEX_POINT ( 'NONE', #234 ) ;
#25 = ADVANCED_FACE ( 'NONE', ( #31, #171 ), #139, .T. ) ;
#26 = ORIENTED_EDGE ( 'NONE', *, *, #118, .F. ) ;
#27 = ORIENTED_EDGE ( 'NONE', *, *, #331, .F. ) ;
#28 = APPROVAL ( #68, 'NEURÈENÝ' ) ;
#29 = CARTESIAN_POINT ( 'NONE',  ( -8.000000000000000000, 0.000000000000000000, 5.000000000000000000 ) ) ;
#30 = DIRECTION ( 'NONE',  ( 0.000000000000000000, 0.000000000000000000, 1.000000000000000000 ) ) ;
#31 = FACE_BOUND ( 'NONE', #285, .T. ) ;
#32 = AXIS2_PLACEMENT_3D ( 'NONE', #73, #55, #250 ) ;
#33 = CALENDAR_DATE ( 2022, 8, 7 ) ;
#34 = EDGE_CURVE ( 'NONE', #109, #232, #113, .T. ) ;
#35 = DIRECTION ( 'NONE',  ( 1.000000000000000000, 0.000000000000000000, 0.000000000000000000 ) ) ;
#36 = AXIS2_PLACEMENT_3D ( 'NONE', #64, #295, #206 ) ;
#37 = PERSON_AND_ORGANIZATION ( #47, #268 ) ;
#38 = CARTESIAN_POINT ( 'NONE',  ( 0.000000000000000000, 0.000000000000000000, 5.500000000000005329 ) ) ;
#39 = APPLICATION_CONTEXT ( 'configuration controlled 3d designs of mechanical parts and assemblies' ) ;
#40 = PERSON_AND_ORGANIZATION_ROLE ( 'classification_officer' ) ;
#41 = FACE_BOUND ( 'NONE', #362, .T. ) ;
#42 = DIRECTION ( 'NONE',  ( 0.000000000000000000, 0.000000000000000000, -1.000000000000000000 ) ) ;
#43 = EDGE_CURVE ( 'NONE', #107, #217, #333, .T. ) ;
#44 = TOROIDAL_SURFACE ( 'NONE', #366, 5.500000000000000000, 0.5000000000000000000 ) ;
#45 = DIRECTION ( 'NONE',  ( 1.000000000000000000, 0.000000000000000000, 0.000000000000000000 ) ) ;
#46 = CIRCLE ( 'NONE', #355, 8.000000000000000000 ) ;
#47 = PERSON ( 'NEURÈENÝ', 'NEURÈENÝ', 'NEURÈENÝ', ('NEURÈENÝ'), ('NEURÈENÝ'), ('NEURÈENÝ') ) ;
#48 = EDGE_CURVE ( 'NONE', #109, #369, #371, .T. ) ;
#49 = ORIENTED_EDGE ( 'NONE', *, *, #207, .T. ) ;
#50 = DIRECTION ( 'NONE',  ( -1.000000000000000000, 0.000000000000000000, 0.000000000000000000 ) ) ;
#51 = CARTESIAN_POINT ( 'NONE',  ( 0.000000000000000000, 0.000000000000000000, 0.000000000000000000 ) ) ;
#52 = CIRCLE ( 'NONE', #347, 5.000000000000000000 ) ;
#53 = ORIENTED_EDGE ( 'NONE', *, *, #18, .T. ) ;
#54 = ADVANCED_FACE ( 'NONE', ( #269 ), #44, .F. ) ;
#55 = DIRECTION ( 'NONE',  ( -0.000000000000000000, -0.000000000000000000, -1.000000000000000000 ) ) ;
#56 = DIRECTION ( 'NONE',  ( -0.000000000000000000, -0.000000000000000000, -1.000000000000000000 ) ) ;
#57 = ORIENTED_EDGE ( 'NONE', *, *, #175, .F. ) ;
#58 = FACE_OUTER_BOUND ( 'NONE', #305, .T. ) ;
#59 = ORIENTED_EDGE ( 'NONE', *, *, #335, .T. ) ;
#60 = VECTOR ( 'NONE', #116, 1000.000000000000000 ) ;
#61 = CARTESIAN_POINT ( 'NONE',  ( 0.000000000000000000, 0.000000000000000000, 505.0000000000000000 ) ) ;
#62 = CARTESIAN_POINT ( 'NONE',  ( -8.000000000000000000, 0.000000000000000000, 5.000000000000000000 ) ) ;
#63 = DIRECTION ( 'NONE',  ( 1.000000000000000000, 0.000000000000000000, 0.000000000000000000 ) ) ;
#64 = CARTESIAN_POINT ( 'NONE',  ( 0.000000000000000000, 0.000000000000000000, 5.000000000000000000 ) ) ;
#65 = CIRCLE ( 'NONE', #277, 8.000000000000000000 ) ;
#66 = SECURITY_CLASSIFICATION_LEVEL ( 'unclassified' ) ;
#67 = CARTESIAN_POINT ( 'NONE',  ( 5.500000000000000000, 0.000000000000000000, 5.000000000000002665 ) ) ;
#68 = APPROVAL_STATUS ( 'not_yet_approved' ) ;
#69 = DIRECTION ( 'NONE',  ( 1.000000000000000000, 0.000000000000000000, -0.000000000000000000 ) ) ;
#70 = APPROVAL_STATUS ( 'not_yet_approved' ) ;
#71 = FACE_OUTER_BOUND ( 'NONE', #80, .T. ) ;
#72 = PERSON_AND_ORGANIZATION ( #47, #268 ) ;
#73 = CARTESIAN_POINT ( 'NONE',  ( 0.000000000000000000, 0.000000000000000000, 5.000000000000000000 ) ) ;
#74 = CIRCLE ( 'NONE', #244, 5.000000000000000000 ) ;
#75 = DIRECTION ( 'NONE',  ( 0.000000000000000000, 0.000000000000000000, 1.000000000000000000 ) ) ;
#76 = CC_DESIGN_APPROVAL ( #79, ( #156 ) ) ;
#77 = ORIENTED_EDGE ( 'NONE', *, *, #345, .F. ) ;
#78 = DIRECTION ( 'NONE',  ( -1.000000000000000000, 0.000000000000000000, 0.000000000000000000 ) ) ;
#79 = APPROVAL ( #70, 'NEURÈENÝ' ) ;
#80 = EDGE_LOOP ( 'NONE', ( #337, #230, #281, #187 ) ) ;
#81 = CARTESIAN_POINT ( 'NONE',  ( 8.000000000000000000, 9.797174393178825657E-16, 5.000000000000000000 ) ) ;
#82 = ORIENTED_EDGE ( 'NONE', *, *, #43, .T. ) ;
#83 = CC_DESIGN_SECURITY_CLASSIFICATION ( #156, ( #211 ) ) ;
#84 = ORIENTED_EDGE ( 'NONE', *, *, #293, .F. ) ;
#85 = DIRECTION ( 'NONE',  ( -0.000000000000000000, -0.000000000000000000, -1.000000000000000000 ) ) ;
#86 = VERTEX_POINT ( 'NONE', #2 ) ;
#87 = FACE_OUTER_BOUND ( 'NONE', #231, .T. ) ;
#88 = DIRECTION ( 'NONE',  ( 1.000000000000000000, 0.000000000000000000, 0.000000000000000000 ) ) ;
#89 = DIRECTION ( 'NONE',  ( -0.000000000000000000, -0.000000000000000000, -1.000000000000000000 ) ) ;
#90 = DATE_TIME_ROLE ( 'creation_date' ) ;
#91 = DIRECTION ( 'NONE',  ( 1.000000000000000000, 0.000000000000000000, 0.000000000000000000 ) ) ;
#92 = AXIS2_PLACEMENT_3D ( 'NONE', #142, #350, #177 ) ;
#93 = DIRECTION ( 'NONE',  ( 0.000000000000000000, 0.000000000000000000, 1.000000000000000000 ) ) ;
#94 = CALENDAR_DATE ( 2022, 8, 7 ) ;
#95 = CC_DESIGN_PERSON_AND_ORGANIZATION_ASSIGNMENT ( #323, #4, ( #211 ) ) ;
#96 = CARTESIAN_POINT ( 'NONE',  ( 8.000000000000000000, 9.797174393178825657E-16, 0.000000000000000000 ) ) ;
#97 = PERSON_AND_ORGANIZATION ( #47, #268 ) ;
#98 = COORDINATED_UNIVERSAL_TIME_OFFSET ( 1, 0, .AHEAD. ) ;
#99 = CARTESIAN_POINT ( 'NONE',  ( 2.500000000000000000, 3.061616997868383141E-16, 0.000000000000000000 ) ) ;
#100 = AXIS2_PLACEMENT_3D ( 'NONE', #353, #297, #91 ) ;
#101 = ORIENTED_EDGE ( 'NONE', *, *, #251, .F. ) ;
#102 = VERTEX_POINT ( 'NONE', #381 ) ;
#103 = VECTOR ( 'NONE', #170, 1000.000000000000000 ) ;
#104 = ORIENTED_EDGE ( 'NONE', *, *, #368, .F. ) ;
#105 = CARTESIAN_POINT ( 'NONE',  ( -5.500000000000000000, 6.735557395310442023E-16, 5.000000000000002665 ) ) ;
#106 = ORIENTED_EDGE ( 'NONE', *, *, #18, .F. ) ;
#107 = VERTEX_POINT ( 'NONE', #111 ) ;
#108 = AXIS2_PLACEMENT_3D ( 'NONE', #308, #56, #315 ) ;
#109 = VERTEX_POINT ( 'NONE', #236 ) ;
#110 = DIRECTION ( 'NONE',  ( -0.000000000000000000, -0.000000000000000000, -1.000000000000000000 ) ) ;
#111 = CARTESIAN_POINT ( 'NONE',  ( -8.000000000000000000, 0.000000000000000000, 0.000000000000000000 ) ) ;
#112 = CARTESIAN_POINT ( 'NONE',  ( -5.500000000000000000, 6.735557395310442023E-16, 5.500000000000005329 ) ) ;
#113 = CIRCLE ( 'NONE', #319, 0.5000000000000004441 ) ;
#114 = CARTESIAN_POINT ( 'NONE',  ( 0.000000000000000000, 0.000000000000000000, 505.0000000000000000 ) ) ;
#115 = COORDINATED_UNIVERSAL_TIME_OFFSET ( 1, 0, .AHEAD. ) ;
#116 = DIRECTION ( 'NONE',  ( 0.000000000000000000, 0.000000000000000000, -1.000000000000000000 ) ) ;
#117 = AXIS2_PLACEMENT_3D ( 'NONE', #291, #22, #313 ) ;
#118 = EDGE_CURVE ( 'NONE', #265, #344, #197, .T. ) ;
#119 = APPROVAL_PERSON_ORGANIZATION ( #298, #28, #326 ) ;
#120 = DIRECTION ( 'NONE',  ( -0.000000000000000000, -0.000000000000000000, -1.000000000000000000 ) ) ;
#121 = APPROVAL_DATE_TIME ( #240, #28 ) ;
#122 = CARTESIAN_POINT ( 'NONE',  ( 0.000000000000000000, 0.000000000000000000, 0.000000000000000000 ) ) ;
#123 = CIRCLE ( 'NONE', #140, 2.500000000000000000 ) ;
#124 = CARTESIAN_POINT ( 'NONE',  ( 0.000000000000000000, 0.000000000000000000, 5.500000000000005329 ) ) ;
#125 = EDGE_LOOP ( 'NONE', ( #367, #26 ) ) ;
#126 = ADVANCED_FACE ( 'NONE', ( #41, #292 ), #270, .T. ) ;
#127 = CC_DESIGN_PERSON_AND_ORGANIZATION_ASSIGNMENT ( #143, #40, ( #156 ) ) ;
#128 = CIRCLE ( 'NONE', #224, 8.000000000000000000 ) ;
#129 = VERTEX_POINT ( 'NONE', #325 ) ;
#130 = CARTESIAN_POINT ( 'NONE',  ( -2.500000000000000000, 0.000000000000000000, 505.0000000000000000 ) ) ;
#131 = EDGE_LOOP ( 'NONE', ( #21, #135 ) ) ;
#132 = ORIENTED_EDGE ( 'NONE', *, *, #137, .F. ) ;
#133 = CIRCLE ( 'NONE', #32, 5.500000000000000000 ) ;
#134 = VERTEX_POINT ( 'NONE', #67 ) ;
#135 = ORIENTED_EDGE ( 'NONE', *, *, #144, .T. ) ;
#136 = DIRECTION ( 'NONE',  ( 0.000000000000000000, 0.000000000000000000, 1.000000000000000000 ) ) ;
#137 = EDGE_CURVE ( 'NONE', #102, #129, #304, .T. ) ;
#138 =( NAMED_UNIT ( * ) SI_UNIT ( $, .STERADIAN. ) SOLID_ANGLE_UNIT ( ) );
#139 = PLANE ( 'NONE',  #36 ) ;
#140 = AXIS2_PLACEMENT_3D ( 'NONE', #193, #358, #45 ) ;
#141 = PERSON_AND_ORGANIZATION ( #47, #268 ) ;
#142 = CARTESIAN_POINT ( 'NONE',  ( 0.000000000000000000, 0.000000000000000000, 0.000000000000000000 ) ) ;
#143 = PERSON_AND_ORGANIZATION ( #47, #268 ) ;
#144 = EDGE_CURVE ( 'NONE', #86, #374, #128, .T. ) ;
#145 = CARTESIAN_POINT ( 'NONE',  ( 0.000000000000000000, 0.000000000000000000, 5.000000000000000000 ) ) ;
#146 = DATE_TIME_ROLE ( 'classification_date' ) ;
#147 = DIRECTION ( 'NONE',  ( -0.000000000000000000, -0.000000000000000000, -1.000000000000000000 ) ) ;
#148 = AXIS2_PLACEMENT_3D ( 'NONE', #204, #110, #1 ) ;
#149 = CARTESIAN_POINT ( 'NONE',  ( 0.000000000000000000, 0.000000000000000000, 5.000000000000000000 ) ) ;
#150 = AXIS2_PLACEMENT_3D ( 'NONE', #267, #30, #35 ) ;
#151 = COORDINATED_UNIVERSAL_TIME_OFFSET ( 1, 0, .AHEAD. ) ;
#152 = DIRECTION ( 'NONE',  ( 0.000000000000000000, 0.000000000000000000, -1.000000000000000000 ) ) ;
#153 = DATE_AND_TIME ( #184, #162 ) ;
#154 = DIRECTION ( 'NONE',  ( 0.000000000000000000, 0.000000000000000000, 1.000000000000000000 ) ) ;
#155 = AXIS2_PLACEMENT_3D ( 'NONE', #7, #152, #310 ) ;
#156 = SECURITY_CLASSIFICATION ( '', '', #66 ) ;
#157 = LOCAL_TIME ( 17, 15, 18.00000000000000000, #274 ) ;
#158 = EDGE_LOOP ( 'NONE', ( #228, #49, #223, #252 ) ) ;
#159 = ORIENTED_EDGE ( 'NONE', *, *, #11, .T. ) ;
#160 = ORIENTED_EDGE ( 'NONE', *, *, #23, .F. ) ;
#161 = DIRECTION ( 'NONE',  ( -0.000000000000000000, -0.000000000000000000, -1.000000000000000000 ) ) ;
#162 = LOCAL_TIME ( 17, 15, 18.00000000000000000, #98 ) ;
#163 = ORIENTED_EDGE ( 'NONE', *, *, #48, .F. ) ;
#164 = CYLINDRICAL_SURFACE ( 'NONE', #226, 5.000000000000000000 ) ;
#165 = CARTESIAN_POINT ( 'NONE',  ( 0.000000000000000000, 0.000000000000000000, 505.0000000000000000 ) ) ;
#166 = CC_DESIGN_PERSON_AND_ORGANIZATION_ASSIGNMENT ( #72, #182, ( #379 ) ) ;
#167 = ORIENTED_EDGE ( 'NONE', *, *, #293, .T. ) ;
#168 = CYLINDRICAL_SURFACE ( 'NONE', #148, 5.000000000000000000 ) ;
#169 = FACE_OUTER_BOUND ( 'NONE', #158, .T. ) ;
#170 = DIRECTION ( 'NONE',  ( -0.000000000000000000, -0.000000000000000000, -1.000000000000000000 ) ) ;
#171 = FACE_OUTER_BOUND ( 'NONE', #131, .T. ) ;
#172 = DATE_AND_TIME ( #332, #278 ) ;
#173 = DIRECTION ( 'NONE',  ( -1.000000000000000000, 1.224646799147351482E-16, 0.000000000000000000 ) ) ;
#174 = APPLICATION_PROTOCOL_DEFINITION ( 'international standard', 'config_control_design', 1994, #39 ) ;
#175 = EDGE_CURVE ( 'NONE', #102, #265, #212, .T. ) ;
#176 = DIRECTION ( 'NONE',  ( 0.000000000000000000, 0.000000000000000000, 1.000000000000000000 ) ) ;
#177 = DIRECTION ( 'NONE',  ( 1.000000000000000000, 0.000000000000000000, 0.000000000000000000 ) ) ;
#178 = DIRECTION ( 'NONE',  ( 0.000000000000000000, 0.000000000000000000, 1.000000000000000000 ) ) ;
#179 = LINE ( 'NONE', #130, #13 ) ;
#180 = VECTOR ( 'NONE', #147, 1000.000000000000000 ) ;
#181 = APPROVAL_PERSON_ORGANIZATION ( #97, #79, #359 ) ;
#182 = PERSON_AND_ORGANIZATION_ROLE ( 'design_owner' ) ;
#183 = ORIENTED_EDGE ( 'NONE', *, *, #137, .T. ) ;
#184 = CALENDAR_DATE ( 2022, 8, 7 ) ;
#185 = ORIENTED_EDGE ( 'NONE', *, *, #283, .F. ) ;
#186 = MANIFOLD_SOLID_BREP ( 'Odebrat vysunutím3', #279 ) ;
#187 = ORIENTED_EDGE ( 'NONE', *, *, #335, .F. ) ;
#188 = AXIS2_PLACEMENT_3D ( 'NONE', #272, #303, #42 ) ;
#189 = EDGE_CURVE ( 'NONE', #225, #24, #52, .T. ) ;
#190 = ORIENTED_EDGE ( 'NONE', *, *, #331, .T. ) ;
#191 = CYLINDRICAL_SURFACE ( 'NONE', #155, 2.500000000000000000 ) ;
#192 = ORIENTED_EDGE ( 'NONE', *, *, #368, .T. ) ;
#193 = CARTESIAN_POINT ( 'NONE',  ( 0.000000000000000000, 0.000000000000000000, 505.0000000000000000 ) ) ;
#194 = VECTOR ( 'NONE', #161, 1000.000000000000000 ) ;
#195 = LOCAL_TIME ( 17, 15, 18.00000000000000000, #151 ) ;
#196 = FACE_OUTER_BOUND ( 'NONE', #17, .T. ) ;
#197 = CIRCLE ( 'NONE', #92, 2.500000000000000000 ) ;
#198 = ORIENTED_EDGE ( 'NONE', *, *, #34, .T. ) ;
#199 = DIRECTION ( 'NONE',  ( 0.000000000000000000, 0.000000000000000000, -1.000000000000000000 ) ) ;
#200 = ORIENTED_EDGE ( 'NONE', *, *, #43, .F. ) ;
#201 = CC_DESIGN_PERSON_AND_ORGANIZATION_ASSIGNMENT ( #141, #246, ( #264 ) ) ;
#202 = UNCERTAINTY_MEASURE_WITH_UNIT (LENGTH_MEASURE( 1.000000000000000082E-05 ), #233, 'distance_accuracy_value', 'NONE');
#203 = LINE ( 'NONE', #62, #103 ) ;
#204 = CARTESIAN_POINT ( 'NONE',  ( 0.000000000000000000, 0.000000000000000000, 505.0000000000000000 ) ) ;
#205 = CARTESIAN_POINT ( 'NONE',  ( 0.000000000000000000, 0.000000000000000000, 505.0000000000000000 ) ) ;
#206 = DIRECTION ( 'NONE',  ( 1.000000000000000000, 0.000000000000000000, -0.000000000000000000 ) ) ;
#207 = EDGE_CURVE ( 'NONE', #225, #369, #327, .T. ) ;
#208 = APPROVAL_STATUS ( 'not_yet_approved' ) ;
#209 = AXIS2_PLACEMENT_3D ( 'NONE', #51, #75, #12 ) ;
#210 = DIRECTION ( 'NONE',  ( 1.224646799147353207E-16, 1.000000000000000000, -0.000000000000000000 ) ) ;
#211 = PRODUCT_DEFINITION_FORMATION_WITH_SPECIFIED_SOURCE ( 'LIBOVOLNÝ', '', #379, .NOT_KNOWN. ) ;
#212 = LINE ( 'NONE', #242, #60 ) ;
#213 = DATE_AND_TIME ( #354, #324 ) ;
#214 = EDGE_CURVE ( 'NONE', #369, #134, #309, .T. ) ;
#215 = FACE_OUTER_BOUND ( 'NONE', #263, .T. ) ;
#216 = CC_DESIGN_PERSON_AND_ORGANIZATION_ASSIGNMENT ( #37, #363, ( #211 ) ) ;
#217 = VERTEX_POINT ( 'NONE', #96 ) ;
#218 = AXIS2_PLACEMENT_3D ( 'NONE', #114, #239, #69 ) ;
#219 = AXIS2_PLACEMENT_3D ( 'NONE', #243, #178, #294 ) ;
#220 = MECHANICAL_CONTEXT ( 'NONE', #39, 'mechanical' ) ;
#221 = FACE_OUTER_BOUND ( 'NONE', #341, .T. ) ;
#222 = ADVANCED_FACE ( 'NONE', ( #221 ), #338, .T. ) ;
#223 = ORIENTED_EDGE ( 'NONE', *, *, #283, .T. ) ;
#224 = AXIS2_PLACEMENT_3D ( 'NONE', #145, #271, #5 ) ;
#225 = VERTEX_POINT ( 'NONE', #245 ) ;
#226 = AXIS2_PLACEMENT_3D ( 'NONE', #290, #261, #50 ) ;
#227 = ADVANCED_FACE ( 'NONE', ( #71 ), #191, .F. ) ;
#228 = ORIENTED_EDGE ( 'NONE', *, *, #189, .F. ) ;
#229 = PLANE ( 'NONE',  #209 ) ;
#230 = ORIENTED_EDGE ( 'NONE', *, *, #175, .T. ) ;
#231 = EDGE_LOOP ( 'NONE', ( #57, #183, #59, #159 ) ) ;
#232 = VERTEX_POINT ( 'NONE', #105 ) ;
#233 =( LENGTH_UNIT ( ) NAMED_UNIT ( * ) SI_UNIT ( .MILLI., .METRE. ) );
#234 = CARTESIAN_POINT ( 'NONE',  ( -5.000000000000000000, 0.000000000000000000, 505.0000000000000000 ) ) ;
#235 = CYLINDRICAL_SURFACE ( 'NONE', #288, 2.500000000000000000 ) ;
#236 = CARTESIAN_POINT ( 'NONE',  ( -5.000000000000000000, 0.000000000000000000, 5.500000000000005329 ) ) ;
#237 = CARTESIAN_POINT ( 'NONE',  ( 5.000000000000000000, 6.123233995736766282E-16, 5.500000000000005329 ) ) ;
#238 = APPLICATION_CONTEXT ( 'configuration controlled 3d designs of mechanical parts and assemblies' ) ;
#239 = DIRECTION ( 'NONE',  ( 0.000000000000000000, 0.000000000000000000, 1.000000000000000000 ) ) ;
#240 = DATE_AND_TIME ( #33, #195 ) ;
#241 = CIRCLE ( 'NONE', #117, 5.500000000000000000 ) ;
#242 = CARTESIAN_POINT ( 'NONE',  ( 2.500000000000000000, 3.061616997868383141E-16, 505.0000000000000000 ) ) ;
#243 = CARTESIAN_POINT ( 'NONE',  ( 0.000000000000000000, 0.000000000000000000, 0.000000000000000000 ) ) ;
#244 = AXIS2_PLACEMENT_3D ( 'NONE', #205, #318, #321 ) ;
#245 = CARTESIAN_POINT ( 'NONE',  ( 5.000000000000000000, 6.123233995736766282E-16, 505.0000000000000000 ) ) ;
#246 = PERSON_AND_ORGANIZATION_ROLE ( 'creator' ) ;
#247 = CC_DESIGN_DATE_AND_TIME_ASSIGNMENT ( #213, #146, ( #156 ) ) ;
#248 = DIRECTION ( 'NONE',  ( 0.000000000000000000, 0.000000000000000000, -1.000000000000000000 ) ) ;
#249 = ORIENTED_EDGE ( 'NONE', *, *, #189, .T. ) ;
#250 = DIRECTION ( 'NONE',  ( 1.000000000000000000, 0.000000000000000000, 0.000000000000000000 ) ) ;
#251 = EDGE_CURVE ( 'NONE', #129, #102, #123, .T. ) ;
#252 = ORIENTED_EDGE ( 'NONE', *, *, #280, .F. ) ;
#253 = CIRCLE ( 'NONE', #20, 2.500000000000000000 ) ;
#254 = ORIENTED_EDGE ( 'NONE', *, *, #144, .F. ) ;
#255 = PRODUCT_RELATED_PRODUCT_CATEGORY ( 'detail', '', ( #379 ) ) ;
#256 = ADVANCED_FACE ( 'NONE', ( #9 ), #282, .F. ) ;
#257 = ORIENTED_EDGE ( 'NONE', *, *, #48, .T. ) ;
#258 = CARTESIAN_POINT ( 'NONE',  ( -2.500000000000000000, 0.000000000000000000, 0.000000000000000000 ) ) ;
#259 = ORIENTED_EDGE ( 'NONE', *, *, #207, .F. ) ;
#260 = DIRECTION ( 'NONE',  ( -1.000000000000000000, 0.000000000000000000, 0.000000000000000000 ) ) ;
#261 = DIRECTION ( 'NONE',  ( -0.000000000000000000, -0.000000000000000000, -1.000000000000000000 ) ) ;
#262 = AXIS2_PLACEMENT_3D ( 'NONE', #373, #154, #334 ) ;
#263 = EDGE_LOOP ( 'NONE', ( #200, #27 ) ) ;
#264 = PRODUCT_DEFINITION ( 'NEZNÁMÝ', '', #211, #380 ) ;
#265 = VERTEX_POINT ( 'NONE', #99 ) ;
#266 = ADVANCED_BREP_SHAPE_REPRESENTATION ( '2b36', ( #186, #219 ), #289 ) ;
#267 = CARTESIAN_POINT ( 'NONE',  ( 0.000000000000000000, 0.000000000000000000, 0.000000000000000000 ) ) ;
#268 = ORGANIZATION ( 'NEURÈENÝ', 'NEURÈENÝ', '' ) ;
#269 = FACE_OUTER_BOUND ( 'NONE', #372, .T. ) ;
#270 = PLANE ( 'NONE',  #218 ) ;
#271 = DIRECTION ( 'NONE',  ( 0.000000000000000000, 0.000000000000000000, 1.000000000000000000 ) ) ;
#272 = CARTESIAN_POINT ( 'NONE',  ( 5.500000000000000000, 0.000000000000000000, 5.500000000000005329 ) ) ;
#273 = CC_DESIGN_APPROVAL ( #349, ( #211 ) ) ;
#274 = COORDINATED_UNIVERSAL_TIME_OFFSET ( 1, 0, .AHEAD. ) ;
#275 = SHAPE_DEFINITION_REPRESENTATION ( #317, #266 ) ;
#276 = DIRECTION ( 'NONE',  ( 1.000000000000000000, 0.000000000000000000, 0.000000000000000000 ) ) ;
#277 = AXIS2_PLACEMENT_3D ( 'NONE', #286, #136, #63 ) ;
#278 = LOCAL_TIME ( 17, 15, 18.00000000000000000, #300 ) ;
#279 = CLOSED_SHELL ( 'NONE', ( #227, #256, #8, #6, #222, #25, #302, #370, #126, #54, #365 ) ) ;
#280 = EDGE_CURVE ( 'NONE', #24, #109, #307, .T. ) ;
#281 = ORIENTED_EDGE ( 'NONE', *, *, #118, .T. ) ;
#282 = TOROIDAL_SURFACE ( 'NONE', #364, 5.500000000000000000, 0.5000000000000000000 ) ;
#283 = EDGE_CURVE ( 'NONE', #369, #109, #376, .T. ) ;
#284 = ORIENTED_EDGE ( 'NONE', *, *, #23, .T. ) ;
#285 = EDGE_LOOP ( 'NONE', ( #167, #192 ) ) ;
#286 = CARTESIAN_POINT ( 'NONE',  ( 0.000000000000000000, 0.000000000000000000, 5.000000000000000000 ) ) ;
#287 = ORIENTED_EDGE ( 'NONE', *, *, #360, .F. ) ;
#288 = AXIS2_PLACEMENT_3D ( 'NONE', #165, #199, #260 ) ;
#289 =( GEOMETRIC_REPRESENTATION_CONTEXT ( 3 ) GLOBAL_UNCERTAINTY_ASSIGNED_CONTEXT ( ( #202 ) ) GLOBAL_UNIT_ASSIGNED_CONTEXT ( ( #233, #320, #138 ) ) REPRESENTATION_CONTEXT ( 'NONE', 'WORKASPACE' ) );
#290 = CARTESIAN_POINT ( 'NONE',  ( 0.000000000000000000, 0.000000000000000000, 505.0000000000000000 ) ) ;
#291 = CARTESIAN_POINT ( 'NONE',  ( 0.000000000000000000, 0.000000000000000000, 5.000000000000000000 ) ) ;
#292 = FACE_OUTER_BOUND ( 'NONE', #343, .T. ) ;
#293 = EDGE_CURVE ( 'NONE', #134, #232, #133, .T. ) ;
#294 = DIRECTION ( 'NONE',  ( 1.000000000000000000, 0.000000000000000000, 0.000000000000000000 ) ) ;
#295 = DIRECTION ( 'NONE',  ( 0.000000000000000000, 0.000000000000000000, 1.000000000000000000 ) ) ;
#296 = PERSON_AND_ORGANIZATION ( #47, #268 ) ;
#297 = DIRECTION ( 'NONE',  ( 0.000000000000000000, 0.000000000000000000, 1.000000000000000000 ) ) ;
#298 = PERSON_AND_ORGANIZATION ( #47, #268 ) ;
#299 = CARTESIAN_POINT ( 'NONE',  ( 5.000000000000000000, 6.123233995736766282E-16, 505.0000000000000000 ) ) ;
#300 = COORDINATED_UNIVERSAL_TIME_OFFSET ( 1, 0, .AHEAD. ) ;
#301 = ORIENTED_EDGE ( 'NONE', *, *, #34, .F. ) ;
#302 = ADVANCED_FACE ( 'NONE', ( #14, #215 ), #229, .F. ) ;
#303 = DIRECTION ( 'NONE',  ( 0.000000000000000000, -1.000000000000000000, 0.000000000000000000 ) ) ;
#304 = CIRCLE ( 'NONE', #342, 2.500000000000000000 ) ;
#305 = EDGE_LOOP ( 'NONE', ( #259, #106, #378, #257 ) ) ;
#306 = ORIENTED_EDGE ( 'NONE', *, *, #214, .F. ) ;
#307 = LINE ( 'NONE', #330, #194 ) ;
#308 = CARTESIAN_POINT ( 'NONE',  ( 0.000000000000000000, 0.000000000000000000, 5.000000000000000000 ) ) ;
#309 = CIRCLE ( 'NONE', #188, 0.5000000000000004441 ) ;
#310 = DIRECTION ( 'NONE',  ( -1.000000000000000000, 0.000000000000000000, 0.000000000000000000 ) ) ;
#311 = ORIENTED_EDGE ( 'NONE', *, *, #345, .T. ) ;
#312 = EDGE_LOOP ( 'NONE', ( #163, #198, #84, #306 ) ) ;
#313 = DIRECTION ( 'NONE',  ( 1.000000000000000000, 0.000000000000000000, 0.000000000000000000 ) ) ;
#314 = CC_DESIGN_DATE_AND_TIME_ASSIGNMENT ( #352, #90, ( #264 ) ) ;
#315 = DIRECTION ( 'NONE',  ( -1.000000000000000000, 0.000000000000000000, 0.000000000000000000 ) ) ;
#316 = VECTOR ( 'NONE', #85, 1000.000000000000000 ) ;
#317 = PRODUCT_DEFINITION_SHAPE ( 'NONE', 'NONE',  #264 ) ;
#318 = DIRECTION ( 'NONE',  ( 0.000000000000000000, 0.000000000000000000, 1.000000000000000000 ) ) ;
#319 = AXIS2_PLACEMENT_3D ( 'NONE', #112, #210, #173 ) ;
#320 =( NAMED_UNIT ( * ) PLANE_ANGLE_UNIT ( ) SI_UNIT ( $, .RADIAN. ) );
#321 = DIRECTION ( 'NONE',  ( 1.000000000000000000, 0.000000000000000000, 0.000000000000000000 ) ) ;
#322 = DIRECTION ( 'NONE',  ( 1.000000000000000000, 0.000000000000000000, 0.000000000000000000 ) ) ;
#323 = PERSON_AND_ORGANIZATION ( #47, #268 ) ;
#324 = LOCAL_TIME ( 17, 15, 18.00000000000000000, #115 ) ;
#325 = CARTESIAN_POINT ( 'NONE',  ( -2.500000000000000000, 0.000000000000000000, 505.0000000000000000 ) ) ;
#326 = APPROVAL_ROLE ( '' ) ;
#327 = LINE ( 'NONE', #299, #180 ) ;
#328 = APPROVAL_DATE_TIME ( #172, #349 ) ;
#329 = DIRECTION ( 'NONE',  ( 0.000000000000000000, 0.000000000000000000, 1.000000000000000000 ) ) ;
#330 = CARTESIAN_POINT ( 'NONE',  ( -5.000000000000000000, 0.000000000000000000, 505.0000000000000000 ) ) ;
#331 = EDGE_CURVE ( 'NONE', #217, #107, #46, .T. ) ;
#332 = CALENDAR_DATE ( 2022, 8, 7 ) ;
#333 = CIRCLE ( 'NONE', #150, 8.000000000000000000 ) ;
#334 = DIRECTION ( 'NONE',  ( 1.000000000000000000, 0.000000000000000000, 0.000000000000000000 ) ) ;
#335 = EDGE_CURVE ( 'NONE', #129, #344, #179, .T. ) ;
#336 = APPROVAL_PERSON_ORGANIZATION ( #296, #349, #10 ) ;
#337 = ORIENTED_EDGE ( 'NONE', *, *, #251, .T. ) ;
#338 = CYLINDRICAL_SURFACE ( 'NONE', #16, 8.000000000000000000 ) ;
#339 = ORIENTED_EDGE ( 'NONE', *, *, #214, .T. ) ;
#340 = LINE ( 'NONE', #81, #316 ) ;
#341 = EDGE_LOOP ( 'NONE', ( #77, #287, #284, #82 ) ) ;
#342 = AXIS2_PLACEMENT_3D ( 'NONE', #61, #176, #346 ) ;
#343 = EDGE_LOOP ( 'NONE', ( #53, #249 ) ) ;
#344 = VERTEX_POINT ( 'NONE', #258 ) ;
#345 = EDGE_CURVE ( 'NONE', #86, #217, #340, .T. ) ;
#346 = DIRECTION ( 'NONE',  ( 1.000000000000000000, 0.000000000000000000, 0.000000000000000000 ) ) ;
#347 = AXIS2_PLACEMENT_3D ( 'NONE', #356, #93, #88 ) ;
#348 = CC_DESIGN_APPROVAL ( #28, ( #264 ) ) ;
#349 = APPROVAL ( #208, 'NEURÈENÝ' ) ;
#350 = DIRECTION ( 'NONE',  ( -0.000000000000000000, -0.000000000000000000, -1.000000000000000000 ) ) ;
#351 = DIRECTION ( 'NONE',  ( 0.000000000000000000, 0.000000000000000000, 1.000000000000000000 ) ) ;
#352 = DATE_AND_TIME ( #94, #157 ) ;
#353 = CARTESIAN_POINT ( 'NONE',  ( 0.000000000000000000, 0.000000000000000000, 5.500000000000005329 ) ) ;
#354 = CALENDAR_DATE ( 2022, 8, 7 ) ;
#355 = AXIS2_PLACEMENT_3D ( 'NONE', #122, #329, #19 ) ;
#356 = CARTESIAN_POINT ( 'NONE',  ( 0.000000000000000000, 0.000000000000000000, 505.0000000000000000 ) ) ;
#357 = APPLICATION_PROTOCOL_DEFINITION ( 'international standard', 'config_control_design', 1994, #238 ) ;
#358 = DIRECTION ( 'NONE',  ( 0.000000000000000000, 0.000000000000000000, 1.000000000000000000 ) ) ;
#359 = APPROVAL_ROLE ( '' ) ;
#360 = EDGE_CURVE ( 'NONE', #374, #86, #65, .T. ) ;
#361 = DIRECTION ( 'NONE',  ( 0.000000000000000000, 0.000000000000000000, 1.000000000000000000 ) ) ;
#362 = EDGE_LOOP ( 'NONE', ( #101, #132 ) ) ;
#363 = PERSON_AND_ORGANIZATION_ROLE ( 'design_supplier' ) ;
#364 = AXIS2_PLACEMENT_3D ( 'NONE', #124, #361, #276 ) ;
#365 = ADVANCED_FACE ( 'NONE', ( #87 ), #235, .F. ) ;
#366 = AXIS2_PLACEMENT_3D ( 'NONE', #38, #351, #322 ) ;
#367 = ORIENTED_EDGE ( 'NONE', *, *, #11, .F. ) ;
#368 = EDGE_CURVE ( 'NONE', #232, #134, #241, .T. ) ;
#369 = VERTEX_POINT ( 'NONE', #237 ) ;
#370 = ADVANCED_FACE ( 'NONE', ( #58 ), #168, .T. ) ;
#371 = CIRCLE ( 'NONE', #100, 5.000000000000000000 ) ;
#372 = EDGE_LOOP ( 'NONE', ( #301, #185, #339, #104 ) ) ;
#373 = CARTESIAN_POINT ( 'NONE',  ( 0.000000000000000000, 0.000000000000000000, 5.500000000000005329 ) ) ;
#374 = VERTEX_POINT ( 'NONE', #29 ) ;
#375 = CARTESIAN_POINT ( 'NONE',  ( 0.000000000000000000, 0.000000000000000000, 0.000000000000000000 ) ) ;
#376 = CIRCLE ( 'NONE', #262, 5.000000000000000000 ) ;
#377 = CYLINDRICAL_SURFACE ( 'NONE', #108, 8.000000000000000000 ) ;
#378 = ORIENTED_EDGE ( 'NONE', *, *, #280, .T. ) ;
#379 = PRODUCT ( '2b36', '2b36', '', ( #220 ) ) ;
#380 = DESIGN_CONTEXT ( 'detailed design', #238, 'design' ) ;
#381 = CARTESIAN_POINT ( 'NONE',  ( 2.500000000000000000, 3.061616997868383141E-16, 505.0000000000000000 ) ) ;
ENDSEC;
END-ISO-10303-21;
