ISO-10303-21;
HEADER;
FILE_DESCRIPTION (( 'STEP AP203' ),
    '1' );
FILE_NAME ('d78d.STEP',
    '2022-07-08T15:39:13',
    ( '' ),
    ( '' ),
    'SwSTEP 2.0',
    'SolidWorks 2019',
    '' );
FILE_SCHEMA (( 'CONFIG_CONTROL_DESIGN' ));
ENDSEC;

DATA;
#1 = DESIGN_CONTEXT ( 'detailed design', #84, 'design' ) ;
#2 = DIRECTION ( 'NONE',  ( 0.000000000000000000, 0.000000000000000000, -1.000000000000000000 ) ) ;
#3 = CC_DESIGN_DATE_AND_TIME_ASSIGNMENT ( #75, #112, ( #29 ) ) ;
#4 = EDGE_LOOP ( 'NONE', ( #64, #358 ) ) ;
#5 = AXIS2_PLACEMENT_3D ( 'NONE', #44, #193, #273 ) ;
#6 = VERTEX_POINT ( 'NONE', #252 ) ;
#7 = VERTEX_POINT ( 'NONE', #359 ) ;
#8 = FACE_OUTER_BOUND ( 'NONE', #106, .T. ) ;
#9 = AXIS2_PLACEMENT_3D ( 'NONE', #225, #345, #364 ) ;
#10 = DIRECTION ( 'NONE',  ( 0.000000000000000000, -1.000000000000000000, 0.000000000000000000 ) ) ;
#11 = DIRECTION ( 'NONE',  ( 0.000000000000000000, 0.000000000000000000, 1.000000000000000000 ) ) ;
#12 = DIRECTION ( 'NONE',  ( 0.000000000000000000, 0.000000000000000000, 1.000000000000000000 ) ) ;
#13 = CYLINDRICAL_SURFACE ( 'NONE', #9, 6.000000000000000888 ) ;
#14 = CC_DESIGN_PERSON_AND_ORGANIZATION_ASSIGNMENT ( #46, #348, ( #82 ) ) ;
#15 = DIRECTION ( 'NONE',  ( -0.000000000000000000, -0.000000000000000000, -1.000000000000000000 ) ) ;
#16 = CYLINDRICAL_SURFACE ( 'NONE', #275, 1.750000000000000000 ) ;
#17 = CC_DESIGN_APPROVAL ( #72, ( #24 ) ) ;
#18 = EDGE_LOOP ( 'NONE', ( #213, #188, #237, #123 ) ) ;
#19 = SHAPE_DEFINITION_REPRESENTATION ( #226, #53 ) ;
#20 = VERTEX_POINT ( 'NONE', #255 ) ;
#21 = ORIENTED_EDGE ( 'NONE', *, *, #63, .T. ) ;
#22 = DATE_AND_TIME ( #309, #100 ) ;
#23 = CARTESIAN_POINT ( 'NONE',  ( 0.000000000000000000, 0.000000000000000000, 5.500000000000005329 ) ) ;
#24 = PRODUCT_DEFINITION_FORMATION_WITH_SPECIFIED_SOURCE ( 'LIBOVOLNÝ', '', #82, .NOT_KNOWN. ) ;
#25 = LINE ( 'NONE', #317, #127 ) ;
#26 = AXIS2_PLACEMENT_3D ( 'NONE', #23, #190, #314 ) ;
#27 = CARTESIAN_POINT ( 'NONE',  ( 0.000000000000000000, 0.000000000000000000, 180.0000000000000000 ) ) ;
#28 = ORIENTED_EDGE ( 'NONE', *, *, #325, .F. ) ;
#29 = PRODUCT_DEFINITION ( 'NEZNÁMÝ', '', #24, #1 ) ;
#30 = CARTESIAN_POINT ( 'NONE',  ( 6.000000000000000888, 7.347880794884120722E-16, 5.000000000000000000 ) ) ;
#31 = ORIENTED_EDGE ( 'NONE', *, *, #202, .T. ) ;
#32 = ADVANCED_FACE ( 'NONE', ( #269 ), #197, .F. ) ;
#33 = EDGE_LOOP ( 'NONE', ( #137, #35, #154, #68 ) ) ;
#34 = ADVANCED_FACE ( 'NONE', ( #218 ), #118, .F. ) ;
#35 = ORIENTED_EDGE ( 'NONE', *, *, #93, .T. ) ;
#36 = DIRECTION ( 'NONE',  ( 1.000000000000000000, 0.000000000000000000, 0.000000000000000000 ) ) ;
#37 = VERTEX_POINT ( 'NONE', #95 ) ;
#38 = DIRECTION ( 'NONE',  ( 1.000000000000000000, 0.000000000000000000, 0.000000000000000000 ) ) ;
#39 = CIRCLE ( 'NONE', #86, 6.000000000000000888 ) ;
#40 = CARTESIAN_POINT ( 'NONE',  ( 0.000000000000000000, 0.000000000000000000, 5.000000000000000000 ) ) ;
#41 = CARTESIAN_POINT ( 'NONE',  ( 3.500000000000000444, 0.000000000000000000, 5.000000000000002665 ) ) ;
#42 = CARTESIAN_POINT ( 'NONE',  ( 6.000000000000000888, 7.347880794884120722E-16, 0.000000000000000000 ) ) ;
#43 = CARTESIAN_POINT ( 'NONE',  ( 0.000000000000000000, 0.000000000000000000, 0.000000000000000000 ) ) ;
#44 = CARTESIAN_POINT ( 'NONE',  ( 0.000000000000000000, 0.000000000000000000, 180.0000000000000000 ) ) ;
#45 = CARTESIAN_POINT ( 'NONE',  ( 0.000000000000000000, 0.000000000000000000, 180.0000000000000000 ) ) ;
#46 = PERSON_AND_ORGANIZATION ( #320, #357 ) ;
#47 = EDGE_CURVE ( 'NONE', #140, #7, #362, .T. ) ;
#48 = EDGE_LOOP ( 'NONE', ( #240, #310, #299, #356 ) ) ;
#49 = APPROVAL_DATE_TIME ( #224, #72 ) ;
#50 = ORIENTED_EDGE ( 'NONE', *, *, #47, .T. ) ;
#51 = CALENDAR_DATE ( 2022, 8, 7 ) ;
#52 = CARTESIAN_POINT ( 'NONE',  ( -3.500000000000000444, 4.286263797015737088E-16, 5.500000000000005329 ) ) ;
#53 = ADVANCED_BREP_SHAPE_REPRESENTATION ( 'd78d', ( #136, #115 ), #165 ) ;
#54 = VECTOR ( 'NONE', #2, 1000.000000000000000 ) ;
#55 = AXIS2_PLACEMENT_3D ( 'NONE', #268, #10, #128 ) ;
#56 = MECHANICAL_CONTEXT ( 'NONE', #183, 'mechanical' ) ;
#57 = AXIS2_PLACEMENT_3D ( 'NONE', #43, #361, #129 ) ;
#58 = CARTESIAN_POINT ( 'NONE',  ( 0.000000000000000000, 0.000000000000000000, 5.500000000000005329 ) ) ;
#59 = ADVANCED_FACE ( 'NONE', ( #303 ), #216, .T. ) ;
#60 = AXIS2_PLACEMENT_3D ( 'NONE', #83, #353, #210 ) ;
#61 = FACE_OUTER_BOUND ( 'NONE', #18, .T. ) ;
#62 = CARTESIAN_POINT ( 'NONE',  ( 3.000000000000000444, 3.673940397442060361E-16, 180.0000000000000000 ) ) ;
#63 = EDGE_CURVE ( 'NONE', #37, #65, #259, .T. ) ;
#64 = ORIENTED_EDGE ( 'NONE', *, *, #238, .T. ) ;
#65 = VERTEX_POINT ( 'NONE', #124 ) ;
#66 = DIRECTION ( 'NONE',  ( -1.000000000000000000, 1.224646799147354440E-16, 0.000000000000000000 ) ) ;
#67 = CARTESIAN_POINT ( 'NONE',  ( 0.000000000000000000, 0.000000000000000000, 0.000000000000000000 ) ) ;
#68 = ORIENTED_EDGE ( 'NONE', *, *, #263, .F. ) ;
#69 = DIRECTION ( 'NONE',  ( 1.000000000000000000, 0.000000000000000000, -0.000000000000000000 ) ) ;
#70 = DIRECTION ( 'NONE',  ( 0.000000000000000000, 0.000000000000000000, 1.000000000000000000 ) ) ;
#71 = DIRECTION ( 'NONE',  ( 0.000000000000000000, 0.000000000000000000, 1.000000000000000000 ) ) ;
#72 = APPROVAL ( #81, 'NEURÈENÝ' ) ;
#73 = DIRECTION ( 'NONE',  ( 1.000000000000000000, 0.000000000000000000, 0.000000000000000000 ) ) ;
#74 = ORIENTED_EDGE ( 'NONE', *, *, #47, .F. ) ;
#75 = DATE_AND_TIME ( #144, #379 ) ;
#76 = VECTOR ( 'NONE', #176, 1000.000000000000000 ) ;
#77 = ORIENTED_EDGE ( 'NONE', *, *, #96, .F. ) ;
#78 = PERSON_AND_ORGANIZATION_ROLE ( 'design_supplier' ) ;
#79 = DIRECTION ( 'NONE',  ( 0.000000000000000000, 0.000000000000000000, 1.000000000000000000 ) ) ;
#80 = ORIENTED_EDGE ( 'NONE', *, *, #146, .F. ) ;
#81 = APPROVAL_STATUS ( 'not_yet_approved' ) ;
#82 = PRODUCT ( 'd78d', 'd78d', '', ( #56 ) ) ;
#83 = CARTESIAN_POINT ( 'NONE',  ( 0.000000000000000000, 0.000000000000000000, 180.0000000000000000 ) ) ;
#84 = APPLICATION_CONTEXT ( 'configuration controlled 3d designs of mechanical parts and assemblies' ) ;
#85 = LINE ( 'NONE', #321, #54 ) ;
#86 = AXIS2_PLACEMENT_3D ( 'NONE', #67, #271, #196 ) ;
#87 = DIRECTION ( 'NONE',  ( -1.000000000000000000, 0.000000000000000000, 0.000000000000000000 ) ) ;
#88 = VERTEX_POINT ( 'NONE', #41 ) ;
#89 = ORIENTED_EDGE ( 'NONE', *, *, #378, .T. ) ;
#90 = AXIS2_PLACEMENT_3D ( 'NONE', #208, #179, #235 ) ;
#91 = EDGE_LOOP ( 'NONE', ( #31, #99 ) ) ;
#92 = DIRECTION ( 'NONE',  ( 0.000000000000000000, 0.000000000000000000, 1.000000000000000000 ) ) ;
#93 = EDGE_CURVE ( 'NONE', #37, #292, #132, .T. ) ;
#94 = DIRECTION ( 'NONE',  ( 1.000000000000000000, 0.000000000000000000, 0.000000000000000000 ) ) ;
#95 = CARTESIAN_POINT ( 'NONE',  ( -3.000000000000000444, 0.000000000000000000, 5.500000000000005329 ) ) ;
#96 = EDGE_CURVE ( 'NONE', #295, #211, #181, .T. ) ;
#97 = VECTOR ( 'NONE', #305, 1000.000000000000000 ) ;
#98 = DIRECTION ( 'NONE',  ( 0.000000000000000000, 0.000000000000000000, -1.000000000000000000 ) ) ;
#99 = ORIENTED_EDGE ( 'NONE', *, *, #96, .T. ) ;
#100 = LOCAL_TIME ( 17, 39, 13.00000000000000000, #105 ) ;
#101 = CARTESIAN_POINT ( 'NONE',  ( 0.000000000000000000, 0.000000000000000000, 0.000000000000000000 ) ) ;
#102 = DIRECTION ( 'NONE',  ( 0.000000000000000000, 0.000000000000000000, 1.000000000000000000 ) ) ;
#103 = APPROVAL_DATE_TIME ( #249, #288 ) ;
#104 = AXIS2_PLACEMENT_3D ( 'NONE', #108, #79, #284 ) ;
#105 = COORDINATED_UNIVERSAL_TIME_OFFSET ( 1, 0, .AHEAD. ) ;
#106 = EDGE_LOOP ( 'NONE', ( #328, #266, #253, #121 ) ) ;
#107 = DATE_AND_TIME ( #228, #316 ) ;
#108 = CARTESIAN_POINT ( 'NONE',  ( 0.000000000000000000, 0.000000000000000000, 5.000000000000000000 ) ) ;
#109 = ORIENTED_EDGE ( 'NONE', *, *, #261, .F. ) ;
#110 = APPROVAL_STATUS ( 'not_yet_approved' ) ;
#111 = CC_DESIGN_DATE_AND_TIME_ASSIGNMENT ( #22, #376, ( #276 ) ) ;
#112 = DATE_TIME_ROLE ( 'creation_date' ) ;
#113 = CARTESIAN_POINT ( 'NONE',  ( 0.000000000000000000, 0.000000000000000000, 0.000000000000000000 ) ) ;
#114 = AXIS2_PLACEMENT_3D ( 'NONE', #363, #162, #367 ) ;
#115 = AXIS2_PLACEMENT_3D ( 'NONE', #113, #230, #207 ) ;
#116 = DIRECTION ( 'NONE',  ( -0.000000000000000000, -0.000000000000000000, -1.000000000000000000 ) ) ;
#117 = EDGE_CURVE ( 'NONE', #294, #6, #318, .T. ) ;
#118 = TOROIDAL_SURFACE ( 'NONE', #26, 3.500000000000000444, 0.5000000000000000000 ) ;
#119 = CARTESIAN_POINT ( 'NONE',  ( 0.000000000000000000, 0.000000000000000000, 180.0000000000000000 ) ) ;
#120 = ORIENTED_EDGE ( 'NONE', *, *, #329, .F. ) ;
#121 = ORIENTED_EDGE ( 'NONE', *, *, #234, .T. ) ;
#122 = AXIS2_PLACEMENT_3D ( 'NONE', #194, #131, #334 ) ;
#123 = ORIENTED_EDGE ( 'NONE', *, *, #261, .T. ) ;
#124 = CARTESIAN_POINT ( 'NONE',  ( 3.000000000000000444, 3.673940397442060361E-16, 5.500000000000005329 ) ) ;
#125 = EDGE_CURVE ( 'NONE', #168, #7, #161, .T. ) ;
#126 = AXIS2_PLACEMENT_3D ( 'NONE', #248, #102, #69 ) ;
#127 = VECTOR ( 'NONE', #116, 1000.000000000000000 ) ;
#128 = DIRECTION ( 'NONE',  ( 0.000000000000000000, 0.000000000000000000, -1.000000000000000000 ) ) ;
#129 = DIRECTION ( 'NONE',  ( 1.000000000000000000, 0.000000000000000000, 0.000000000000000000 ) ) ;
#130 = CARTESIAN_POINT ( 'NONE',  ( 0.000000000000000000, 0.000000000000000000, 0.000000000000000000 ) ) ;
#131 = DIRECTION ( 'NONE',  ( -0.000000000000000000, -0.000000000000000000, -1.000000000000000000 ) ) ;
#132 = CIRCLE ( 'NONE', #265, 0.4999999999999995559 ) ;
#133 = CYLINDRICAL_SURFACE ( 'NONE', #209, 3.000000000000000444 ) ;
#134 = ADVANCED_FACE ( 'NONE', ( #8 ), #13, .T. ) ;
#135 = DIRECTION ( 'NONE',  ( -1.000000000000000000, 0.000000000000000000, 0.000000000000000000 ) ) ;
#136 = MANIFOLD_SOLID_BREP ( 'Odebrat vysunutím3', #352 ) ;
#137 = ORIENTED_EDGE ( 'NONE', *, *, #63, .F. ) ;
#138 = APPROVAL_ROLE ( '' ) ;
#139 = DIRECTION ( 'NONE',  ( 1.000000000000000000, 0.000000000000000000, 0.000000000000000000 ) ) ;
#140 = VERTEX_POINT ( 'NONE', #173 ) ;
#141 = LINE ( 'NONE', #241, #258 ) ;
#142 = AXIS2_PLACEMENT_3D ( 'NONE', #40, #245, #36 ) ;
#143 = APPROVAL_PERSON_ORGANIZATION ( #368, #270, #280 ) ;
#144 = CALENDAR_DATE ( 2022, 8, 7 ) ;
#145 = CARTESIAN_POINT ( 'NONE',  ( -3.500000000000000444, 4.286263797015737088E-16, 5.000000000000002665 ) ) ;
#146 = EDGE_CURVE ( 'NONE', #211, #20, #141, .T. ) ;
#147 =( LENGTH_UNIT ( ) NAMED_UNIT ( * ) SI_UNIT ( .MILLI., .METRE. ) );
#148 = CIRCLE ( 'NONE', #341, 6.000000000000000888 ) ;
#149 = AXIS2_PLACEMENT_3D ( 'NONE', #27, #291, #351 ) ;
#150 = CARTESIAN_POINT ( 'NONE',  ( 0.000000000000000000, 0.000000000000000000, 180.0000000000000000 ) ) ;
#151 = ORIENTED_EDGE ( 'NONE', *, *, #369, .T. ) ;
#152 = DIRECTION ( 'NONE',  ( -0.000000000000000000, -0.000000000000000000, -1.000000000000000000 ) ) ;
#153 = ORIENTED_EDGE ( 'NONE', *, *, #378, .F. ) ;
#154 = ORIENTED_EDGE ( 'NONE', *, *, #238, .F. ) ;
#155 = ADVANCED_FACE ( 'NONE', ( #160, #243 ), #274, .T. ) ;
#156 = DIRECTION ( 'NONE',  ( 1.000000000000000000, 0.000000000000000000, 0.000000000000000000 ) ) ;
#157 = VERTEX_POINT ( 'NONE', #189 ) ;
#158 = AXIS2_PLACEMENT_3D ( 'NONE', #130, #71, #166 ) ;
#159 = LOCAL_TIME ( 17, 39, 13.00000000000000000, #169 ) ;
#160 = FACE_BOUND ( 'NONE', #330, .T. ) ;
#161 = LINE ( 'NONE', #281, #97 ) ;
#162 = DIRECTION ( 'NONE',  ( 0.000000000000000000, 0.000000000000000000, 1.000000000000000000 ) ) ;
#163 = EDGE_CURVE ( 'NONE', #157, #168, #374, .T. ) ;
#164 = DIRECTION ( 'NONE',  ( 0.000000000000000000, 0.000000000000000000, 1.000000000000000000 ) ) ;
#165 =( GEOMETRIC_REPRESENTATION_CONTEXT ( 3 ) GLOBAL_UNCERTAINTY_ASSIGNED_CONTEXT ( ( #324 ) ) GLOBAL_UNIT_ASSIGNED_CONTEXT ( ( #147, #326, #232 ) ) REPRESENTATION_CONTEXT ( 'NONE', 'WORKASPACE' ) );
#166 = DIRECTION ( 'NONE',  ( 1.000000000000000000, 0.000000000000000000, -0.000000000000000000 ) ) ;
#167 = COORDINATED_UNIVERSAL_TIME_OFFSET ( 1, 0, .AHEAD. ) ;
#168 = VERTEX_POINT ( 'NONE', #301 ) ;
#169 = COORDINATED_UNIVERSAL_TIME_OFFSET ( 1, 0, .AHEAD. ) ;
#170 = ADVANCED_FACE ( 'NONE', ( #215 ), #16, .F. ) ;
#171 = VERTEX_POINT ( 'NONE', #42 ) ;
#172 = PERSON_AND_ORGANIZATION ( #320, #357 ) ;
#173 = CARTESIAN_POINT ( 'NONE',  ( 1.750000000000000000, 2.143131898507867804E-16, 0.000000000000000000 ) ) ;
#174 = DIRECTION ( 'NONE',  ( 0.000000000000000000, 0.000000000000000000, -1.000000000000000000 ) ) ;
#175 = ADVANCED_FACE ( 'NONE', ( #296, #277 ), #307, .T. ) ;
#176 = DIRECTION ( 'NONE',  ( -0.000000000000000000, -0.000000000000000000, -1.000000000000000000 ) ) ;
#177 = CIRCLE ( 'NONE', #322, 6.000000000000000888 ) ;
#178 = APPROVAL_PERSON_ORGANIZATION ( #204, #288, #313 ) ;
#179 = DIRECTION ( 'NONE',  ( -0.000000000000000000, -0.000000000000000000, -1.000000000000000000 ) ) ;
#180 = DIRECTION ( 'NONE',  ( -1.000000000000000000, 0.000000000000000000, 0.000000000000000000 ) ) ;
#181 = CIRCLE ( 'NONE', #104, 6.000000000000000888 ) ;
#182 = ORIENTED_EDGE ( 'NONE', *, *, #289, .T. ) ;
#183 = APPLICATION_CONTEXT ( 'configuration controlled 3d designs of mechanical parts and assemblies' ) ;
#184 = AXIS2_PLACEMENT_3D ( 'NONE', #58, #231, #380 ) ;
#185 = EDGE_LOOP ( 'NONE', ( #120, #227, #375, #21 ) ) ;
#186 = EDGE_CURVE ( 'NONE', #294, #37, #247, .T. ) ;
#187 = EDGE_LOOP ( 'NONE', ( #109, #74 ) ) ;
#188 = ORIENTED_EDGE ( 'NONE', *, *, #163, .T. ) ;
#189 = CARTESIAN_POINT ( 'NONE',  ( 1.750000000000000000, 2.143131898507867804E-16, 180.0000000000000000 ) ) ;
#190 = DIRECTION ( 'NONE',  ( 0.000000000000000000, 0.000000000000000000, 1.000000000000000000 ) ) ;
#191 = AXIS2_PLACEMENT_3D ( 'NONE', #198, #308, #156 ) ;
#192 = CIRCLE ( 'NONE', #184, 3.000000000000000444 ) ;
#193 = DIRECTION ( 'NONE',  ( 0.000000000000000000, 0.000000000000000000, 1.000000000000000000 ) ) ;
#194 = CARTESIAN_POINT ( 'NONE',  ( 0.000000000000000000, 0.000000000000000000, 5.000000000000000000 ) ) ;
#195 = ADVANCED_FACE ( 'NONE', ( #335 ), #133, .T. ) ;
#196 = DIRECTION ( 'NONE',  ( 1.000000000000000000, 0.000000000000000000, 0.000000000000000000 ) ) ;
#197 = TOROIDAL_SURFACE ( 'NONE', #293, 3.500000000000000444, 0.5000000000000000000 ) ;
#198 = CARTESIAN_POINT ( 'NONE',  ( 0.000000000000000000, 0.000000000000000000, 0.000000000000000000 ) ) ;
#199 = PERSON_AND_ORGANIZATION ( #320, #357 ) ;
#200 = ORIENTED_EDGE ( 'NONE', *, *, #125, .F. ) ;
#201 = SECURITY_CLASSIFICATION_LEVEL ( 'unclassified' ) ;
#202 = EDGE_CURVE ( 'NONE', #211, #295, #148, .T. ) ;
#203 = EDGE_LOOP ( 'NONE', ( #77, #151, #282, #80 ) ) ;
#204 = PERSON_AND_ORGANIZATION ( #320, #357 ) ;
#205 = DIRECTION ( 'NONE',  ( 1.000000000000000000, 0.000000000000000000, 0.000000000000000000 ) ) ;
#206 = APPROVAL_DATE_TIME ( #107, #270 ) ;
#207 = DIRECTION ( 'NONE',  ( 1.000000000000000000, 0.000000000000000000, 0.000000000000000000 ) ) ;
#208 = CARTESIAN_POINT ( 'NONE',  ( 0.000000000000000000, 0.000000000000000000, 5.000000000000000000 ) ) ;
#209 = AXIS2_PLACEMENT_3D ( 'NONE', #45, #220, #333 ) ;
#210 = DIRECTION ( 'NONE',  ( 1.000000000000000000, 0.000000000000000000, 0.000000000000000000 ) ) ;
#211 = VERTEX_POINT ( 'NONE', #365 ) ;
#212 = APPROVAL_PERSON_ORGANIZATION ( #339, #72, #138 ) ;
#213 = ORIENTED_EDGE ( 'NONE', *, *, #289, .F. ) ;
#214 = ORIENTED_EDGE ( 'NONE', *, *, #117, .T. ) ;
#215 = FACE_OUTER_BOUND ( 'NONE', #223, .T. ) ;
#216 = CYLINDRICAL_SURFACE ( 'NONE', #122, 6.000000000000000888 ) ;
#217 = CARTESIAN_POINT ( 'NONE',  ( -3.000000000000000444, 0.000000000000000000, 180.0000000000000000 ) ) ;
#218 = FACE_OUTER_BOUND ( 'NONE', #33, .T. ) ;
#219 = FACE_BOUND ( 'NONE', #187, .T. ) ;
#220 = DIRECTION ( 'NONE',  ( -0.000000000000000000, -0.000000000000000000, -1.000000000000000000 ) ) ;
#221 = PRODUCT_RELATED_PRODUCT_CATEGORY ( 'detail', '', ( #82 ) ) ;
#222 = COORDINATED_UNIVERSAL_TIME_OFFSET ( 1, 0, .AHEAD. ) ;
#223 = EDGE_LOOP ( 'NONE', ( #89, #182, #50, #200 ) ) ;
#224 = DATE_AND_TIME ( #311, #159 ) ;
#225 = CARTESIAN_POINT ( 'NONE',  ( 0.000000000000000000, 0.000000000000000000, 5.000000000000000000 ) ) ;
#226 = PRODUCT_DEFINITION_SHAPE ( 'NONE', 'NONE',  #29 ) ;
#227 = ORIENTED_EDGE ( 'NONE', *, *, #117, .F. ) ;
#228 = CALENDAR_DATE ( 2022, 8, 7 ) ;
#229 = EDGE_CURVE ( 'NONE', #171, #20, #177, .T. ) ;
#230 = DIRECTION ( 'NONE',  ( 0.000000000000000000, 0.000000000000000000, 1.000000000000000000 ) ) ;
#231 = DIRECTION ( 'NONE',  ( 0.000000000000000000, 0.000000000000000000, 1.000000000000000000 ) ) ;
#232 =( NAMED_UNIT ( * ) SI_UNIT ( $, .STERADIAN. ) SOLID_ANGLE_UNIT ( ) );
#233 = ADVANCED_FACE ( 'NONE', ( #219, #337 ), #360, .F. ) ;
#234 = EDGE_CURVE ( 'NONE', #20, #171, #39, .T. ) ;
#235 = DIRECTION ( 'NONE',  ( 1.000000000000000000, 0.000000000000000000, 0.000000000000000000 ) ) ;
#236 = CIRCLE ( 'NONE', #55, 0.5000000000000004441 ) ;
#237 = ORIENTED_EDGE ( 'NONE', *, *, #125, .T. ) ;
#238 = EDGE_CURVE ( 'NONE', #88, #292, #302, .T. ) ;
#239 = ORIENTED_EDGE ( 'NONE', *, *, #373, .T. ) ;
#240 = ORIENTED_EDGE ( 'NONE', *, *, #373, .F. ) ;
#241 = CARTESIAN_POINT ( 'NONE',  ( -6.000000000000000888, 0.000000000000000000, 5.000000000000000000 ) ) ;
#242 = CIRCLE ( 'NONE', #149, 3.000000000000000444 ) ;
#243 = FACE_OUTER_BOUND ( 'NONE', #347, .T. ) ;
#244 = CC_DESIGN_PERSON_AND_ORGANIZATION_ASSIGNMENT ( #199, #283, ( #276 ) ) ;
#245 = DIRECTION ( 'NONE',  ( -0.000000000000000000, -0.000000000000000000, -1.000000000000000000 ) ) ;
#246 = CARTESIAN_POINT ( 'NONE',  ( 0.000000000000000000, 0.000000000000000000, 5.500000000000005329 ) ) ;
#247 = LINE ( 'NONE', #217, #327 ) ;
#248 = CARTESIAN_POINT ( 'NONE',  ( 0.000000000000000000, 0.000000000000000000, 180.0000000000000000 ) ) ;
#249 = DATE_AND_TIME ( #51, #323 ) ;
#250 = ORIENTED_EDGE ( 'NONE', *, *, #263, .T. ) ;
#251 = APPROVAL_STATUS ( 'not_yet_approved' ) ;
#252 = CARTESIAN_POINT ( 'NONE',  ( 3.000000000000000444, 3.673940397442060361E-16, 180.0000000000000000 ) ) ;
#253 = ORIENTED_EDGE ( 'NONE', *, *, #146, .T. ) ;
#254 = CC_DESIGN_APPROVAL ( #270, ( #276 ) ) ;
#255 = CARTESIAN_POINT ( 'NONE',  ( -6.000000000000000888, 0.000000000000000000, 0.000000000000000000 ) ) ;
#256 = PERSON_AND_ORGANIZATION_ROLE ( 'creator' ) ;
#257 = CARTESIAN_POINT ( 'NONE',  ( -3.000000000000000444, 0.000000000000000000, 180.0000000000000000 ) ) ;
#258 = VECTOR ( 'NONE', #331, 1000.000000000000000 ) ;
#259 = CIRCLE ( 'NONE', #286, 3.000000000000000444 ) ;
#260 = CYLINDRICAL_SURFACE ( 'NONE', #262, 1.750000000000000000 ) ;
#261 = EDGE_CURVE ( 'NONE', #7, #140, #354, .T. ) ;
#262 = AXIS2_PLACEMENT_3D ( 'NONE', #119, #174, #87 ) ;
#263 = EDGE_CURVE ( 'NONE', #65, #88, #236, .T. ) ;
#264 = EDGE_LOOP ( 'NONE', ( #370, #298, #250, #28 ) ) ;
#265 = AXIS2_PLACEMENT_3D ( 'NONE', #52, #372, #66 ) ;
#266 = ORIENTED_EDGE ( 'NONE', *, *, #202, .F. ) ;
#267 = CARTESIAN_POINT ( 'NONE',  ( 0.000000000000000000, 0.000000000000000000, 5.500000000000005329 ) ) ;
#268 = CARTESIAN_POINT ( 'NONE',  ( 3.500000000000000444, 0.000000000000000000, 5.500000000000005329 ) ) ;
#269 = FACE_OUTER_BOUND ( 'NONE', #264, .T. ) ;
#270 = APPROVAL ( #110, 'NEURÈENÝ' ) ;
#271 = DIRECTION ( 'NONE',  ( 0.000000000000000000, 0.000000000000000000, 1.000000000000000000 ) ) ;
#272 = EDGE_LOOP ( 'NONE', ( #312, #343 ) ) ;
#273 = DIRECTION ( 'NONE',  ( 1.000000000000000000, 0.000000000000000000, 0.000000000000000000 ) ) ;
#274 = PLANE ( 'NONE',  #126 ) ;
#275 = AXIS2_PLACEMENT_3D ( 'NONE', #304, #98, #135 ) ;
#276 = SECURITY_CLASSIFICATION ( '', '', #201 ) ;
#277 = FACE_OUTER_BOUND ( 'NONE', #91, .T. ) ;
#278 = PERSON_AND_ORGANIZATION_ROLE ( 'creator' ) ;
#279 = ORIENTED_EDGE ( 'NONE', *, *, #163, .F. ) ;
#280 = APPROVAL_ROLE ( '' ) ;
#281 = CARTESIAN_POINT ( 'NONE',  ( -1.750000000000000000, 0.000000000000000000, 180.0000000000000000 ) ) ;
#282 = ORIENTED_EDGE ( 'NONE', *, *, #229, .T. ) ;
#283 = PERSON_AND_ORGANIZATION_ROLE ( 'classification_officer' ) ;
#284 = DIRECTION ( 'NONE',  ( 1.000000000000000000, 0.000000000000000000, 0.000000000000000000 ) ) ;
#285 = ADVANCED_FACE ( 'NONE', ( #61 ), #260, .F. ) ;
#286 = AXIS2_PLACEMENT_3D ( 'NONE', #267, #70, #139 ) ;
#287 = CYLINDRICAL_SURFACE ( 'NONE', #366, 3.000000000000000444 ) ;
#288 = APPROVAL ( #251, 'NEURÈENÝ' ) ;
#289 = EDGE_CURVE ( 'NONE', #157, #140, #85, .T. ) ;
#290 = APPLICATION_PROTOCOL_DEFINITION ( 'international standard', 'config_control_design', 1994, #183 ) ;
#291 = DIRECTION ( 'NONE',  ( 0.000000000000000000, 0.000000000000000000, 1.000000000000000000 ) ) ;
#292 = VERTEX_POINT ( 'NONE', #145 ) ;
#293 = AXIS2_PLACEMENT_3D ( 'NONE', #246, #11, #38 ) ;
#294 = VERTEX_POINT ( 'NONE', #257 ) ;
#295 = VERTEX_POINT ( 'NONE', #30 ) ;
#296 = FACE_BOUND ( 'NONE', #4, .T. ) ;
#297 = AXIS2_PLACEMENT_3D ( 'NONE', #336, #92, #205 ) ;
#298 = ORIENTED_EDGE ( 'NONE', *, *, #332, .F. ) ;
#299 = ORIENTED_EDGE ( 'NONE', *, *, #332, .T. ) ;
#300 = ADVANCED_FACE ( 'NONE', ( #319 ), #287, .T. ) ;
#301 = CARTESIAN_POINT ( 'NONE',  ( -1.750000000000000000, 0.000000000000000000, 180.0000000000000000 ) ) ;
#302 = CIRCLE ( 'NONE', #142, 3.500000000000000444 ) ;
#303 = FACE_OUTER_BOUND ( 'NONE', #203, .T. ) ;
#304 = CARTESIAN_POINT ( 'NONE',  ( 0.000000000000000000, 0.000000000000000000, 180.0000000000000000 ) ) ;
#305 = DIRECTION ( 'NONE',  ( 0.000000000000000000, 0.000000000000000000, -1.000000000000000000 ) ) ;
#306 = CC_DESIGN_PERSON_AND_ORGANIZATION_ASSIGNMENT ( #377, #78, ( #24 ) ) ;
#307 = PLANE ( 'NONE',  #114 ) ;
#308 = DIRECTION ( 'NONE',  ( -0.000000000000000000, -0.000000000000000000, -1.000000000000000000 ) ) ;
#309 = CALENDAR_DATE ( 2022, 8, 7 ) ;
#310 = ORIENTED_EDGE ( 'NONE', *, *, #329, .T. ) ;
#311 = CALENDAR_DATE ( 2022, 8, 7 ) ;
#312 = ORIENTED_EDGE ( 'NONE', *, *, #234, .F. ) ;
#313 = APPROVAL_ROLE ( '' ) ;
#314 = DIRECTION ( 'NONE',  ( 1.000000000000000000, 0.000000000000000000, 0.000000000000000000 ) ) ;
#315 = CIRCLE ( 'NONE', #90, 3.500000000000000444 ) ;
#316 = LOCAL_TIME ( 17, 39, 13.00000000000000000, #222 ) ;
#317 = CARTESIAN_POINT ( 'NONE',  ( 6.000000000000000888, 7.347880794884120722E-16, 5.000000000000000000 ) ) ;
#318 = CIRCLE ( 'NONE', #297, 3.000000000000000444 ) ;
#319 = FACE_OUTER_BOUND ( 'NONE', #48, .T. ) ;
#320 = PERSON ( 'NEURÈENÝ', 'NEURÈENÝ', 'NEURÈENÝ', ('NEURÈENÝ'), ('NEURÈENÝ'), ('NEURÈENÝ') ) ;
#321 = CARTESIAN_POINT ( 'NONE',  ( 1.750000000000000000, 2.143131898507867804E-16, 180.0000000000000000 ) ) ;
#322 = AXIS2_PLACEMENT_3D ( 'NONE', #101, #164, #73 ) ;
#323 = LOCAL_TIME ( 17, 39, 13.00000000000000000, #344 ) ;
#324 = UNCERTAINTY_MEASURE_WITH_UNIT (LENGTH_MEASURE( 1.000000000000000082E-05 ), #147, 'distance_accuracy_value', 'NONE');
#325 = EDGE_CURVE ( 'NONE', #292, #88, #315, .T. ) ;
#326 =( NAMED_UNIT ( * ) PLANE_ANGLE_UNIT ( ) SI_UNIT ( $, .RADIAN. ) );
#327 = VECTOR ( 'NONE', #15, 1000.000000000000000 ) ;
#328 = ORIENTED_EDGE ( 'NONE', *, *, #369, .F. ) ;
#329 = EDGE_CURVE ( 'NONE', #6, #65, #381, .T. ) ;
#330 = EDGE_LOOP ( 'NONE', ( #153, #279 ) ) ;
#331 = DIRECTION ( 'NONE',  ( -0.000000000000000000, -0.000000000000000000, -1.000000000000000000 ) ) ;
#332 = EDGE_CURVE ( 'NONE', #65, #37, #192, .T. ) ;
#333 = DIRECTION ( 'NONE',  ( -1.000000000000000000, 0.000000000000000000, 0.000000000000000000 ) ) ;
#334 = DIRECTION ( 'NONE',  ( -1.000000000000000000, 0.000000000000000000, 0.000000000000000000 ) ) ;
#335 = FACE_OUTER_BOUND ( 'NONE', #185, .T. ) ;
#336 = CARTESIAN_POINT ( 'NONE',  ( 0.000000000000000000, 0.000000000000000000, 180.0000000000000000 ) ) ;
#337 = FACE_OUTER_BOUND ( 'NONE', #272, .T. ) ;
#338 = CARTESIAN_POINT ( 'NONE',  ( 0.000000000000000000, 0.000000000000000000, 5.000000000000000000 ) ) ;
#339 = PERSON_AND_ORGANIZATION ( #320, #357 ) ;
#340 = PERSON_AND_ORGANIZATION ( #320, #357 ) ;
#341 = AXIS2_PLACEMENT_3D ( 'NONE', #338, #12, #94 ) ;
#342 = CIRCLE ( 'NONE', #60, 1.750000000000000000 ) ;
#343 = ORIENTED_EDGE ( 'NONE', *, *, #229, .F. ) ;
#344 = COORDINATED_UNIVERSAL_TIME_OFFSET ( 1, 0, .AHEAD. ) ;
#345 = DIRECTION ( 'NONE',  ( -0.000000000000000000, -0.000000000000000000, -1.000000000000000000 ) ) ;
#346 = CC_DESIGN_PERSON_AND_ORGANIZATION_ASSIGNMENT ( #172, #278, ( #24 ) ) ;
#347 = EDGE_LOOP ( 'NONE', ( #214, #239 ) ) ;
#348 = PERSON_AND_ORGANIZATION_ROLE ( 'design_owner' ) ;
#349 = CC_DESIGN_PERSON_AND_ORGANIZATION_ASSIGNMENT ( #340, #256, ( #29 ) ) ;
#350 = CC_DESIGN_APPROVAL ( #288, ( #29 ) ) ;
#351 = DIRECTION ( 'NONE',  ( 1.000000000000000000, 0.000000000000000000, 0.000000000000000000 ) ) ;
#352 = CLOSED_SHELL ( 'NONE', ( #170, #34, #300, #59, #134, #175, #233, #195, #155, #32, #285 ) ) ;
#353 = DIRECTION ( 'NONE',  ( 0.000000000000000000, 0.000000000000000000, 1.000000000000000000 ) ) ;
#354 = CIRCLE ( 'NONE', #191, 1.750000000000000000 ) ;
#355 = CC_DESIGN_SECURITY_CLASSIFICATION ( #276, ( #24 ) ) ;
#356 = ORIENTED_EDGE ( 'NONE', *, *, #186, .F. ) ;
#357 = ORGANIZATION ( 'NEURÈENÝ', 'NEURÈENÝ', '' ) ;
#358 = ORIENTED_EDGE ( 'NONE', *, *, #325, .T. ) ;
#359 = CARTESIAN_POINT ( 'NONE',  ( -1.750000000000000000, 0.000000000000000000, 0.000000000000000000 ) ) ;
#360 = PLANE ( 'NONE',  #158 ) ;
#361 = DIRECTION ( 'NONE',  ( -0.000000000000000000, -0.000000000000000000, -1.000000000000000000 ) ) ;
#362 = CIRCLE ( 'NONE', #57, 1.750000000000000000 ) ;
#363 = CARTESIAN_POINT ( 'NONE',  ( 0.000000000000000000, 0.000000000000000000, 5.000000000000000000 ) ) ;
#364 = DIRECTION ( 'NONE',  ( -1.000000000000000000, 0.000000000000000000, 0.000000000000000000 ) ) ;
#365 = CARTESIAN_POINT ( 'NONE',  ( -6.000000000000000888, 0.000000000000000000, 5.000000000000000000 ) ) ;
#366 = AXIS2_PLACEMENT_3D ( 'NONE', #150, #152, #180 ) ;
#367 = DIRECTION ( 'NONE',  ( 1.000000000000000000, 0.000000000000000000, -0.000000000000000000 ) ) ;
#368 = PERSON_AND_ORGANIZATION ( #320, #357 ) ;
#369 = EDGE_CURVE ( 'NONE', #295, #171, #25, .T. ) ;
#370 = ORIENTED_EDGE ( 'NONE', *, *, #93, .F. ) ;
#371 = APPLICATION_PROTOCOL_DEFINITION ( 'international standard', 'config_control_design', 1994, #84 ) ;
#372 = DIRECTION ( 'NONE',  ( 1.224646799147353207E-16, 1.000000000000000000, -0.000000000000000000 ) ) ;
#373 = EDGE_CURVE ( 'NONE', #6, #294, #242, .T. ) ;
#374 = CIRCLE ( 'NONE', #5, 1.750000000000000000 ) ;
#375 = ORIENTED_EDGE ( 'NONE', *, *, #186, .T. ) ;
#376 = DATE_TIME_ROLE ( 'classification_date' ) ;
#377 = PERSON_AND_ORGANIZATION ( #320, #357 ) ;
#378 = EDGE_CURVE ( 'NONE', #168, #157, #342, .T. ) ;
#379 = LOCAL_TIME ( 17, 39, 13.00000000000000000, #167 ) ;
#380 = DIRECTION ( 'NONE',  ( 1.000000000000000000, 0.000000000000000000, 0.000000000000000000 ) ) ;
#381 = LINE ( 'NONE', #62, #76 ) ;
ENDSEC;
END-ISO-10303-21;
