ISO-10303-21;
HEADER;
FILE_DESCRIPTION (( 'STEP AP203' ),
    '1' );
FILE_NAME ('b17e.STEP',
    '2022-07-08T15:20:00',
    ( '' ),
    ( '' ),
    'SwSTEP 2.0',
    'SolidWorks 2019',
    '' );
FILE_SCHEMA (( 'CONFIG_CONTROL_DESIGN' ));
ENDSEC;

DATA;
#1 = VERTEX_POINT ( 'NONE', #271 ) ;
#2 = EDGE_LOOP ( 'NONE', ( #23, #321, #232, #58 ) ) ;
#3 = DIRECTION ( 'NONE',  ( -1.000000000000000000, 0.000000000000000000, 0.000000000000000000 ) ) ;
#4 = EDGE_CURVE ( 'NONE', #150, #141, #330, .T. ) ;
#5 = VERTEX_POINT ( 'NONE', #345 ) ;
#6 = CARTESIAN_POINT ( 'NONE',  ( -2.500000000000000000, 0.000000000000000000, 0.000000000000000000 ) ) ;
#7 = CARTESIAN_POINT ( 'NONE',  ( 0.000000000000000000, 0.000000000000000000, 0.000000000000000000 ) ) ;
#8 = VECTOR ( 'NONE', #48, 1000.000000000000000 ) ;
#9 = PERSON_AND_ORGANIZATION_ROLE ( 'creator' ) ;
#10 = EDGE_CURVE ( 'NONE', #297, #144, #201, .T. ) ;
#11 = CYLINDRICAL_SURFACE ( 'NONE', #203, 4.000000000000000000 ) ;
#12 = CARTESIAN_POINT ( 'NONE',  ( -7.000000000000000000, 0.000000000000000000, 5.000000000000000000 ) ) ;
#13 = SECURITY_CLASSIFICATION_LEVEL ( 'unclassified' ) ;
#14 =( LENGTH_UNIT ( ) NAMED_UNIT ( * ) SI_UNIT ( .MILLI., .METRE. ) );
#15 = CALENDAR_DATE ( 2022, 8, 7 ) ;
#16 = APPROVAL_PERSON_ORGANIZATION ( #18, #223, #192 ) ;
#17 = PERSON_AND_ORGANIZATION ( #43, #65 ) ;
#18 = PERSON_AND_ORGANIZATION ( #43, #65 ) ;
#19 = CIRCLE ( 'NONE', #64, 4.500000000000000888 ) ;
#20 = EDGE_CURVE ( 'NONE', #84, #206, #19, .T. ) ;
#21 = CARTESIAN_POINT ( 'NONE',  ( 0.000000000000000000, 0.000000000000000000, 5.000000000000000000 ) ) ;
#22 = CYLINDRICAL_SURFACE ( 'NONE', #341, 7.000000000000000000 ) ;
#23 = ORIENTED_EDGE ( 'NONE', *, *, #193, .F. ) ;
#24 = DIRECTION ( 'NONE',  ( 1.000000000000000000, 0.000000000000000000, 0.000000000000000000 ) ) ;
#25 = DIRECTION ( 'NONE',  ( 1.000000000000000000, 0.000000000000000000, 0.000000000000000000 ) ) ;
#26 = DIRECTION ( 'NONE',  ( 0.000000000000000000, 0.000000000000000000, 1.000000000000000000 ) ) ;
#27 = EDGE_LOOP ( 'NONE', ( #286, #358, #99, #319 ) ) ;
#28 = ORIENTED_EDGE ( 'NONE', *, *, #153, .T. ) ;
#29 = ORIENTED_EDGE ( 'NONE', *, *, #110, .F. ) ;
#30 = DIRECTION ( 'NONE',  ( -0.000000000000000000, -0.000000000000000000, -1.000000000000000000 ) ) ;
#31 = CIRCLE ( 'NONE', #255, 7.000000000000000000 ) ;
#32 = ORIENTED_EDGE ( 'NONE', *, *, #254, .F. ) ;
#33 = ORIENTED_EDGE ( 'NONE', *, *, #20, .T. ) ;
#34 = CARTESIAN_POINT ( 'NONE',  ( -4.500000000000000888, 5.510910596163088569E-16, 5.000000000000002665 ) ) ;
#35 = DIRECTION ( 'NONE',  ( -1.000000000000000000, 1.224646799147351482E-16, 0.000000000000000000 ) ) ;
#36 = EDGE_CURVE ( 'NONE', #350, #5, #31, .T. ) ;
#37 = DIRECTION ( 'NONE',  ( -0.000000000000000000, -0.000000000000000000, -1.000000000000000000 ) ) ;
#38 = CIRCLE ( 'NONE', #87, 4.500000000000000888 ) ;
#39 = CC_DESIGN_APPROVAL ( #72, ( #369 ) ) ;
#40 = CARTESIAN_POINT ( 'NONE',  ( 0.000000000000000000, 0.000000000000000000, 0.000000000000000000 ) ) ;
#41 = PERSON_AND_ORGANIZATION_ROLE ( 'creator' ) ;
#42 = CC_DESIGN_DATE_AND_TIME_ASSIGNMENT ( #73, #281, ( #369 ) ) ;
#43 = PERSON ( 'NEURÈENÝ', 'NEURÈENÝ', 'NEURÈENÝ', ('NEURÈENÝ'), ('NEURÈENÝ'), ('NEURÈENÝ') ) ;
#44 = APPLICATION_PROTOCOL_DEFINITION ( 'international standard', 'config_control_design', 1994, #335 ) ;
#45 = DIRECTION ( 'NONE',  ( 0.000000000000000000, 0.000000000000000000, 1.000000000000000000 ) ) ;
#46 = ADVANCED_FACE ( 'NONE', ( #228, #80 ), #285, .T. ) ;
#47 = AXIS2_PLACEMENT_3D ( 'NONE', #40, #158, #278 ) ;
#48 = DIRECTION ( 'NONE',  ( -0.000000000000000000, -0.000000000000000000, -1.000000000000000000 ) ) ;
#49 = PLANE ( 'NONE',  #135 ) ;
#50 = CARTESIAN_POINT ( 'NONE',  ( 0.000000000000000000, 0.000000000000000000, 5.500000000000005329 ) ) ;
#51 = CC_DESIGN_PERSON_AND_ORGANIZATION_ASSIGNMENT ( #74, #279, ( #324 ) ) ;
#52 = CARTESIAN_POINT ( 'NONE',  ( 2.500000000000000000, 3.061616997868383141E-16, 280.0000000000000000 ) ) ;
#53 = PRODUCT ( 'b17e', 'b17e', '', ( #102 ) ) ;
#54 = CIRCLE ( 'NONE', #114, 4.000000000000000000 ) ;
#55 = ADVANCED_BREP_SHAPE_REPRESENTATION ( 'b17e', ( #180, #162 ), #317 ) ;
#56 = CARTESIAN_POINT ( 'NONE',  ( 2.500000000000000000, 3.061616997868383141E-16, 0.000000000000000000 ) ) ;
#57 = ORIENTED_EDGE ( 'NONE', *, *, #4, .T. ) ;
#58 = ORIENTED_EDGE ( 'NONE', *, *, #362, .F. ) ;
#59 = CC_DESIGN_PERSON_AND_ORGANIZATION_ASSIGNMENT ( #17, #306, ( #53 ) ) ;
#60 = EDGE_LOOP ( 'NONE', ( #62, #245 ) ) ;
#61 = CARTESIAN_POINT ( 'NONE',  ( 0.000000000000000000, 0.000000000000000000, 5.500000000000005329 ) ) ;
#62 = ORIENTED_EDGE ( 'NONE', *, *, #227, .F. ) ;
#63 = CARTESIAN_POINT ( 'NONE',  ( 0.000000000000000000, 0.000000000000000000, 5.000000000000000000 ) ) ;
#64 = AXIS2_PLACEMENT_3D ( 'NONE', #171, #290, #204 ) ;
#65 = ORGANIZATION ( 'NEURÈENÝ', 'NEURÈENÝ', '' ) ;
#66 = FACE_OUTER_BOUND ( 'NONE', #174, .T. ) ;
#67 = EDGE_LOOP ( 'NONE', ( #173, #240 ) ) ;
#68 = DIRECTION ( 'NONE',  ( 0.000000000000000000, 0.000000000000000000, -1.000000000000000000 ) ) ;
#69 = CIRCLE ( 'NONE', #336, 7.000000000000000000 ) ;
#70 = APPROVAL_STATUS ( 'not_yet_approved' ) ;
#71 = APPLICATION_PROTOCOL_DEFINITION ( 'international standard', 'config_control_design', 1994, #243 ) ;
#72 = APPROVAL ( #133, 'NEURÈENÝ' ) ;
#73 = DATE_AND_TIME ( #75, #148 ) ;
#74 = PERSON_AND_ORGANIZATION ( #43, #65 ) ;
#75 = CALENDAR_DATE ( 2022, 8, 7 ) ;
#76 = APPROVAL_ROLE ( '' ) ;
#77 = ADVANCED_FACE ( 'NONE', ( #261 ), #105, .F. ) ;
#78 = DIRECTION ( 'NONE',  ( 1.000000000000000000, 0.000000000000000000, 0.000000000000000000 ) ) ;
#79 = VECTOR ( 'NONE', #145, 1000.000000000000000 ) ;
#80 = FACE_OUTER_BOUND ( 'NONE', #355, .T. ) ;
#81 = EDGE_CURVE ( 'NONE', #210, #175, #172, .T. ) ;
#82 = CC_DESIGN_PERSON_AND_ORGANIZATION_ASSIGNMENT ( #220, #333, ( #236 ) ) ;
#83 = DIRECTION ( 'NONE',  ( -0.000000000000000000, -0.000000000000000000, -1.000000000000000000 ) ) ;
#84 = VERTEX_POINT ( 'NONE', #199 ) ;
#85 = DIRECTION ( 'NONE',  ( 0.000000000000000000, 0.000000000000000000, 1.000000000000000000 ) ) ;
#86 = VERTEX_POINT ( 'NONE', #257 ) ;
#87 = AXIS2_PLACEMENT_3D ( 'NONE', #91, #131, #190 ) ;
#88 = EDGE_CURVE ( 'NONE', #141, #150, #323, .T. ) ;
#89 = CARTESIAN_POINT ( 'NONE',  ( 0.000000000000000000, 0.000000000000000000, 280.0000000000000000 ) ) ;
#90 = ORIENTED_EDGE ( 'NONE', *, *, #81, .T. ) ;
#91 = CARTESIAN_POINT ( 'NONE',  ( 0.000000000000000000, 0.000000000000000000, 5.000000000000000000 ) ) ;
#92 = ORIENTED_EDGE ( 'NONE', *, *, #197, .T. ) ;
#93 = ORIENTED_EDGE ( 'NONE', *, *, #137, .T. ) ;
#94 = DIRECTION ( 'NONE',  ( 0.000000000000000000, 0.000000000000000000, 1.000000000000000000 ) ) ;
#95 = CARTESIAN_POINT ( 'NONE',  ( 7.000000000000000000, 8.572527594031473190E-16, 5.000000000000000000 ) ) ;
#96 = VECTOR ( 'NONE', #30, 1000.000000000000000 ) ;
#97 = AXIS2_PLACEMENT_3D ( 'NONE', #334, #159, #251 ) ;
#98 = DATE_AND_TIME ( #326, #308 ) ;
#99 = ORIENTED_EDGE ( 'NONE', *, *, #20, .F. ) ;
#100 = CARTESIAN_POINT ( 'NONE',  ( 0.000000000000000000, 0.000000000000000000, 280.0000000000000000 ) ) ;
#101 = CARTESIAN_POINT ( 'NONE',  ( 0.000000000000000000, 0.000000000000000000, 5.500000000000005329 ) ) ;
#102 = MECHANICAL_CONTEXT ( 'NONE', #335, 'mechanical' ) ;
#103 = CARTESIAN_POINT ( 'NONE',  ( 7.000000000000000000, 8.572527594031473190E-16, 0.000000000000000000 ) ) ;
#104 = ADVANCED_FACE ( 'NONE', ( #108, #344 ), #49, .T. ) ;
#105 = TOROIDAL_SURFACE ( 'NONE', #303, 4.500000000000000888, 0.5000000000000000000 ) ;
#106 = CARTESIAN_POINT ( 'NONE',  ( 4.000000000000000000, 4.898587196589412829E-16, 280.0000000000000000 ) ) ;
#107 = ORIENTED_EDGE ( 'NONE', *, *, #36, .T. ) ;
#108 = FACE_BOUND ( 'NONE', #67, .T. ) ;
#109 = CARTESIAN_POINT ( 'NONE',  ( 0.000000000000000000, 0.000000000000000000, 5.000000000000000000 ) ) ;
#110 = EDGE_CURVE ( 'NONE', #350, #86, #263, .T. ) ;
#111 = CARTESIAN_POINT ( 'NONE',  ( 0.000000000000000000, 0.000000000000000000, 280.0000000000000000 ) ) ;
#112 = EDGE_LOOP ( 'NONE', ( #292, #269, #217, #293 ) ) ;
#113 = ORIENTED_EDGE ( 'NONE', *, *, #10, .F. ) ;
#114 = AXIS2_PLACEMENT_3D ( 'NONE', #61, #325, #244 ) ;
#115 = VERTEX_POINT ( 'NONE', #103 ) ;
#116 = CARTESIAN_POINT ( 'NONE',  ( -4.500000000000000888, 5.510910596163089556E-16, 5.500000000000005329 ) ) ;
#117 = ORIENTED_EDGE ( 'NONE', *, *, #10, .T. ) ;
#118 = DIRECTION ( 'NONE',  ( 0.000000000000000000, 0.000000000000000000, -1.000000000000000000 ) ) ;
#119 = CC_DESIGN_PERSON_AND_ORGANIZATION_ASSIGNMENT ( #191, #9, ( #324 ) ) ;
#120 = AXIS2_PLACEMENT_3D ( 'NONE', #63, #178, #155 ) ;
#121 = CARTESIAN_POINT ( 'NONE',  ( 2.500000000000000000, 3.061616997868383141E-16, 280.0000000000000000 ) ) ;
#122 = CLOSED_SHELL ( 'NONE', ( #184, #77, #329, #246, #128, #46, #346, #305, #104, #340, #129 ) ) ;
#123 = LOCAL_TIME ( 17, 20, 0.000000000000000000, #249 ) ;
#124 = APPROVAL_ROLE ( '' ) ;
#125 = CARTESIAN_POINT ( 'NONE',  ( 0.000000000000000000, 0.000000000000000000, 280.0000000000000000 ) ) ;
#126 = APPROVAL_DATE_TIME ( #277, #338 ) ;
#127 = DIRECTION ( 'NONE',  ( -1.000000000000000000, 0.000000000000000000, 0.000000000000000000 ) ) ;
#128 = ADVANCED_FACE ( 'NONE', ( #142 ), #22, .T. ) ;
#129 = ADVANCED_FACE ( 'NONE', ( #378 ), #349, .F. ) ;
#130 = DATE_TIME_ROLE ( 'classification_date' ) ;
#131 = DIRECTION ( 'NONE',  ( -0.000000000000000000, -0.000000000000000000, -1.000000000000000000 ) ) ;
#132 = AXIS2_PLACEMENT_3D ( 'NONE', #231, #83, #200 ) ;
#133 = APPROVAL_STATUS ( 'not_yet_approved' ) ;
#134 = COORDINATED_UNIVERSAL_TIME_OFFSET ( 1, 0, .AHEAD. ) ;
#135 = AXIS2_PLACEMENT_3D ( 'NONE', #111, #205, #312 ) ;
#136 = LOCAL_TIME ( 17, 20, 0.000000000000000000, #253 ) ;
#137 = EDGE_CURVE ( 'NONE', #141, #299, #373, .T. ) ;
#138 = CARTESIAN_POINT ( 'NONE',  ( 0.000000000000000000, 0.000000000000000000, 0.000000000000000000 ) ) ;
#139 = DIRECTION ( 'NONE',  ( 1.000000000000000000, 0.000000000000000000, 0.000000000000000000 ) ) ;
#140 = CIRCLE ( 'NONE', #132, 2.500000000000000000 ) ;
#141 = VERTEX_POINT ( 'NONE', #198 ) ;
#142 = FACE_OUTER_BOUND ( 'NONE', #112, .T. ) ;
#143 = EDGE_CURVE ( 'NONE', #175, #144, #140, .T. ) ;
#144 = VERTEX_POINT ( 'NONE', #56 ) ;
#145 = DIRECTION ( 'NONE',  ( 0.000000000000000000, 0.000000000000000000, -1.000000000000000000 ) ) ;
#146 = EDGE_LOOP ( 'NONE', ( #213, #352 ) ) ;
#147 = EDGE_LOOP ( 'NONE', ( #238, #379, #268, #28 ) ) ;
#148 = LOCAL_TIME ( 17, 20, 0.000000000000000000, #366 ) ;
#149 = DIRECTION ( 'NONE',  ( -1.000000000000000000, 0.000000000000000000, 0.000000000000000000 ) ) ;
#150 = VERTEX_POINT ( 'NONE', #313 ) ;
#151 = EDGE_LOOP ( 'NONE', ( #181, #93, #294, #318 ) ) ;
#152 = FACE_OUTER_BOUND ( 'NONE', #242, .T. ) ;
#153 = EDGE_CURVE ( 'NONE', #1, #299, #266, .T. ) ;
#154 = ORIENTED_EDGE ( 'NONE', *, *, #81, .F. ) ;
#155 = DIRECTION ( 'NONE',  ( 1.000000000000000000, 0.000000000000000000, 0.000000000000000000 ) ) ;
#156 = DIRECTION ( 'NONE',  ( 1.000000000000000000, 0.000000000000000000, 0.000000000000000000 ) ) ;
#157 = EDGE_CURVE ( 'NONE', #150, #1, #311, .T. ) ;
#158 = DIRECTION ( 'NONE',  ( 0.000000000000000000, 0.000000000000000000, 1.000000000000000000 ) ) ;
#159 = DIRECTION ( 'NONE',  ( 0.000000000000000000, 0.000000000000000000, 1.000000000000000000 ) ) ;
#160 = CARTESIAN_POINT ( 'NONE',  ( 0.000000000000000000, 0.000000000000000000, 0.000000000000000000 ) ) ;
#161 = CIRCLE ( 'NONE', #164, 0.5000000000000004441 ) ;
#162 = AXIS2_PLACEMENT_3D ( 'NONE', #160, #45, #252 ) ;
#163 = APPROVAL_DATE_TIME ( #309, #72 ) ;
#164 = AXIS2_PLACEMENT_3D ( 'NONE', #116, #295, #35 ) ;
#165 = EDGE_CURVE ( 'NONE', #144, #175, #258, .T. ) ;
#166 = CARTESIAN_POINT ( 'NONE',  ( -4.000000000000000000, 0.000000000000000000, 280.0000000000000000 ) ) ;
#167 = CARTESIAN_POINT ( 'NONE',  ( 0.000000000000000000, 0.000000000000000000, 280.0000000000000000 ) ) ;
#168 = DIRECTION ( 'NONE',  ( 0.000000000000000000, 0.000000000000000000, 1.000000000000000000 ) ) ;
#169 = AXIS2_PLACEMENT_3D ( 'NONE', #260, #230, #25 ) ;
#170 = UNCERTAINTY_MEASURE_WITH_UNIT (LENGTH_MEASURE( 1.000000000000000082E-05 ), #14, 'distance_accuracy_value', 'NONE');
#171 = CARTESIAN_POINT ( 'NONE',  ( 0.000000000000000000, 0.000000000000000000, 5.000000000000000000 ) ) ;
#172 = LINE ( 'NONE', #291, #79 ) ;
#173 = ORIENTED_EDGE ( 'NONE', *, *, #197, .F. ) ;
#174 = EDGE_LOOP ( 'NONE', ( #32, #239, #209, #29 ) ) ;
#175 = VERTEX_POINT ( 'NONE', #6 ) ;
#176 = DIRECTION ( 'NONE',  ( 1.000000000000000000, 0.000000000000000000, 0.000000000000000000 ) ) ;
#177 = EDGE_LOOP ( 'NONE', ( #57, #375 ) ) ;
#178 = DIRECTION ( 'NONE',  ( 0.000000000000000000, 0.000000000000000000, 1.000000000000000000 ) ) ;
#179 = CC_DESIGN_DATE_AND_TIME_ASSIGNMENT ( #332, #130, ( #236 ) ) ;
#180 = MANIFOLD_SOLID_BREP ( 'Odebrat vysunutím3', #122 ) ;
#181 = ORIENTED_EDGE ( 'NONE', *, *, #88, .F. ) ;
#182 = CYLINDRICAL_SURFACE ( 'NONE', #287, 7.000000000000000000 ) ;
#183 = CYLINDRICAL_SURFACE ( 'NONE', #381, 4.000000000000000000 ) ;
#184 = ADVANCED_FACE ( 'NONE', ( #152 ), #272, .F. ) ;
#185 = CALENDAR_DATE ( 2022, 8, 7 ) ;
#186 = AXIS2_PLACEMENT_3D ( 'NONE', #138, #351, #354 ) ;
#187 = PLANE ( 'NONE',  #47 ) ;
#188 = CIRCLE ( 'NONE', #97, 2.500000000000000000 ) ;
#189 = SHAPE_DEFINITION_REPRESENTATION ( #234, #55 ) ;
#190 = DIRECTION ( 'NONE',  ( 1.000000000000000000, 0.000000000000000000, 0.000000000000000000 ) ) ;
#191 = PERSON_AND_ORGANIZATION ( #43, #65 ) ;
#192 = APPROVAL_ROLE ( '' ) ;
#193 = EDGE_CURVE ( 'NONE', #1, #206, #161, .T. ) ;
#194 = CC_DESIGN_PERSON_AND_ORGANIZATION_ASSIGNMENT ( #224, #41, ( #369 ) ) ;
#195 = AXIS2_PLACEMENT_3D ( 'NONE', #361, #212, #156 ) ;
#196 = LOCAL_TIME ( 17, 20, 0.000000000000000000, #274 ) ;
#197 = EDGE_CURVE ( 'NONE', #210, #297, #214, .T. ) ;
#198 = CARTESIAN_POINT ( 'NONE',  ( 4.000000000000000000, 4.898587196589412829E-16, 280.0000000000000000 ) ) ;
#199 = CARTESIAN_POINT ( 'NONE',  ( 4.500000000000000888, 0.000000000000000000, 5.000000000000002665 ) ) ;
#200 = DIRECTION ( 'NONE',  ( 1.000000000000000000, 0.000000000000000000, 0.000000000000000000 ) ) ;
#201 = LINE ( 'NONE', #52, #310 ) ;
#202 = CARTESIAN_POINT ( 'NONE',  ( 0.000000000000000000, 0.000000000000000000, 5.000000000000000000 ) ) ;
#203 = AXIS2_PLACEMENT_3D ( 'NONE', #125, #270, #127 ) ;
#204 = DIRECTION ( 'NONE',  ( 1.000000000000000000, 0.000000000000000000, 0.000000000000000000 ) ) ;
#205 = DIRECTION ( 'NONE',  ( 0.000000000000000000, 0.000000000000000000, 1.000000000000000000 ) ) ;
#206 = VERTEX_POINT ( 'NONE', #34 ) ;
#207 = FACE_OUTER_BOUND ( 'NONE', #2, .T. ) ;
#208 = EDGE_CURVE ( 'NONE', #299, #1, #54, .T. ) ;
#209 = ORIENTED_EDGE ( 'NONE', *, *, #282, .T. ) ;
#210 = VERTEX_POINT ( 'NONE', #356 ) ;
#211 = PRODUCT_RELATED_PRODUCT_CATEGORY ( 'detail', '', ( #53 ) ) ;
#212 = DIRECTION ( 'NONE',  ( 0.000000000000000000, 0.000000000000000000, 1.000000000000000000 ) ) ;
#213 = ORIENTED_EDGE ( 'NONE', *, *, #143, .F. ) ;
#214 = CIRCLE ( 'NONE', #357, 2.500000000000000000 ) ;
#215 = APPROVAL_PERSON_ORGANIZATION ( #363, #338, #124 ) ;
#216 = CARTESIAN_POINT ( 'NONE',  ( 0.000000000000000000, 0.000000000000000000, 5.000000000000000000 ) ) ;
#217 = ORIENTED_EDGE ( 'NONE', *, *, #110, .T. ) ;
#218 = LINE ( 'NONE', #95, #96 ) ;
#219 = EDGE_CURVE ( 'NONE', #5, #115, #218, .T. ) ;
#220 = PERSON_AND_ORGANIZATION ( #43, #65 ) ;
#221 = DIRECTION ( 'NONE',  ( 0.000000000000000000, 0.000000000000000000, 1.000000000000000000 ) ) ;
#222 = AXIS2_PLACEMENT_3D ( 'NONE', #167, #339, #24 ) ;
#223 = APPROVAL ( #365, 'NEURÈENÝ' ) ;
#224 = PERSON_AND_ORGANIZATION ( #43, #65 ) ;
#225 = AXIS2_PLACEMENT_3D ( 'NONE', #89, #370, #342 ) ;
#226 = CC_DESIGN_APPROVAL ( #338, ( #236 ) ) ;
#227 = EDGE_CURVE ( 'NONE', #86, #115, #296, .T. ) ;
#228 = FACE_BOUND ( 'NONE', #314, .T. ) ;
#229 = DIRECTION ( 'NONE',  ( -0.000000000000000000, -0.000000000000000000, -1.000000000000000000 ) ) ;
#230 = DIRECTION ( 'NONE',  ( 0.000000000000000000, 0.000000000000000000, 1.000000000000000000 ) ) ;
#231 = CARTESIAN_POINT ( 'NONE',  ( 0.000000000000000000, 0.000000000000000000, 0.000000000000000000 ) ) ;
#232 = ORIENTED_EDGE ( 'NONE', *, *, #265, .T. ) ;
#233 = DIRECTION ( 'NONE',  ( 1.000000000000000000, 0.000000000000000000, 0.000000000000000000 ) ) ;
#234 = PRODUCT_DEFINITION_SHAPE ( 'NONE', 'NONE',  #369 ) ;
#235 = AXIS2_PLACEMENT_3D ( 'NONE', #248, #273, #68 ) ;
#236 = SECURITY_CLASSIFICATION ( '', '', #13 ) ;
#237 = ORIENTED_EDGE ( 'NONE', *, *, #362, .T. ) ;
#238 = ORIENTED_EDGE ( 'NONE', *, *, #137, .F. ) ;
#239 = ORIENTED_EDGE ( 'NONE', *, *, #219, .T. ) ;
#240 = ORIENTED_EDGE ( 'NONE', *, *, #374, .F. ) ;
#241 = CARTESIAN_POINT ( 'NONE',  ( 0.000000000000000000, 0.000000000000000000, 280.0000000000000000 ) ) ;
#242 = EDGE_LOOP ( 'NONE', ( #92, #117, #262, #154 ) ) ;
#243 = APPLICATION_CONTEXT ( 'configuration controlled 3d designs of mechanical parts and assemblies' ) ;
#244 = DIRECTION ( 'NONE',  ( 1.000000000000000000, 0.000000000000000000, 0.000000000000000000 ) ) ;
#245 = ORIENTED_EDGE ( 'NONE', *, *, #282, .F. ) ;
#246 = ADVANCED_FACE ( 'NONE', ( #66 ), #182, .T. ) ;
#247 = CIRCLE ( 'NONE', #235, 0.5000000000000004441 ) ;
#248 = CARTESIAN_POINT ( 'NONE',  ( 4.500000000000000888, 0.000000000000000000, 5.500000000000005329 ) ) ;
#249 = COORDINATED_UNIVERSAL_TIME_OFFSET ( 1, 0, .AHEAD. ) ;
#250 = FACE_BOUND ( 'NONE', #146, .T. ) ;
#251 = DIRECTION ( 'NONE',  ( 1.000000000000000000, 0.000000000000000000, 0.000000000000000000 ) ) ;
#252 = DIRECTION ( 'NONE',  ( 1.000000000000000000, 0.000000000000000000, 0.000000000000000000 ) ) ;
#253 = COORDINATED_UNIVERSAL_TIME_OFFSET ( 1, 0, .AHEAD. ) ;
#254 = EDGE_CURVE ( 'NONE', #5, #350, #275, .T. ) ;
#255 = AXIS2_PLACEMENT_3D ( 'NONE', #109, #348, #233 ) ;
#256 = DIRECTION ( 'NONE',  ( -1.000000000000000000, 0.000000000000000000, 0.000000000000000000 ) ) ;
#257 = CARTESIAN_POINT ( 'NONE',  ( -7.000000000000000000, 0.000000000000000000, 0.000000000000000000 ) ) ;
#258 = CIRCLE ( 'NONE', #186, 2.500000000000000000 ) ;
#259 = CC_DESIGN_SECURITY_CLASSIFICATION ( #236, ( #324 ) ) ;
#260 = CARTESIAN_POINT ( 'NONE',  ( 0.000000000000000000, 0.000000000000000000, 280.0000000000000000 ) ) ;
#261 = FACE_OUTER_BOUND ( 'NONE', #27, .T. ) ;
#262 = ORIENTED_EDGE ( 'NONE', *, *, #165, .T. ) ;
#263 = LINE ( 'NONE', #376, #8 ) ;
#264 = EDGE_LOOP ( 'NONE', ( #113, #353, #90, #301 ) ) ;
#265 = EDGE_CURVE ( 'NONE', #299, #84, #247, .T. ) ;
#266 = CIRCLE ( 'NONE', #289, 4.000000000000000000 ) ;
#267 = APPROVAL_PERSON_ORGANIZATION ( #307, #72, #76 ) ;
#268 = ORIENTED_EDGE ( 'NONE', *, *, #157, .T. ) ;
#269 = ORIENTED_EDGE ( 'NONE', *, *, #36, .F. ) ;
#270 = DIRECTION ( 'NONE',  ( -0.000000000000000000, -0.000000000000000000, -1.000000000000000000 ) ) ;
#271 = CARTESIAN_POINT ( 'NONE',  ( -4.000000000000000000, 0.000000000000000000, 5.500000000000005329 ) ) ;
#272 = CYLINDRICAL_SURFACE ( 'NONE', #371, 2.500000000000000000 ) ;
#273 = DIRECTION ( 'NONE',  ( 0.000000000000000000, -1.000000000000000000, 0.000000000000000000 ) ) ;
#274 = COORDINATED_UNIVERSAL_TIME_OFFSET ( 1, 0, .AHEAD. ) ;
#275 = CIRCLE ( 'NONE', #120, 7.000000000000000000 ) ;
#276 = FACE_OUTER_BOUND ( 'NONE', #151, .T. ) ;
#277 = DATE_AND_TIME ( #15, #123 ) ;
#278 = DIRECTION ( 'NONE',  ( 1.000000000000000000, 0.000000000000000000, -0.000000000000000000 ) ) ;
#279 = PERSON_AND_ORGANIZATION_ROLE ( 'design_supplier' ) ;
#280 = AXIS2_PLACEMENT_3D ( 'NONE', #21, #26, #316 ) ;
#281 = DATE_TIME_ROLE ( 'creation_date' ) ;
#282 = EDGE_CURVE ( 'NONE', #115, #86, #69, .T. ) ;
#283 = TOROIDAL_SURFACE ( 'NONE', #368, 4.500000000000000888, 0.5000000000000000000 ) ;
#284 = DIRECTION ( 'NONE',  ( -0.000000000000000000, -0.000000000000000000, -1.000000000000000000 ) ) ;
#285 = PLANE ( 'NONE',  #280 ) ;
#286 = ORIENTED_EDGE ( 'NONE', *, *, #153, .F. ) ;
#287 = AXIS2_PLACEMENT_3D ( 'NONE', #216, #322, #300 ) ;
#288 = CARTESIAN_POINT ( 'NONE',  ( 0.000000000000000000, 0.000000000000000000, 5.500000000000005329 ) ) ;
#289 = AXIS2_PLACEMENT_3D ( 'NONE', #50, #85, #78 ) ;
#290 = DIRECTION ( 'NONE',  ( -0.000000000000000000, -0.000000000000000000, -1.000000000000000000 ) ) ;
#291 = CARTESIAN_POINT ( 'NONE',  ( -2.500000000000000000, 0.000000000000000000, 280.0000000000000000 ) ) ;
#292 = ORIENTED_EDGE ( 'NONE', *, *, #219, .F. ) ;
#293 = ORIENTED_EDGE ( 'NONE', *, *, #227, .T. ) ;
#294 = ORIENTED_EDGE ( 'NONE', *, *, #208, .T. ) ;
#295 = DIRECTION ( 'NONE',  ( 1.224646799147353207E-16, 1.000000000000000000, -0.000000000000000000 ) ) ;
#296 = CIRCLE ( 'NONE', #195, 7.000000000000000000 ) ;
#297 = VERTEX_POINT ( 'NONE', #121 ) ;
#298 = DIRECTION ( 'NONE',  ( 1.000000000000000000, 0.000000000000000000, 0.000000000000000000 ) ) ;
#299 = VERTEX_POINT ( 'NONE', #327 ) ;
#300 = DIRECTION ( 'NONE',  ( -1.000000000000000000, 0.000000000000000000, 0.000000000000000000 ) ) ;
#301 = ORIENTED_EDGE ( 'NONE', *, *, #143, .T. ) ;
#302 = CARTESIAN_POINT ( 'NONE',  ( 0.000000000000000000, 0.000000000000000000, 280.0000000000000000 ) ) ;
#303 = AXIS2_PLACEMENT_3D ( 'NONE', #288, #168, #139 ) ;
#304 = FACE_OUTER_BOUND ( 'NONE', #147, .T. ) ;
#305 = ADVANCED_FACE ( 'NONE', ( #304 ), #183, .T. ) ;
#306 = PERSON_AND_ORGANIZATION_ROLE ( 'design_owner' ) ;
#307 = PERSON_AND_ORGANIZATION ( #43, #65 ) ;
#308 = LOCAL_TIME ( 17, 20, 0.000000000000000000, #134 ) ;
#309 = DATE_AND_TIME ( #331, #136 ) ;
#310 = VECTOR ( 'NONE', #377, 1000.000000000000000 ) ;
#311 = LINE ( 'NONE', #166, #315 ) ;
#312 = DIRECTION ( 'NONE',  ( 1.000000000000000000, 0.000000000000000000, -0.000000000000000000 ) ) ;
#313 = CARTESIAN_POINT ( 'NONE',  ( -4.000000000000000000, 0.000000000000000000, 280.0000000000000000 ) ) ;
#314 = EDGE_LOOP ( 'NONE', ( #33, #237 ) ) ;
#315 = VECTOR ( 'NONE', #284, 1000.000000000000000 ) ;
#316 = DIRECTION ( 'NONE',  ( 1.000000000000000000, 0.000000000000000000, -0.000000000000000000 ) ) ;
#317 =( GEOMETRIC_REPRESENTATION_CONTEXT ( 3 ) GLOBAL_UNCERTAINTY_ASSIGNED_CONTEXT ( ( #170 ) ) GLOBAL_UNIT_ASSIGNED_CONTEXT ( ( #14, #367, #337 ) ) REPRESENTATION_CONTEXT ( 'NONE', 'WORKASPACE' ) );
#318 = ORIENTED_EDGE ( 'NONE', *, *, #157, .F. ) ;
#319 = ORIENTED_EDGE ( 'NONE', *, *, #265, .F. ) ;
#320 = DIRECTION ( 'NONE',  ( 0.000000000000000000, 0.000000000000000000, 1.000000000000000000 ) ) ;
#321 = ORIENTED_EDGE ( 'NONE', *, *, #208, .F. ) ;
#322 = DIRECTION ( 'NONE',  ( -0.000000000000000000, -0.000000000000000000, -1.000000000000000000 ) ) ;
#323 = CIRCLE ( 'NONE', #222, 4.000000000000000000 ) ;
#324 = PRODUCT_DEFINITION_FORMATION_WITH_SPECIFIED_SOURCE ( 'LIBOVOLNÝ', '', #53, .NOT_KNOWN. ) ;
#325 = DIRECTION ( 'NONE',  ( 0.000000000000000000, 0.000000000000000000, 1.000000000000000000 ) ) ;
#326 = CALENDAR_DATE ( 2022, 8, 7 ) ;
#327 = CARTESIAN_POINT ( 'NONE',  ( 4.000000000000000000, 4.898587196589412829E-16, 5.500000000000005329 ) ) ;
#328 = FACE_OUTER_BOUND ( 'NONE', #60, .T. ) ;
#329 = ADVANCED_FACE ( 'NONE', ( #276 ), #11, .T. ) ;
#330 = CIRCLE ( 'NONE', #169, 4.000000000000000000 ) ;
#331 = CALENDAR_DATE ( 2022, 8, 7 ) ;
#332 = DATE_AND_TIME ( #185, #196 ) ;
#333 = PERSON_AND_ORGANIZATION_ROLE ( 'classification_officer' ) ;
#334 = CARTESIAN_POINT ( 'NONE',  ( 0.000000000000000000, 0.000000000000000000, 280.0000000000000000 ) ) ;
#335 = APPLICATION_CONTEXT ( 'configuration controlled 3d designs of mechanical parts and assemblies' ) ;
#336 = AXIS2_PLACEMENT_3D ( 'NONE', #7, #320, #359 ) ;
#337 =( NAMED_UNIT ( * ) SI_UNIT ( $, .STERADIAN. ) SOLID_ANGLE_UNIT ( ) );
#338 = APPROVAL ( #70, 'NEURÈENÝ' ) ;
#339 = DIRECTION ( 'NONE',  ( 0.000000000000000000, 0.000000000000000000, 1.000000000000000000 ) ) ;
#340 = ADVANCED_FACE ( 'NONE', ( #207 ), #283, .F. ) ;
#341 = AXIS2_PLACEMENT_3D ( 'NONE', #202, #347, #256 ) ;
#342 = DIRECTION ( 'NONE',  ( -1.000000000000000000, 0.000000000000000000, 0.000000000000000000 ) ) ;
#343 = DESIGN_CONTEXT ( 'detailed design', #243, 'design' ) ;
#344 = FACE_OUTER_BOUND ( 'NONE', #177, .T. ) ;
#345 = CARTESIAN_POINT ( 'NONE',  ( 7.000000000000000000, 8.572527594031473190E-16, 5.000000000000000000 ) ) ;
#346 = ADVANCED_FACE ( 'NONE', ( #250, #328 ), #187, .F. ) ;
#347 = DIRECTION ( 'NONE',  ( -0.000000000000000000, -0.000000000000000000, -1.000000000000000000 ) ) ;
#348 = DIRECTION ( 'NONE',  ( 0.000000000000000000, 0.000000000000000000, 1.000000000000000000 ) ) ;
#349 = CYLINDRICAL_SURFACE ( 'NONE', #225, 2.500000000000000000 ) ;
#350 = VERTEX_POINT ( 'NONE', #12 ) ;
#351 = DIRECTION ( 'NONE',  ( -0.000000000000000000, -0.000000000000000000, -1.000000000000000000 ) ) ;
#352 = ORIENTED_EDGE ( 'NONE', *, *, #165, .F. ) ;
#353 = ORIENTED_EDGE ( 'NONE', *, *, #374, .T. ) ;
#354 = DIRECTION ( 'NONE',  ( 1.000000000000000000, 0.000000000000000000, 0.000000000000000000 ) ) ;
#355 = EDGE_LOOP ( 'NONE', ( #107, #380 ) ) ;
#356 = CARTESIAN_POINT ( 'NONE',  ( -2.500000000000000000, 0.000000000000000000, 280.0000000000000000 ) ) ;
#357 = AXIS2_PLACEMENT_3D ( 'NONE', #241, #94, #298 ) ;
#358 = ORIENTED_EDGE ( 'NONE', *, *, #193, .T. ) ;
#359 = DIRECTION ( 'NONE',  ( 1.000000000000000000, 0.000000000000000000, 0.000000000000000000 ) ) ;
#360 = APPROVAL_DATE_TIME ( #98, #223 ) ;
#361 = CARTESIAN_POINT ( 'NONE',  ( 0.000000000000000000, 0.000000000000000000, 0.000000000000000000 ) ) ;
#362 = EDGE_CURVE ( 'NONE', #206, #84, #38, .T. ) ;
#363 = PERSON_AND_ORGANIZATION ( #43, #65 ) ;
#364 = VECTOR ( 'NONE', #229, 1000.000000000000000 ) ;
#365 = APPROVAL_STATUS ( 'not_yet_approved' ) ;
#366 = COORDINATED_UNIVERSAL_TIME_OFFSET ( 1, 0, .AHEAD. ) ;
#367 =( NAMED_UNIT ( * ) PLANE_ANGLE_UNIT ( ) SI_UNIT ( $, .RADIAN. ) );
#368 = AXIS2_PLACEMENT_3D ( 'NONE', #101, #221, #176 ) ;
#369 = PRODUCT_DEFINITION ( 'NEZNÁMÝ', '', #324, #343 ) ;
#370 = DIRECTION ( 'NONE',  ( 0.000000000000000000, 0.000000000000000000, -1.000000000000000000 ) ) ;
#371 = AXIS2_PLACEMENT_3D ( 'NONE', #100, #118, #3 ) ;
#372 = CC_DESIGN_APPROVAL ( #223, ( #324 ) ) ;
#373 = LINE ( 'NONE', #106, #364 ) ;
#374 = EDGE_CURVE ( 'NONE', #297, #210, #188, .T. ) ;
#375 = ORIENTED_EDGE ( 'NONE', *, *, #88, .T. ) ;
#376 = CARTESIAN_POINT ( 'NONE',  ( -7.000000000000000000, 0.000000000000000000, 5.000000000000000000 ) ) ;
#377 = DIRECTION ( 'NONE',  ( 0.000000000000000000, 0.000000000000000000, -1.000000000000000000 ) ) ;
#378 = FACE_OUTER_BOUND ( 'NONE', #264, .T. ) ;
#379 = ORIENTED_EDGE ( 'NONE', *, *, #4, .F. ) ;
#380 = ORIENTED_EDGE ( 'NONE', *, *, #254, .T. ) ;
#381 = AXIS2_PLACEMENT_3D ( 'NONE', #302, #37, #149 ) ;
ENDSEC;
END-ISO-10303-21;
