ISO-10303-21;
HEADER;
FILE_DESCRIPTION (( 'STEP AP203' ),
    '1' );
FILE_NAME ('ea03.STEP',
    '2022-07-08T15:28:05',
    ( '' ),
    ( '' ),
    'SwSTEP 2.0',
    'SolidWorks 2019',
    '' );
FILE_SCHEMA (( 'CONFIG_CONTROL_DESIGN' ));
ENDSEC;

DATA;
#1 = ORIENTED_EDGE ( 'NONE', *, *, #243, .F. ) ;
#2 = DATE_TIME_ROLE ( 'creation_date' ) ;
#3 = CARTESIAN_POINT ( 'NONE',  ( 0.000000000000000000, 0.000000000000000000, 5.500000000000005329 ) ) ;
#4 = CIRCLE ( 'NONE', #214, 2.100000000000000089 ) ;
#5 = COORDINATED_UNIVERSAL_TIME_OFFSET ( 1, 0, .AHEAD. ) ;
#6 = CARTESIAN_POINT ( 'NONE',  ( 0.000000000000000000, 0.000000000000000000, 180.0000000000000000 ) ) ;
#7 = CARTESIAN_POINT ( 'NONE',  ( 0.000000000000000000, 0.000000000000000000, 180.0000000000000000 ) ) ;
#8 = AXIS2_PLACEMENT_3D ( 'NONE', #335, #186, #222 ) ;
#9 = APPLICATION_PROTOCOL_DEFINITION ( 'international standard', 'config_control_design', 1994, #226 ) ;
#10 = ORIENTED_EDGE ( 'NONE', *, *, #309, .F. ) ;
#11 = CARTESIAN_POINT ( 'NONE',  ( 0.000000000000000000, 0.000000000000000000, 180.0000000000000000 ) ) ;
#12 = ORIENTED_EDGE ( 'NONE', *, *, #216, .F. ) ;
#13 = CYLINDRICAL_SURFACE ( 'NONE', #194, 7.000000000000000000 ) ;
#14 = AXIS2_PLACEMENT_3D ( 'NONE', #42, #18, #248 ) ;
#15 = ORIENTED_EDGE ( 'NONE', *, *, #143, .T. ) ;
#16 = FACE_BOUND ( 'NONE', #319, .T. ) ;
#17 = ADVANCED_FACE ( 'NONE', ( #63 ), #339, .F. ) ;
#18 = DIRECTION ( 'NONE',  ( 0.000000000000000000, 0.000000000000000000, 1.000000000000000000 ) ) ;
#19 = VECTOR ( 'NONE', #371, 1000.000000000000000 ) ;
#20 = CARTESIAN_POINT ( 'NONE',  ( 0.000000000000000000, 0.000000000000000000, 5.000000000000000000 ) ) ;
#21 = ORIENTED_EDGE ( 'NONE', *, *, #154, .T. ) ;
#22 = VERTEX_POINT ( 'NONE', #96 ) ;
#23 = DIRECTION ( 'NONE',  ( 0.000000000000000000, 0.000000000000000000, 1.000000000000000000 ) ) ;
#24 = AXIS2_PLACEMENT_3D ( 'NONE', #259, #157, #263 ) ;
#25 = DIRECTION ( 'NONE',  ( -0.000000000000000000, -0.000000000000000000, -1.000000000000000000 ) ) ;
#26 = EDGE_LOOP ( 'NONE', ( #233, #12, #328, #326 ) ) ;
#27 = CC_DESIGN_DATE_AND_TIME_ASSIGNMENT ( #184, #181, ( #29 ) ) ;
#28 = FACE_BOUND ( 'NONE', #257, .T. ) ;
#29 = SECURITY_CLASSIFICATION ( '', '', #252 ) ;
#30 = CARTESIAN_POINT ( 'NONE',  ( 0.000000000000000000, 0.000000000000000000, 0.000000000000000000 ) ) ;
#31 = FACE_OUTER_BOUND ( 'NONE', #26, .T. ) ;
#32 = EDGE_CURVE ( 'NONE', #22, #94, #103, .T. ) ;
#33 = CALENDAR_DATE ( 2022, 8, 7 ) ;
#34 = DIRECTION ( 'NONE',  ( 0.000000000000000000, 0.000000000000000000, 1.000000000000000000 ) ) ;
#35 = AXIS2_PLACEMENT_3D ( 'NONE', #3, #149, #144 ) ;
#36 = CYLINDRICAL_SURFACE ( 'NONE', #279, 2.100000000000000089 ) ;
#37 = DIRECTION ( 'NONE',  ( -1.000000000000000000, 0.000000000000000000, 0.000000000000000000 ) ) ;
#38 = ORIENTED_EDGE ( 'NONE', *, *, #282, .F. ) ;
#39 = DIRECTION ( 'NONE',  ( -0.000000000000000000, -0.000000000000000000, -1.000000000000000000 ) ) ;
#40 = EDGE_CURVE ( 'NONE', #134, #338, #165, .T. ) ;
#41 = ORIENTED_EDGE ( 'NONE', *, *, #228, .F. ) ;
#42 = CARTESIAN_POINT ( 'NONE',  ( 0.000000000000000000, 0.000000000000000000, 5.000000000000000000 ) ) ;
#43 = PERSON_AND_ORGANIZATION ( #287, #333 ) ;
#44 = CARTESIAN_POINT ( 'NONE',  ( 0.000000000000000000, 0.000000000000000000, 5.000000000000000000 ) ) ;
#45 = FACE_BOUND ( 'NONE', #291, .T. ) ;
#46 = ORIENTED_EDGE ( 'NONE', *, *, #126, .F. ) ;
#47 = LOCAL_TIME ( 17, 28, 5.000000000000000000, #139 ) ;
#48 = EDGE_CURVE ( 'NONE', #275, #134, #320, .T. ) ;
#49 = DIRECTION ( 'NONE',  ( -0.000000000000000000, -0.000000000000000000, -1.000000000000000000 ) ) ;
#50 = ORIENTED_EDGE ( 'NONE', *, *, #380, .T. ) ;
#51 = ORIENTED_EDGE ( 'NONE', *, *, #166, .T. ) ;
#52 = ADVANCED_FACE ( 'NONE', ( #31 ), #210, .T. ) ;
#53 = AXIS2_PLACEMENT_3D ( 'NONE', #30, #39, #89 ) ;
#54 = DIRECTION ( 'NONE',  ( 0.000000000000000000, 0.000000000000000000, 1.000000000000000000 ) ) ;
#55 = VECTOR ( 'NONE', #308, 1000.000000000000000 ) ;
#56 = DIRECTION ( 'NONE',  ( 0.000000000000000000, 0.000000000000000000, -1.000000000000000000 ) ) ;
#57 = CARTESIAN_POINT ( 'NONE',  ( 0.000000000000000000, 0.000000000000000000, 180.0000000000000000 ) ) ;
#58 = DIRECTION ( 'NONE',  ( 1.000000000000000000, 0.000000000000000000, 0.000000000000000000 ) ) ;
#59 = ORIENTED_EDGE ( 'NONE', *, *, #117, .F. ) ;
#60 = DIRECTION ( 'NONE',  ( 0.000000000000000000, 0.000000000000000000, -1.000000000000000000 ) ) ;
#61 = CC_DESIGN_SECURITY_CLASSIFICATION ( #29, ( #316 ) ) ;
#62 = EDGE_CURVE ( 'NONE', #134, #275, #129, .T. ) ;
#63 = FACE_OUTER_BOUND ( 'NONE', #231, .T. ) ;
#64 = PERSON_AND_ORGANIZATION_ROLE ( 'creator' ) ;
#65 = CARTESIAN_POINT ( 'NONE',  ( -7.000000000000000000, 0.000000000000000000, 5.000000000000000000 ) ) ;
#66 = ORIENTED_EDGE ( 'NONE', *, *, #324, .F. ) ;
#67 = APPROVAL_ROLE ( '' ) ;
#68 = DIRECTION ( 'NONE',  ( 0.000000000000000000, 0.000000000000000000, 1.000000000000000000 ) ) ;
#69 = FACE_OUTER_BOUND ( 'NONE', #150, .T. ) ;
#70 = CIRCLE ( 'NONE', #355, 0.5000000000000004441 ) ;
#71 = FACE_OUTER_BOUND ( 'NONE', #127, .T. ) ;
#72 = CALENDAR_DATE ( 2022, 8, 7 ) ;
#73 = CARTESIAN_POINT ( 'NONE',  ( 2.100000000000000089, 2.571758278209441464E-16, 0.000000000000000000 ) ) ;
#74 = ORIENTED_EDGE ( 'NONE', *, *, #216, .T. ) ;
#75 = DIRECTION ( 'NONE',  ( 0.000000000000000000, 0.000000000000000000, 1.000000000000000000 ) ) ;
#76 = ORIENTED_EDGE ( 'NONE', *, *, #348, .T. ) ;
#77 = LOCAL_TIME ( 17, 28, 5.000000000000000000, #280 ) ;
#78 = CARTESIAN_POINT ( 'NONE',  ( 4.500000000000000888, 0.000000000000000000, 5.000000000000002665 ) ) ;
#79 = DIRECTION ( 'NONE',  ( 0.000000000000000000, 0.000000000000000000, -1.000000000000000000 ) ) ;
#80 = AXIS2_PLACEMENT_3D ( 'NONE', #296, #330, #56 ) ;
#81 = ORIENTED_EDGE ( 'NONE', *, *, #130, .F. ) ;
#82 = CARTESIAN_POINT ( 'NONE',  ( 0.000000000000000000, 0.000000000000000000, 180.0000000000000000 ) ) ;
#83 = EDGE_LOOP ( 'NONE', ( #1, #21, #266, #41 ) ) ;
#84 = LOCAL_TIME ( 17, 28, 5.000000000000000000, #301 ) ;
#85 = DIRECTION ( 'NONE',  ( 1.000000000000000000, 0.000000000000000000, 0.000000000000000000 ) ) ;
#86 = ORIENTED_EDGE ( 'NONE', *, *, #360, .T. ) ;
#87 = PERSON_AND_ORGANIZATION_ROLE ( 'creator' ) ;
#88 = ORIENTED_EDGE ( 'NONE', *, *, #221, .T. ) ;
#89 = DIRECTION ( 'NONE',  ( 1.000000000000000000, 0.000000000000000000, 0.000000000000000000 ) ) ;
#90 = DIRECTION ( 'NONE',  ( 1.000000000000000000, 0.000000000000000000, 0.000000000000000000 ) ) ;
#91 = AXIS2_PLACEMENT_3D ( 'NONE', #82, #23, #342 ) ;
#92 = PERSON_AND_ORGANIZATION ( #287, #333 ) ;
#93 = CARTESIAN_POINT ( 'NONE',  ( 0.000000000000000000, 0.000000000000000000, 5.500000000000005329 ) ) ;
#94 = VERTEX_POINT ( 'NONE', #201 ) ;
#95 = CC_DESIGN_DATE_AND_TIME_ASSIGNMENT ( #264, #2, ( #138 ) ) ;
#96 = CARTESIAN_POINT ( 'NONE',  ( 7.000000000000000000, 8.572527594031473190E-16, 0.000000000000000000 ) ) ;
#97 = PERSON_AND_ORGANIZATION_ROLE ( 'design_supplier' ) ;
#98 = CARTESIAN_POINT ( 'NONE',  ( 2.100000000000000089, 2.571758278209441464E-16, 180.0000000000000000 ) ) ;
#99 = CC_DESIGN_PERSON_AND_ORGANIZATION_ASSIGNMENT ( #276, #208, ( #29 ) ) ;
#100 = DIRECTION ( 'NONE',  ( -1.000000000000000000, 1.224646799147351482E-16, 0.000000000000000000 ) ) ;
#101 = COORDINATED_UNIVERSAL_TIME_OFFSET ( 1, 0, .AHEAD. ) ;
#102 = EDGE_CURVE ( 'NONE', #94, #22, #183, .T. ) ;
#103 = CIRCLE ( 'NONE', #113, 7.000000000000000000 ) ;
#104 = ORIENTED_EDGE ( 'NONE', *, *, #117, .T. ) ;
#105 = CYLINDRICAL_SURFACE ( 'NONE', #121, 4.000000000000000000 ) ;
#106 = ORIENTED_EDGE ( 'NONE', *, *, #243, .T. ) ;
#107 = CC_DESIGN_APPROVAL ( #370, ( #138 ) ) ;
#108 = PLANE ( 'NONE',  #289 ) ;
#109 = CARTESIAN_POINT ( 'NONE',  ( 2.100000000000000089, 2.571758278209441464E-16, 180.0000000000000000 ) ) ;
#110 = VERTEX_POINT ( 'NONE', #325 ) ;
#111 = ORIENTED_EDGE ( 'NONE', *, *, #40, .F. ) ;
#112 = PERSON_AND_ORGANIZATION ( #287, #333 ) ;
#113 = AXIS2_PLACEMENT_3D ( 'NONE', #239, #120, #272 ) ;
#114 =( NAMED_UNIT ( * ) PLANE_ANGLE_UNIT ( ) SI_UNIT ( $, .RADIAN. ) );
#115 = DIRECTION ( 'NONE',  ( 1.000000000000000000, 0.000000000000000000, 0.000000000000000000 ) ) ;
#116 = AXIS2_PLACEMENT_3D ( 'NONE', #197, #378, #85 ) ;
#117 = EDGE_CURVE ( 'NONE', #163, #122, #331, .T. ) ;
#118 = VERTEX_POINT ( 'NONE', #176 ) ;
#119 = PERSON_AND_ORGANIZATION ( #287, #333 ) ;
#120 = DIRECTION ( 'NONE',  ( 0.000000000000000000, 0.000000000000000000, 1.000000000000000000 ) ) ;
#121 = AXIS2_PLACEMENT_3D ( 'NONE', #312, #25, #159 ) ;
#122 = VERTEX_POINT ( 'NONE', #98 ) ;
#123 = ADVANCED_BREP_SHAPE_REPRESENTATION ( 'ea03', ( #255, #381 ), #258 ) ;
#124 = CARTESIAN_POINT ( 'NONE',  ( -2.100000000000000089, 0.000000000000000000, 0.000000000000000000 ) ) ;
#125 = DIRECTION ( 'NONE',  ( -0.000000000000000000, -0.000000000000000000, -1.000000000000000000 ) ) ;
#126 = EDGE_CURVE ( 'NONE', #122, #163, #4, .T. ) ;
#127 = EDGE_LOOP ( 'NONE', ( #74, #106 ) ) ;
#128 = CARTESIAN_POINT ( 'NONE',  ( 0.000000000000000000, 0.000000000000000000, 0.000000000000000000 ) ) ;
#129 = CIRCLE ( 'NONE', #351, 4.000000000000000000 ) ;
#130 = EDGE_CURVE ( 'NONE', #118, #275, #357, .T. ) ;
#131 = AXIS2_PLACEMENT_3D ( 'NONE', #273, #362, #332 ) ;
#132 = LINE ( 'NONE', #109, #19 ) ;
#133 = FACE_OUTER_BOUND ( 'NONE', #227, .T. ) ;
#134 = VERTEX_POINT ( 'NONE', #356 ) ;
#135 = CYLINDRICAL_SURFACE ( 'NONE', #145, 4.000000000000000000 ) ;
#136 = EDGE_LOOP ( 'NONE', ( #310, #189, #350, #81 ) ) ;
#137 = APPROVAL_PERSON_ORGANIZATION ( #334, #234, #67 ) ;
#138 = PRODUCT_DEFINITION ( 'NEZNÁMÝ', '', #316, #379 ) ;
#139 = COORDINATED_UNIVERSAL_TIME_OFFSET ( 1, 0, .AHEAD. ) ;
#140 = DIRECTION ( 'NONE',  ( -0.000000000000000000, -0.000000000000000000, -1.000000000000000000 ) ) ;
#141 = CARTESIAN_POINT ( 'NONE',  ( 0.000000000000000000, 0.000000000000000000, 0.000000000000000000 ) ) ;
#142 = VECTOR ( 'NONE', #323, 1000.000000000000000 ) ;
#143 = EDGE_CURVE ( 'NONE', #156, #118, #246, .T. ) ;
#144 = DIRECTION ( 'NONE',  ( 1.000000000000000000, 0.000000000000000000, 0.000000000000000000 ) ) ;
#145 = AXIS2_PLACEMENT_3D ( 'NONE', #341, #49, #343 ) ;
#146 = MECHANICAL_CONTEXT ( 'NONE', #313, 'mechanical' ) ;
#147 = EDGE_LOOP ( 'NONE', ( #66, #242, #256, #50 ) ) ;
#148 = CALENDAR_DATE ( 2022, 8, 7 ) ;
#149 = DIRECTION ( 'NONE',  ( 0.000000000000000000, 0.000000000000000000, 1.000000000000000000 ) ) ;
#150 = EDGE_LOOP ( 'NONE', ( #104, #376, #76, #10 ) ) ;
#151 = AXIS2_PLACEMENT_3D ( 'NONE', #327, #34, #300 ) ;
#152 = CARTESIAN_POINT ( 'NONE',  ( -2.100000000000000089, 0.000000000000000000, 180.0000000000000000 ) ) ;
#153 = AXIS2_PLACEMENT_3D ( 'NONE', #20, #253, #363 ) ;
#154 = EDGE_CURVE ( 'NONE', #110, #22, #204, .T. ) ;
#155 = DIRECTION ( 'NONE',  ( 1.000000000000000000, 0.000000000000000000, 0.000000000000000000 ) ) ;
#156 = VERTEX_POINT ( 'NONE', #337 ) ;
#157 = DIRECTION ( 'NONE',  ( 0.000000000000000000, 0.000000000000000000, 1.000000000000000000 ) ) ;
#158 = CC_DESIGN_PERSON_AND_ORGANIZATION_ASSIGNMENT ( #43, #64, ( #316 ) ) ;
#159 = DIRECTION ( 'NONE',  ( -1.000000000000000000, 0.000000000000000000, 0.000000000000000000 ) ) ;
#160 = AXIS2_PLACEMENT_3D ( 'NONE', #11, #244, #361 ) ;
#161 = ORIENTED_EDGE ( 'NONE', *, *, #40, .T. ) ;
#162 = CARTESIAN_POINT ( 'NONE',  ( 4.000000000000000000, 4.898587196589412829E-16, 180.0000000000000000 ) ) ;
#163 = VERTEX_POINT ( 'NONE', #152 ) ;
#164 = APPROVAL_PERSON_ORGANIZATION ( #119, #370, #172 ) ;
#165 = CIRCLE ( 'NONE', #80, 0.5000000000000004441 ) ;
#166 = EDGE_CURVE ( 'NONE', #170, #338, #177, .T. ) ;
#167 = DIRECTION ( 'NONE',  ( 0.000000000000000000, 0.000000000000000000, 1.000000000000000000 ) ) ;
#168 = CC_DESIGN_APPROVAL ( #234, ( #29 ) ) ;
#169 = APPROVAL_STATUS ( 'not_yet_approved' ) ;
#170 = VERTEX_POINT ( 'NONE', #281 ) ;
#171 = CC_DESIGN_PERSON_AND_ORGANIZATION_ASSIGNMENT ( #92, #87, ( #138 ) ) ;
#172 = APPROVAL_ROLE ( '' ) ;
#173 = DIRECTION ( 'NONE',  ( 0.000000000000000000, 0.000000000000000000, 1.000000000000000000 ) ) ;
#174 = CLOSED_SHELL ( 'NONE', ( #261, #314, #336, #196, #52, #187, #299, #288, #295, #17, #365 ) ) ;
#175 = DIRECTION ( 'NONE',  ( 1.000000000000000000, 0.000000000000000000, 0.000000000000000000 ) ) ;
#176 = CARTESIAN_POINT ( 'NONE',  ( -4.000000000000000000, 0.000000000000000000, 180.0000000000000000 ) ) ;
#177 = CIRCLE ( 'NONE', #8, 4.500000000000000888 ) ;
#178 = ORIENTED_EDGE ( 'NONE', *, *, #166, .F. ) ;
#179 = APPLICATION_PROTOCOL_DEFINITION ( 'international standard', 'config_control_design', 1994, #313 ) ;
#180 = CARTESIAN_POINT ( 'NONE',  ( 0.000000000000000000, 0.000000000000000000, 5.000000000000000000 ) ) ;
#181 = DATE_TIME_ROLE ( 'classification_date' ) ;
#182 = DIRECTION ( 'NONE',  ( -0.000000000000000000, -0.000000000000000000, -1.000000000000000000 ) ) ;
#183 = CIRCLE ( 'NONE', #235, 7.000000000000000000 ) ;
#184 = DATE_AND_TIME ( #304, #345 ) ;
#185 = VECTOR ( 'NONE', #260, 1000.000000000000000 ) ;
#186 = DIRECTION ( 'NONE',  ( -0.000000000000000000, -0.000000000000000000, -1.000000000000000000 ) ) ;
#187 = ADVANCED_FACE ( 'NONE', ( #16, #71 ), #278, .T. ) ;
#188 = CARTESIAN_POINT ( 'NONE',  ( -4.500000000000000888, 5.510910596163089556E-16, 5.500000000000005329 ) ) ;
#189 = ORIENTED_EDGE ( 'NONE', *, *, #282, .T. ) ;
#190 = CIRCLE ( 'NONE', #53, 2.100000000000000089 ) ;
#191 = VERTEX_POINT ( 'NONE', #65 ) ;
#192 = DIRECTION ( 'NONE',  ( -0.000000000000000000, -0.000000000000000000, -1.000000000000000000 ) ) ;
#193 = ORIENTED_EDGE ( 'NONE', *, *, #48, .T. ) ;
#194 = AXIS2_PLACEMENT_3D ( 'NONE', #307, #125, #277 ) ;
#195 = CIRCLE ( 'NONE', #223, 7.000000000000000000 ) ;
#196 = ADVANCED_FACE ( 'NONE', ( #220 ), #13, .T. ) ;
#197 = CARTESIAN_POINT ( 'NONE',  ( 0.000000000000000000, 0.000000000000000000, 5.500000000000005329 ) ) ;
#198 = VERTEX_POINT ( 'NONE', #124 ) ;
#199 =( LENGTH_UNIT ( ) NAMED_UNIT ( * ) SI_UNIT ( .MILLI., .METRE. ) );
#200 = AXIS2_PLACEMENT_3D ( 'NONE', #180, #140, #37 ) ;
#201 = CARTESIAN_POINT ( 'NONE',  ( -7.000000000000000000, 0.000000000000000000, 0.000000000000000000 ) ) ;
#202 = CIRCLE ( 'NONE', #364, 2.100000000000000089 ) ;
#203 = DATE_AND_TIME ( #236, #366 ) ;
#204 = LINE ( 'NONE', #305, #55 ) ;
#205 = VERTEX_POINT ( 'NONE', #73 ) ;
#206 =( NAMED_UNIT ( * ) SI_UNIT ( $, .STERADIAN. ) SOLID_ANGLE_UNIT ( ) );
#207 = APPROVAL_PERSON_ORGANIZATION ( #112, #302, #265 ) ;
#208 = PERSON_AND_ORGANIZATION_ROLE ( 'classification_officer' ) ;
#209 = CC_DESIGN_PERSON_AND_ORGANIZATION_ASSIGNMENT ( #268, #241, ( #377 ) ) ;
#210 = CYLINDRICAL_SURFACE ( 'NONE', #200, 7.000000000000000000 ) ;
#211 = APPROVAL_DATE_TIME ( #367, #234 ) ;
#212 = CARTESIAN_POINT ( 'NONE',  ( 0.000000000000000000, 0.000000000000000000, 180.0000000000000000 ) ) ;
#213 = ORIENTED_EDGE ( 'NONE', *, *, #221, .F. ) ;
#214 = AXIS2_PLACEMENT_3D ( 'NONE', #6, #167, #115 ) ;
#215 = LINE ( 'NONE', #368, #321 ) ;
#216 = EDGE_CURVE ( 'NONE', #191, #110, #373, .T. ) ;
#217 = SHAPE_DEFINITION_REPRESENTATION ( #347, #123 ) ;
#218 = AXIS2_PLACEMENT_3D ( 'NONE', #212, #79, #340 ) ;
#219 = APPROVAL_STATUS ( 'not_yet_approved' ) ;
#220 = FACE_OUTER_BOUND ( 'NONE', #83, .T. ) ;
#221 = EDGE_CURVE ( 'NONE', #275, #170, #70, .T. ) ;
#222 = DIRECTION ( 'NONE',  ( 1.000000000000000000, 0.000000000000000000, 0.000000000000000000 ) ) ;
#223 = AXIS2_PLACEMENT_3D ( 'NONE', #44, #68, #155 ) ;
#224 = LINE ( 'NONE', #262, #274 ) ;
#225 = AXIS2_PLACEMENT_3D ( 'NONE', #57, #173, #298 ) ;
#226 = APPLICATION_CONTEXT ( 'configuration controlled 3d designs of mechanical parts and assemblies' ) ;
#227 = EDGE_LOOP ( 'NONE', ( #294, #284 ) ) ;
#228 = EDGE_CURVE ( 'NONE', #191, #94, #215, .T. ) ;
#229 = CARTESIAN_POINT ( 'NONE',  ( 0.000000000000000000, 0.000000000000000000, 0.000000000000000000 ) ) ;
#230 = CIRCLE ( 'NONE', #131, 4.500000000000000888 ) ;
#231 = EDGE_LOOP ( 'NONE', ( #213, #240, #161, #178 ) ) ;
#232 = DATE_AND_TIME ( #148, #84 ) ;
#233 = ORIENTED_EDGE ( 'NONE', *, *, #154, .F. ) ;
#234 = APPROVAL ( #219, 'NEURÈENÝ' ) ;
#235 = AXIS2_PLACEMENT_3D ( 'NONE', #141, #297, #58 ) ;
#236 = CALENDAR_DATE ( 2022, 8, 7 ) ;
#237 = CARTESIAN_POINT ( 'NONE',  ( -4.000000000000000000, 0.000000000000000000, 180.0000000000000000 ) ) ;
#238 = DIRECTION ( 'NONE',  ( -1.000000000000000000, 0.000000000000000000, 0.000000000000000000 ) ) ;
#239 = CARTESIAN_POINT ( 'NONE',  ( 0.000000000000000000, 0.000000000000000000, 0.000000000000000000 ) ) ;
#240 = ORIENTED_EDGE ( 'NONE', *, *, #62, .F. ) ;
#241 = PERSON_AND_ORGANIZATION_ROLE ( 'design_owner' ) ;
#242 = ORIENTED_EDGE ( 'NONE', *, *, #126, .T. ) ;
#243 = EDGE_CURVE ( 'NONE', #110, #191, #195, .T. ) ;
#244 = DIRECTION ( 'NONE',  ( 0.000000000000000000, 0.000000000000000000, 1.000000000000000000 ) ) ;
#245 = ORIENTED_EDGE ( 'NONE', *, *, #360, .F. ) ;
#246 = CIRCLE ( 'NONE', #225, 4.000000000000000000 ) ;
#247 = CYLINDRICAL_SURFACE ( 'NONE', #218, 2.100000000000000089 ) ;
#248 = DIRECTION ( 'NONE',  ( 1.000000000000000000, 0.000000000000000000, -0.000000000000000000 ) ) ;
#249 = EDGE_CURVE ( 'NONE', #338, #170, #230, .T. ) ;
#250 = DIRECTION ( 'NONE',  ( 1.224646799147353207E-16, 1.000000000000000000, -0.000000000000000000 ) ) ;
#251 = CC_DESIGN_APPROVAL ( #302, ( #316 ) ) ;
#252 = SECURITY_CLASSIFICATION_LEVEL ( 'unclassified' ) ;
#253 = DIRECTION ( 'NONE',  ( 0.000000000000000000, 0.000000000000000000, 1.000000000000000000 ) ) ;
#254 = CC_DESIGN_PERSON_AND_ORGANIZATION_ASSIGNMENT ( #329, #97, ( #316 ) ) ;
#255 = MANIFOLD_SOLID_BREP ( 'Odebrat vysunutím3', #174 ) ;
#256 = ORIENTED_EDGE ( 'NONE', *, *, #309, .T. ) ;
#257 = EDGE_LOOP ( 'NONE', ( #59, #46 ) ) ;
#258 =( GEOMETRIC_REPRESENTATION_CONTEXT ( 3 ) GLOBAL_UNCERTAINTY_ASSIGNED_CONTEXT ( ( #292 ) ) GLOBAL_UNIT_ASSIGNED_CONTEXT ( ( #199, #114, #206 ) ) REPRESENTATION_CONTEXT ( 'NONE', 'WORKASPACE' ) );
#259 = CARTESIAN_POINT ( 'NONE',  ( 0.000000000000000000, 0.000000000000000000, 180.0000000000000000 ) ) ;
#260 = DIRECTION ( 'NONE',  ( -0.000000000000000000, -0.000000000000000000, -1.000000000000000000 ) ) ;
#261 = ADVANCED_FACE ( 'NONE', ( #69 ), #247, .F. ) ;
#262 = CARTESIAN_POINT ( 'NONE',  ( -2.100000000000000089, 0.000000000000000000, 180.0000000000000000 ) ) ;
#263 = DIRECTION ( 'NONE',  ( 1.000000000000000000, 0.000000000000000000, -0.000000000000000000 ) ) ;
#264 = DATE_AND_TIME ( #33, #47 ) ;
#265 = APPROVAL_ROLE ( '' ) ;
#266 = ORIENTED_EDGE ( 'NONE', *, *, #32, .T. ) ;
#267 = CIRCLE ( 'NONE', #91, 4.000000000000000000 ) ;
#268 = PERSON_AND_ORGANIZATION ( #287, #333 ) ;
#269 = PRODUCT_RELATED_PRODUCT_CATEGORY ( 'detail', '', ( #377 ) ) ;
#270 = ORIENTED_EDGE ( 'NONE', *, *, #249, .F. ) ;
#271 = FACE_OUTER_BOUND ( 'NONE', #147, .T. ) ;
#272 = DIRECTION ( 'NONE',  ( 1.000000000000000000, 0.000000000000000000, 0.000000000000000000 ) ) ;
#273 = CARTESIAN_POINT ( 'NONE',  ( 0.000000000000000000, 0.000000000000000000, 5.000000000000000000 ) ) ;
#274 = VECTOR ( 'NONE', #283, 1000.000000000000000 ) ;
#275 = VERTEX_POINT ( 'NONE', #293 ) ;
#276 = PERSON_AND_ORGANIZATION ( #287, #333 ) ;
#277 = DIRECTION ( 'NONE',  ( -1.000000000000000000, 0.000000000000000000, 0.000000000000000000 ) ) ;
#278 = PLANE ( 'NONE',  #14 ) ;
#279 = AXIS2_PLACEMENT_3D ( 'NONE', #7, #60, #238 ) ;
#280 = COORDINATED_UNIVERSAL_TIME_OFFSET ( 1, 0, .AHEAD. ) ;
#281 = CARTESIAN_POINT ( 'NONE',  ( -4.500000000000000888, 5.510910596163088569E-16, 5.000000000000002665 ) ) ;
#282 = EDGE_CURVE ( 'NONE', #156, #134, #346, .T. ) ;
#283 = DIRECTION ( 'NONE',  ( 0.000000000000000000, 0.000000000000000000, -1.000000000000000000 ) ) ;
#284 = ORIENTED_EDGE ( 'NONE', *, *, #32, .F. ) ;
#285 = DIRECTION ( 'NONE',  ( 1.000000000000000000, 0.000000000000000000, 0.000000000000000000 ) ) ;
#286 = ORIENTED_EDGE ( 'NONE', *, *, #348, .F. ) ;
#287 = PERSON ( 'NEURÈENÝ', 'NEURÈENÝ', 'NEURÈENÝ', ('NEURÈENÝ'), ('NEURÈENÝ'), ('NEURÈENÝ') ) ;
#288 = ADVANCED_FACE ( 'NONE', ( #290 ), #105, .T. ) ;
#289 = AXIS2_PLACEMENT_3D ( 'NONE', #128, #75, #311 ) ;
#290 = FACE_OUTER_BOUND ( 'NONE', #315, .T. ) ;
#291 = EDGE_LOOP ( 'NONE', ( #358, #286 ) ) ;
#292 = UNCERTAINTY_MEASURE_WITH_UNIT (LENGTH_MEASURE( 1.000000000000000082E-05 ), #199, 'distance_accuracy_value', 'NONE');
#293 = CARTESIAN_POINT ( 'NONE',  ( -4.000000000000000000, 0.000000000000000000, 5.500000000000005329 ) ) ;
#294 = ORIENTED_EDGE ( 'NONE', *, *, #102, .F. ) ;
#295 = ADVANCED_FACE ( 'NONE', ( #28, #317 ), #318, .T. ) ;
#296 = CARTESIAN_POINT ( 'NONE',  ( 4.500000000000000888, 0.000000000000000000, 5.500000000000005329 ) ) ;
#297 = DIRECTION ( 'NONE',  ( 0.000000000000000000, 0.000000000000000000, 1.000000000000000000 ) ) ;
#298 = DIRECTION ( 'NONE',  ( 1.000000000000000000, 0.000000000000000000, 0.000000000000000000 ) ) ;
#299 = ADVANCED_FACE ( 'NONE', ( #45, #133 ), #108, .F. ) ;
#300 = DIRECTION ( 'NONE',  ( 1.000000000000000000, 0.000000000000000000, 0.000000000000000000 ) ) ;
#301 = COORDINATED_UNIVERSAL_TIME_OFFSET ( 1, 0, .AHEAD. ) ;
#302 = APPROVAL ( #352, 'NEURÈENÝ' ) ;
#303 = ORIENTED_EDGE ( 'NONE', *, *, #48, .F. ) ;
#304 = CALENDAR_DATE ( 2022, 8, 7 ) ;
#305 = CARTESIAN_POINT ( 'NONE',  ( 7.000000000000000000, 8.572527594031473190E-16, 5.000000000000000000 ) ) ;
#306 = TOROIDAL_SURFACE ( 'NONE', #116, 4.500000000000000888, 0.5000000000000000000 ) ;
#307 = CARTESIAN_POINT ( 'NONE',  ( 0.000000000000000000, 0.000000000000000000, 5.000000000000000000 ) ) ;
#308 = DIRECTION ( 'NONE',  ( -0.000000000000000000, -0.000000000000000000, -1.000000000000000000 ) ) ;
#309 = EDGE_CURVE ( 'NONE', #163, #198, #224, .T. ) ;
#310 = ORIENTED_EDGE ( 'NONE', *, *, #143, .F. ) ;
#311 = DIRECTION ( 'NONE',  ( 1.000000000000000000, 0.000000000000000000, -0.000000000000000000 ) ) ;
#312 = CARTESIAN_POINT ( 'NONE',  ( 0.000000000000000000, 0.000000000000000000, 180.0000000000000000 ) ) ;
#313 = APPLICATION_CONTEXT ( 'configuration controlled 3d designs of mechanical parts and assemblies' ) ;
#314 = ADVANCED_FACE ( 'NONE', ( #374 ), #306, .F. ) ;
#315 = EDGE_LOOP ( 'NONE', ( #38, #245, #372, #193 ) ) ;
#316 = PRODUCT_DEFINITION_FORMATION_WITH_SPECIFIED_SOURCE ( 'LIBOVOLNÝ', '', #377, .NOT_KNOWN. ) ;
#317 = FACE_OUTER_BOUND ( 'NONE', #359, .T. ) ;
#318 = PLANE ( 'NONE',  #24 ) ;
#319 = EDGE_LOOP ( 'NONE', ( #369, #51 ) ) ;
#320 = CIRCLE ( 'NONE', #151, 4.000000000000000000 ) ;
#321 = VECTOR ( 'NONE', #182, 1000.000000000000000 ) ;
#322 = APPROVAL_DATE_TIME ( #203, #302 ) ;
#323 = DIRECTION ( 'NONE',  ( -0.000000000000000000, -0.000000000000000000, -1.000000000000000000 ) ) ;
#324 = EDGE_CURVE ( 'NONE', #122, #205, #132, .T. ) ;
#325 = CARTESIAN_POINT ( 'NONE',  ( 7.000000000000000000, 8.572527594031473190E-16, 5.000000000000000000 ) ) ;
#326 = ORIENTED_EDGE ( 'NONE', *, *, #102, .T. ) ;
#327 = CARTESIAN_POINT ( 'NONE',  ( 0.000000000000000000, 0.000000000000000000, 5.500000000000005329 ) ) ;
#328 = ORIENTED_EDGE ( 'NONE', *, *, #228, .T. ) ;
#329 = PERSON_AND_ORGANIZATION ( #287, #333 ) ;
#330 = DIRECTION ( 'NONE',  ( 0.000000000000000000, -1.000000000000000000, 0.000000000000000000 ) ) ;
#331 = CIRCLE ( 'NONE', #160, 2.100000000000000089 ) ;
#332 = DIRECTION ( 'NONE',  ( 1.000000000000000000, 0.000000000000000000, 0.000000000000000000 ) ) ;
#333 = ORGANIZATION ( 'NEURÈENÝ', 'NEURÈENÝ', '' ) ;
#334 = PERSON_AND_ORGANIZATION ( #287, #333 ) ;
#335 = CARTESIAN_POINT ( 'NONE',  ( 0.000000000000000000, 0.000000000000000000, 5.000000000000000000 ) ) ;
#336 = ADVANCED_FACE ( 'NONE', ( #375 ), #135, .T. ) ;
#337 = CARTESIAN_POINT ( 'NONE',  ( 4.000000000000000000, 4.898587196589412829E-16, 180.0000000000000000 ) ) ;
#338 = VERTEX_POINT ( 'NONE', #78 ) ;
#339 = TOROIDAL_SURFACE ( 'NONE', #35, 4.500000000000000888, 0.5000000000000000000 ) ;
#340 = DIRECTION ( 'NONE',  ( -1.000000000000000000, 0.000000000000000000, 0.000000000000000000 ) ) ;
#341 = CARTESIAN_POINT ( 'NONE',  ( 0.000000000000000000, 0.000000000000000000, 180.0000000000000000 ) ) ;
#342 = DIRECTION ( 'NONE',  ( 1.000000000000000000, 0.000000000000000000, 0.000000000000000000 ) ) ;
#343 = DIRECTION ( 'NONE',  ( -1.000000000000000000, 0.000000000000000000, 0.000000000000000000 ) ) ;
#344 = EDGE_LOOP ( 'NONE', ( #303, #88, #270, #111 ) ) ;
#345 = LOCAL_TIME ( 17, 28, 5.000000000000000000, #101 ) ;
#346 = LINE ( 'NONE', #162, #185 ) ;
#347 = PRODUCT_DEFINITION_SHAPE ( 'NONE', 'NONE',  #138 ) ;
#348 = EDGE_CURVE ( 'NONE', #205, #198, #202, .T. ) ;
#349 = APPROVAL_DATE_TIME ( #232, #370 ) ;
#350 = ORIENTED_EDGE ( 'NONE', *, *, #62, .T. ) ;
#351 = AXIS2_PLACEMENT_3D ( 'NONE', #93, #353, #90 ) ;
#352 = APPROVAL_STATUS ( 'not_yet_approved' ) ;
#353 = DIRECTION ( 'NONE',  ( 0.000000000000000000, 0.000000000000000000, 1.000000000000000000 ) ) ;
#354 = CARTESIAN_POINT ( 'NONE',  ( 0.000000000000000000, 0.000000000000000000, 0.000000000000000000 ) ) ;
#355 = AXIS2_PLACEMENT_3D ( 'NONE', #188, #250, #100 ) ;
#356 = CARTESIAN_POINT ( 'NONE',  ( 4.000000000000000000, 4.898587196589412829E-16, 5.500000000000005329 ) ) ;
#357 = LINE ( 'NONE', #237, #142 ) ;
#358 = ORIENTED_EDGE ( 'NONE', *, *, #380, .F. ) ;
#359 = EDGE_LOOP ( 'NONE', ( #86, #15 ) ) ;
#360 = EDGE_CURVE ( 'NONE', #118, #156, #267, .T. ) ;
#361 = DIRECTION ( 'NONE',  ( 1.000000000000000000, 0.000000000000000000, 0.000000000000000000 ) ) ;
#362 = DIRECTION ( 'NONE',  ( -0.000000000000000000, -0.000000000000000000, -1.000000000000000000 ) ) ;
#363 = DIRECTION ( 'NONE',  ( 1.000000000000000000, 0.000000000000000000, 0.000000000000000000 ) ) ;
#364 = AXIS2_PLACEMENT_3D ( 'NONE', #229, #192, #285 ) ;
#365 = ADVANCED_FACE ( 'NONE', ( #271 ), #36, .F. ) ;
#366 = LOCAL_TIME ( 17, 28, 5.000000000000000000, #5 ) ;
#367 = DATE_AND_TIME ( #72, #77 ) ;
#368 = CARTESIAN_POINT ( 'NONE',  ( -7.000000000000000000, 0.000000000000000000, 5.000000000000000000 ) ) ;
#369 = ORIENTED_EDGE ( 'NONE', *, *, #249, .T. ) ;
#370 = APPROVAL ( #169, 'NEURÈENÝ' ) ;
#371 = DIRECTION ( 'NONE',  ( 0.000000000000000000, 0.000000000000000000, -1.000000000000000000 ) ) ;
#372 = ORIENTED_EDGE ( 'NONE', *, *, #130, .T. ) ;
#373 = CIRCLE ( 'NONE', #153, 7.000000000000000000 ) ;
#374 = FACE_OUTER_BOUND ( 'NONE', #344, .T. ) ;
#375 = FACE_OUTER_BOUND ( 'NONE', #136, .T. ) ;
#376 = ORIENTED_EDGE ( 'NONE', *, *, #324, .T. ) ;
#377 = PRODUCT ( 'ea03', 'ea03', '', ( #146 ) ) ;
#378 = DIRECTION ( 'NONE',  ( 0.000000000000000000, 0.000000000000000000, 1.000000000000000000 ) ) ;
#379 = DESIGN_CONTEXT ( 'detailed design', #226, 'design' ) ;
#380 = EDGE_CURVE ( 'NONE', #198, #205, #190, .T. ) ;
#381 = AXIS2_PLACEMENT_3D ( 'NONE', #354, #54, #175 ) ;
ENDSEC;
END-ISO-10303-21;
