ISO-10303-21;
HEADER;
FILE_DESCRIPTION (( 'STEP AP203' ),
    '1' );
FILE_NAME ('ed46.STEP',
    '2022-07-08T15:15:53',
    ( '' ),
    ( '' ),
    'SwSTEP 2.0',
    'SolidWorks 2019',
    '' );
FILE_SCHEMA (( 'CONFIG_CONTROL_DESIGN' ));
ENDSEC;

DATA;
#1 = CARTESIAN_POINT ( 'NONE',  ( -2.500000000000000000, 0.000000000000000000, 0.000000000000000000 ) ) ;
#2 = ADVANCED_FACE ( 'NONE', ( #304 ), #275, .F. ) ;
#3 = ORIENTED_EDGE ( 'NONE', *, *, #240, .T. ) ;
#4 = CARTESIAN_POINT ( 'NONE',  ( 0.000000000000000000, 0.000000000000000000, 305.0000000000000000 ) ) ;
#5 =( GEOMETRIC_REPRESENTATION_CONTEXT ( 3 ) GLOBAL_UNCERTAINTY_ASSIGNED_CONTEXT ( ( #219 ) ) GLOBAL_UNIT_ASSIGNED_CONTEXT ( ( #113, #288, #19 ) ) REPRESENTATION_CONTEXT ( 'NONE', 'WORKASPACE' ) );
#6 = EDGE_CURVE ( 'NONE', #320, #7, #272, .T. ) ;
#7 = VERTEX_POINT ( 'NONE', #1 ) ;
#8 = COORDINATED_UNIVERSAL_TIME_OFFSET ( 1, 0, .AHEAD. ) ;
#9 = DIRECTION ( 'NONE',  ( 1.000000000000000000, 0.000000000000000000, 0.000000000000000000 ) ) ;
#10 = CALENDAR_DATE ( 2022, 8, 7 ) ;
#11 = DIRECTION ( 'NONE',  ( -0.000000000000000000, -0.000000000000000000, -1.000000000000000000 ) ) ;
#12 = AXIS2_PLACEMENT_3D ( 'NONE', #106, #220, #77 ) ;
#13 = COORDINATED_UNIVERSAL_TIME_OFFSET ( 1, 0, .AHEAD. ) ;
#14 = DESIGN_CONTEXT ( 'detailed design', #217, 'design' ) ;
#15 = DIRECTION ( 'NONE',  ( -1.000000000000000000, 0.000000000000000000, 0.000000000000000000 ) ) ;
#16 = CARTESIAN_POINT ( 'NONE',  ( -8.000000000000000000, 0.000000000000000000, 5.000000000000000000 ) ) ;
#17 = EDGE_CURVE ( 'NONE', #358, #274, #94, .T. ) ;
#18 = FACE_OUTER_BOUND ( 'NONE', #299, .T. ) ;
#19 =( NAMED_UNIT ( * ) SI_UNIT ( $, .STERADIAN. ) SOLID_ANGLE_UNIT ( ) );
#20 = EDGE_LOOP ( 'NONE', ( #372, #87, #209, #68 ) ) ;
#21 = DIRECTION ( 'NONE',  ( 1.000000000000000000, 0.000000000000000000, 0.000000000000000000 ) ) ;
#22 = ADVANCED_FACE ( 'NONE', ( #215 ), #165, .F. ) ;
#23 = CARTESIAN_POINT ( 'NONE',  ( 0.000000000000000000, 0.000000000000000000, 0.000000000000000000 ) ) ;
#24 = ORIENTED_EDGE ( 'NONE', *, *, #341, .T. ) ;
#25 = CIRCLE ( 'NONE', #370, 5.500000000000000000 ) ;
#26 = DIRECTION ( 'NONE',  ( 1.000000000000000000, 0.000000000000000000, 0.000000000000000000 ) ) ;
#27 = ORIENTED_EDGE ( 'NONE', *, *, #306, .F. ) ;
#28 = DIRECTION ( 'NONE',  ( -1.000000000000000000, 0.000000000000000000, 0.000000000000000000 ) ) ;
#29 = PERSON_AND_ORGANIZATION_ROLE ( 'creator' ) ;
#30 = AXIS2_PLACEMENT_3D ( 'NONE', #187, #11, #15 ) ;
#31 = ORIENTED_EDGE ( 'NONE', *, *, #103, .F. ) ;
#32 = ADVANCED_FACE ( 'NONE', ( #300 ), #213, .F. ) ;
#33 = DIRECTION ( 'NONE',  ( 1.000000000000000000, 0.000000000000000000, 0.000000000000000000 ) ) ;
#34 = ORIENTED_EDGE ( 'NONE', *, *, #318, .F. ) ;
#35 = VERTEX_POINT ( 'NONE', #331 ) ;
#36 = DATE_AND_TIME ( #305, #374 ) ;
#37 = ORIENTED_EDGE ( 'NONE', *, *, #294, .T. ) ;
#38 = AXIS2_PLACEMENT_3D ( 'NONE', #86, #226, #295 ) ;
#39 = SHAPE_DEFINITION_REPRESENTATION ( #123, #280 ) ;
#40 = PLANE ( 'NONE',  #54 ) ;
#41 = PERSON_AND_ORGANIZATION ( #316, #197 ) ;
#42 = DIRECTION ( 'NONE',  ( -1.000000000000000000, 0.000000000000000000, 0.000000000000000000 ) ) ;
#43 = AXIS2_PLACEMENT_3D ( 'NONE', #192, #104, #42 ) ;
#44 = APPROVAL_STATUS ( 'not_yet_approved' ) ;
#45 = DIRECTION ( 'NONE',  ( -0.000000000000000000, -0.000000000000000000, -1.000000000000000000 ) ) ;
#46 = AXIS2_PLACEMENT_3D ( 'NONE', #23, #323, #80 ) ;
#47 = CARTESIAN_POINT ( 'NONE',  ( 2.500000000000000000, 3.061616997868383141E-16, 0.000000000000000000 ) ) ;
#48 = DIRECTION ( 'NONE',  ( 0.000000000000000000, 0.000000000000000000, 1.000000000000000000 ) ) ;
#49 = CARTESIAN_POINT ( 'NONE',  ( -5.500000000000000000, 6.735557395310442023E-16, 5.500000000000005329 ) ) ;
#50 = AXIS2_PLACEMENT_3D ( 'NONE', #315, #48, #163 ) ;
#51 = DIRECTION ( 'NONE',  ( -0.000000000000000000, -0.000000000000000000, -1.000000000000000000 ) ) ;
#52 = DIRECTION ( 'NONE',  ( 0.000000000000000000, 0.000000000000000000, -1.000000000000000000 ) ) ;
#53 = EDGE_LOOP ( 'NONE', ( #34, #337 ) ) ;
#54 = AXIS2_PLACEMENT_3D ( 'NONE', #221, #255, #134 ) ;
#55 = CARTESIAN_POINT ( 'NONE',  ( 8.000000000000000000, 9.797174393178825657E-16, 5.000000000000000000 ) ) ;
#56 = VERTEX_POINT ( 'NONE', #122 ) ;
#57 = EDGE_CURVE ( 'NONE', #149, #7, #132, .T. ) ;
#58 = APPROVAL_PERSON_ORGANIZATION ( #41, #175, #241 ) ;
#59 = DIRECTION ( 'NONE',  ( -0.000000000000000000, -0.000000000000000000, -1.000000000000000000 ) ) ;
#60 = ORIENTED_EDGE ( 'NONE', *, *, #6, .F. ) ;
#61 = APPLICATION_PROTOCOL_DEFINITION ( 'international standard', 'config_control_design', 1994, #196 ) ;
#62 = ORIENTED_EDGE ( 'NONE', *, *, #341, .F. ) ;
#63 = DIRECTION ( 'NONE',  ( -0.000000000000000000, -0.000000000000000000, -1.000000000000000000 ) ) ;
#64 = APPROVAL_PERSON_ORGANIZATION ( #130, #290, #336 ) ;
#65 = CARTESIAN_POINT ( 'NONE',  ( -2.500000000000000000, 0.000000000000000000, 305.0000000000000000 ) ) ;
#66 = CC_DESIGN_PERSON_AND_ORGANIZATION_ASSIGNMENT ( #69, #183, ( #116 ) ) ;
#67 = ADVANCED_FACE ( 'NONE', ( #150 ), #71, .T. ) ;
#68 = ORIENTED_EDGE ( 'NONE', *, *, #17, .F. ) ;
#69 = PERSON_AND_ORGANIZATION ( #316, #197 ) ;
#70 = ORIENTED_EDGE ( 'NONE', *, *, #330, .F. ) ;
#71 = CYLINDRICAL_SURFACE ( 'NONE', #43, 5.000000000000000000 ) ;
#72 = CIRCLE ( 'NONE', #46, 8.000000000000000000 ) ;
#73 = EDGE_CURVE ( 'NONE', #268, #56, #342, .T. ) ;
#74 = DIRECTION ( 'NONE',  ( 0.000000000000000000, 0.000000000000000000, -1.000000000000000000 ) ) ;
#75 = SECURITY_CLASSIFICATION_LEVEL ( 'unclassified' ) ;
#76 = DIRECTION ( 'NONE',  ( 1.000000000000000000, 0.000000000000000000, 0.000000000000000000 ) ) ;
#77 = DIRECTION ( 'NONE',  ( 1.000000000000000000, 0.000000000000000000, -0.000000000000000000 ) ) ;
#78 = TOROIDAL_SURFACE ( 'NONE', #38, 5.500000000000000000, 0.5000000000000000000 ) ;
#79 = DIRECTION ( 'NONE',  ( 1.000000000000000000, 0.000000000000000000, 0.000000000000000000 ) ) ;
#80 = DIRECTION ( 'NONE',  ( 1.000000000000000000, 0.000000000000000000, 0.000000000000000000 ) ) ;
#81 = VECTOR ( 'NONE', #181, 1000.000000000000000 ) ;
#82 = EDGE_LOOP ( 'NONE', ( #176, #178 ) ) ;
#83 = CIRCLE ( 'NONE', #135, 0.5000000000000004441 ) ;
#84 = DIRECTION ( 'NONE',  ( 1.000000000000000000, 0.000000000000000000, 0.000000000000000000 ) ) ;
#85 = ORIENTED_EDGE ( 'NONE', *, *, #195, .F. ) ;
#86 = CARTESIAN_POINT ( 'NONE',  ( 0.000000000000000000, 0.000000000000000000, 5.500000000000005329 ) ) ;
#87 = ORIENTED_EDGE ( 'NONE', *, *, #283, .F. ) ;
#88 = LINE ( 'NONE', #55, #206 ) ;
#89 = ORIENTED_EDGE ( 'NONE', *, *, #334, .T. ) ;
#90 = AXIS2_PLACEMENT_3D ( 'NONE', #117, #262, #21 ) ;
#91 = ORIENTED_EDGE ( 'NONE', *, *, #57, .T. ) ;
#92 = DATE_AND_TIME ( #356, #186 ) ;
#93 = DIRECTION ( 'NONE',  ( -1.000000000000000000, 0.000000000000000000, 0.000000000000000000 ) ) ;
#94 = CIRCLE ( 'NONE', #235, 5.500000000000000000 ) ;
#95 = VERTEX_POINT ( 'NONE', #309 ) ;
#96 = AXIS2_PLACEMENT_3D ( 'NONE', #171, #348, #26 ) ;
#97 = ORIENTED_EDGE ( 'NONE', *, *, #273, .T. ) ;
#98 = DIRECTION ( 'NONE',  ( -0.000000000000000000, -0.000000000000000000, -1.000000000000000000 ) ) ;
#99 = CC_DESIGN_PERSON_AND_ORGANIZATION_ASSIGNMENT ( #216, #188, ( #116 ) ) ;
#100 = CARTESIAN_POINT ( 'NONE',  ( 0.000000000000000000, 0.000000000000000000, 0.000000000000000000 ) ) ;
#101 = DIRECTION ( 'NONE',  ( 0.000000000000000000, 0.000000000000000000, -1.000000000000000000 ) ) ;
#102 = CALENDAR_DATE ( 2022, 8, 7 ) ;
#103 = EDGE_CURVE ( 'NONE', #35, #95, #170, .T. ) ;
#104 = DIRECTION ( 'NONE',  ( -0.000000000000000000, -0.000000000000000000, -1.000000000000000000 ) ) ;
#105 = CIRCLE ( 'NONE', #50, 5.000000000000000000 ) ;
#106 = CARTESIAN_POINT ( 'NONE',  ( 0.000000000000000000, 0.000000000000000000, 0.000000000000000000 ) ) ;
#107 = APPROVAL ( #279, 'NEURÈENÝ' ) ;
#108 = CARTESIAN_POINT ( 'NONE',  ( 0.000000000000000000, 0.000000000000000000, 5.000000000000000000 ) ) ;
#109 = PLANE ( 'NONE',  #12 ) ;
#110 = AXIS2_PLACEMENT_3D ( 'NONE', #203, #143, #84 ) ;
#111 = DIRECTION ( 'NONE',  ( -0.000000000000000000, -0.000000000000000000, -1.000000000000000000 ) ) ;
#112 = CC_DESIGN_PERSON_AND_ORGANIZATION_ASSIGNMENT ( #156, #185, ( #381 ) ) ;
#113 =( LENGTH_UNIT ( ) NAMED_UNIT ( * ) SI_UNIT ( .MILLI., .METRE. ) );
#114 = CARTESIAN_POINT ( 'NONE',  ( -5.000000000000000000, 0.000000000000000000, 5.500000000000005329 ) ) ;
#115 = EDGE_LOOP ( 'NONE', ( #97, #24, #91, #60 ) ) ;
#116 = PRODUCT_DEFINITION_FORMATION_WITH_SPECIFIED_SOURCE ( 'LIBOVOLNÝ', '', #237, .NOT_KNOWN. ) ;
#117 = CARTESIAN_POINT ( 'NONE',  ( 0.000000000000000000, 0.000000000000000000, 305.0000000000000000 ) ) ;
#118 = EDGE_LOOP ( 'NONE', ( #289, #120 ) ) ;
#119 = LINE ( 'NONE', #231, #265 ) ;
#120 = ORIENTED_EDGE ( 'NONE', *, *, #17, .T. ) ;
#121 = DATE_TIME_ROLE ( 'creation_date' ) ;
#122 = CARTESIAN_POINT ( 'NONE',  ( -8.000000000000000000, 0.000000000000000000, 0.000000000000000000 ) ) ;
#123 = PRODUCT_DEFINITION_SHAPE ( 'NONE', 'NONE',  #190 ) ;
#124 = ORIENTED_EDGE ( 'NONE', *, *, #224, .F. ) ;
#125 = ORIENTED_EDGE ( 'NONE', *, *, #273, .F. ) ;
#126 = AXIS2_PLACEMENT_3D ( 'NONE', #286, #155, #76 ) ;
#127 = CC_DESIGN_SECURITY_CLASSIFICATION ( #381, ( #116 ) ) ;
#128 = DIRECTION ( 'NONE',  ( 1.000000000000000000, 0.000000000000000000, 0.000000000000000000 ) ) ;
#129 = ORIENTED_EDGE ( 'NONE', *, *, #283, .T. ) ;
#130 = PERSON_AND_ORGANIZATION ( #316, #197 ) ;
#131 = DIRECTION ( 'NONE',  ( 0.000000000000000000, 0.000000000000000000, 1.000000000000000000 ) ) ;
#132 = CIRCLE ( 'NONE', #177, 2.500000000000000000 ) ;
#133 = DATE_AND_TIME ( #10, #194 ) ;
#134 = DIRECTION ( 'NONE',  ( 1.000000000000000000, 0.000000000000000000, -0.000000000000000000 ) ) ;
#135 = AXIS2_PLACEMENT_3D ( 'NONE', #49, #325, #293 ) ;
#136 = CC_DESIGN_PERSON_AND_ORGANIZATION_ASSIGNMENT ( #282, #29, ( #190 ) ) ;
#137 = FACE_BOUND ( 'NONE', #118, .T. ) ;
#138 = FACE_OUTER_BOUND ( 'NONE', #377, .T. ) ;
#139 = DIRECTION ( 'NONE',  ( 0.000000000000000000, 0.000000000000000000, 1.000000000000000000 ) ) ;
#140 = AXIS2_PLACEMENT_3D ( 'NONE', #339, #257, #74 ) ;
#141 = ORIENTED_EDGE ( 'NONE', *, *, #179, .T. ) ;
#142 = CARTESIAN_POINT ( 'NONE',  ( 0.000000000000000000, 0.000000000000000000, 305.0000000000000000 ) ) ;
#143 = DIRECTION ( 'NONE',  ( 0.000000000000000000, 0.000000000000000000, 1.000000000000000000 ) ) ;
#144 = CC_DESIGN_APPROVAL ( #175, ( #116 ) ) ;
#145 = DIRECTION ( 'NONE',  ( 1.000000000000000000, 0.000000000000000000, -0.000000000000000000 ) ) ;
#146 = VERTEX_POINT ( 'NONE', #313 ) ;
#147 = LINE ( 'NONE', #269, #301 ) ;
#148 = APPROVAL_DATE_TIME ( #298, #290 ) ;
#149 = VERTEX_POINT ( 'NONE', #47 ) ;
#150 = FACE_OUTER_BOUND ( 'NONE', #198, .T. ) ;
#151 = ORIENTED_EDGE ( 'NONE', *, *, #207, .F. ) ;
#152 = DATE_TIME_ROLE ( 'classification_date' ) ;
#153 = CIRCLE ( 'NONE', #126, 5.000000000000000000 ) ;
#154 = ADVANCED_FACE ( 'NONE', ( #260 ), #344, .T. ) ;
#155 = DIRECTION ( 'NONE',  ( 0.000000000000000000, 0.000000000000000000, 1.000000000000000000 ) ) ;
#156 = PERSON_AND_ORGANIZATION ( #316, #197 ) ;
#157 = CARTESIAN_POINT ( 'NONE',  ( 0.000000000000000000, 0.000000000000000000, 5.000000000000000000 ) ) ;
#158 = CLOSED_SHELL ( 'NONE', ( #32, #22, #353, #201, #154, #166, #250, #67, #302, #345, #2 ) ) ;
#159 = CALENDAR_DATE ( 2022, 8, 7 ) ;
#160 = CARTESIAN_POINT ( 'NONE',  ( 0.000000000000000000, 0.000000000000000000, 0.000000000000000000 ) ) ;
#161 = CIRCLE ( 'NONE', #110, 8.000000000000000000 ) ;
#162 = CYLINDRICAL_SURFACE ( 'NONE', #347, 8.000000000000000000 ) ;
#163 = DIRECTION ( 'NONE',  ( 1.000000000000000000, 0.000000000000000000, 0.000000000000000000 ) ) ;
#164 = CC_DESIGN_DATE_AND_TIME_ASSIGNMENT ( #270, #121, ( #190 ) ) ;
#165 = TOROIDAL_SURFACE ( 'NONE', #252, 5.500000000000000000, 0.5000000000000000000 ) ;
#166 = ADVANCED_FACE ( 'NONE', ( #137, #18 ), #40, .T. ) ;
#167 = CIRCLE ( 'NONE', #246, 2.500000000000000000 ) ;
#168 = CC_DESIGN_PERSON_AND_ORGANIZATION_ASSIGNMENT ( #191, #312, ( #237 ) ) ;
#169 = DIRECTION ( 'NONE',  ( -0.000000000000000000, -0.000000000000000000, -1.000000000000000000 ) ) ;
#170 = CIRCLE ( 'NONE', #379, 5.000000000000000000 ) ;
#171 = CARTESIAN_POINT ( 'NONE',  ( 0.000000000000000000, 0.000000000000000000, 305.0000000000000000 ) ) ;
#172 = AXIS2_PLACEMENT_3D ( 'NONE', #233, #59, #28 ) ;
#173 = FACE_BOUND ( 'NONE', #333, .T. ) ;
#174 = DIRECTION ( 'NONE',  ( 0.000000000000000000, 0.000000000000000000, 1.000000000000000000 ) ) ;
#175 = APPROVAL ( #380, 'NEURÈENÝ' ) ;
#176 = ORIENTED_EDGE ( 'NONE', *, *, #103, .T. ) ;
#177 = AXIS2_PLACEMENT_3D ( 'NONE', #271, #63, #33 ) ;
#178 = ORIENTED_EDGE ( 'NONE', *, *, #330, .T. ) ;
#179 = EDGE_CURVE ( 'NONE', #292, #146, #153, .T. ) ;
#180 = CIRCLE ( 'NONE', #254, 8.000000000000000000 ) ;
#181 = DIRECTION ( 'NONE',  ( 0.000000000000000000, 0.000000000000000000, -1.000000000000000000 ) ) ;
#182 = VERTEX_POINT ( 'NONE', #218 ) ;
#183 = PERSON_AND_ORGANIZATION_ROLE ( 'design_supplier' ) ;
#184 = ORIENTED_EDGE ( 'NONE', *, *, #319, .T. ) ;
#185 = PERSON_AND_ORGANIZATION_ROLE ( 'classification_officer' ) ;
#186 = LOCAL_TIME ( 17, 15, 53.00000000000000000, #13 ) ;
#187 = CARTESIAN_POINT ( 'NONE',  ( 0.000000000000000000, 0.000000000000000000, 5.000000000000000000 ) ) ;
#188 = PERSON_AND_ORGANIZATION_ROLE ( 'creator' ) ;
#189 = DIRECTION ( 'NONE',  ( 0.000000000000000000, 0.000000000000000000, 1.000000000000000000 ) ) ;
#190 = PRODUCT_DEFINITION ( 'NEZNÁMÝ', '', #116, #14 ) ;
#191 = PERSON_AND_ORGANIZATION ( #316, #197 ) ;
#192 = CARTESIAN_POINT ( 'NONE',  ( 0.000000000000000000, 0.000000000000000000, 305.0000000000000000 ) ) ;
#193 = DIRECTION ( 'NONE',  ( 1.000000000000000000, 0.000000000000000000, 0.000000000000000000 ) ) ;
#194 = LOCAL_TIME ( 17, 15, 53.00000000000000000, #354 ) ;
#195 = EDGE_CURVE ( 'NONE', #268, #182, #258, .T. ) ;
#196 = APPLICATION_CONTEXT ( 'configuration controlled 3d designs of mechanical parts and assemblies' ) ;
#197 = ORGANIZATION ( 'NEURÈENÝ', 'NEURÈENÝ', '' ) ;
#198 = EDGE_LOOP ( 'NONE', ( #352, #31, #332, #141 ) ) ;
#199 = FACE_OUTER_BOUND ( 'NONE', #82, .T. ) ;
#200 = ORIENTED_EDGE ( 'NONE', *, *, #57, .F. ) ;
#201 = ADVANCED_FACE ( 'NONE', ( #138 ), #162, .T. ) ;
#202 = MANIFOLD_SOLID_BREP ( 'Odebrat vysunutím3', #158 ) ;
#203 = CARTESIAN_POINT ( 'NONE',  ( 0.000000000000000000, 0.000000000000000000, 5.000000000000000000 ) ) ;
#204 = DIRECTION ( 'NONE',  ( -0.000000000000000000, -0.000000000000000000, -1.000000000000000000 ) ) ;
#205 = ORIENTED_EDGE ( 'NONE', *, *, #349, .T. ) ;
#206 = VECTOR ( 'NONE', #169, 1000.000000000000000 ) ;
#207 = EDGE_CURVE ( 'NONE', #146, #274, #211, .T. ) ;
#208 = ORIENTED_EDGE ( 'NONE', *, *, #306, .T. ) ;
#209 = ORIENTED_EDGE ( 'NONE', *, *, #207, .T. ) ;
#210 = VERTEX_POINT ( 'NONE', #366 ) ;
#211 = CIRCLE ( 'NONE', #140, 0.5000000000000004441 ) ;
#212 = ORIENTED_EDGE ( 'NONE', *, *, #195, .T. ) ;
#213 = CYLINDRICAL_SURFACE ( 'NONE', #346, 2.500000000000000000 ) ;
#214 = APPLICATION_PROTOCOL_DEFINITION ( 'international standard', 'config_control_design', 1994, #217 ) ;
#215 = FACE_OUTER_BOUND ( 'NONE', #357, .T. ) ;
#216 = PERSON_AND_ORGANIZATION ( #316, #197 ) ;
#217 = APPLICATION_CONTEXT ( 'configuration controlled 3d designs of mechanical parts and assemblies' ) ;
#218 = CARTESIAN_POINT ( 'NONE',  ( 8.000000000000000000, 9.797174393178825657E-16, 5.000000000000000000 ) ) ;
#219 = UNCERTAINTY_MEASURE_WITH_UNIT (LENGTH_MEASURE( 1.000000000000000082E-05 ), #113, 'distance_accuracy_value', 'NONE');
#220 = DIRECTION ( 'NONE',  ( 0.000000000000000000, 0.000000000000000000, 1.000000000000000000 ) ) ;
#221 = CARTESIAN_POINT ( 'NONE',  ( 0.000000000000000000, 0.000000000000000000, 5.000000000000000000 ) ) ;
#222 = CARTESIAN_POINT ( 'NONE',  ( -8.000000000000000000, 0.000000000000000000, 5.000000000000000000 ) ) ;
#223 = VECTOR ( 'NONE', #51, 1000.000000000000000 ) ;
#224 = EDGE_CURVE ( 'NONE', #274, #358, #25, .T. ) ;
#225 = CARTESIAN_POINT ( 'NONE',  ( 5.500000000000000000, 0.000000000000000000, 5.000000000000002665 ) ) ;
#226 = DIRECTION ( 'NONE',  ( 0.000000000000000000, 0.000000000000000000, 1.000000000000000000 ) ) ;
#227 = EDGE_LOOP ( 'NONE', ( #70, #89, #129, #376 ) ) ;
#228 = VECTOR ( 'NONE', #285, 1000.000000000000000 ) ;
#229 = CARTESIAN_POINT ( 'NONE',  ( -2.500000000000000000, 0.000000000000000000, 305.0000000000000000 ) ) ;
#230 = LOCAL_TIME ( 17, 15, 53.00000000000000000, #338 ) ;
#231 = CARTESIAN_POINT ( 'NONE',  ( 2.500000000000000000, 3.061616997868383141E-16, 305.0000000000000000 ) ) ;
#232 = ORIENTED_EDGE ( 'NONE', *, *, #355, .T. ) ;
#233 = CARTESIAN_POINT ( 'NONE',  ( 0.000000000000000000, 0.000000000000000000, 305.0000000000000000 ) ) ;
#234 = EDGE_LOOP ( 'NONE', ( #27, #200 ) ) ;
#235 = AXIS2_PLACEMENT_3D ( 'NONE', #249, #98, #128 ) ;
#236 = APPROVAL_DATE_TIME ( #92, #175 ) ;
#237 = PRODUCT ( 'ed46', 'ed46', '', ( #253 ) ) ;
#238 = ORIENTED_EDGE ( 'NONE', *, *, #73, .F. ) ;
#239 = AXIS2_PLACEMENT_3D ( 'NONE', #340, #371, #79 ) ;
#240 = EDGE_CURVE ( 'NONE', #322, #56, #180, .T. ) ;
#241 = APPROVAL_ROLE ( '' ) ;
#242 = CARTESIAN_POINT ( 'NONE',  ( 0.000000000000000000, 0.000000000000000000, 5.500000000000005329 ) ) ;
#243 = ORIENTED_EDGE ( 'NONE', *, *, #355, .F. ) ;
#244 = AXIS2_PLACEMENT_3D ( 'NONE', #4, #101, #93 ) ;
#245 = EDGE_LOOP ( 'NONE', ( #62, #232, #359, #208 ) ) ;
#246 = AXIS2_PLACEMENT_3D ( 'NONE', #321, #204, #291 ) ;
#247 = DIRECTION ( 'NONE',  ( 0.000000000000000000, 0.000000000000000000, 1.000000000000000000 ) ) ;
#248 = COORDINATED_UNIVERSAL_TIME_OFFSET ( 1, 0, .AHEAD. ) ;
#249 = CARTESIAN_POINT ( 'NONE',  ( 0.000000000000000000, 0.000000000000000000, 5.000000000000000000 ) ) ;
#250 = ADVANCED_FACE ( 'NONE', ( #365, #311 ), #109, .F. ) ;
#251 = DIRECTION ( 'NONE',  ( -1.000000000000000000, 0.000000000000000000, 0.000000000000000000 ) ) ;
#252 = AXIS2_PLACEMENT_3D ( 'NONE', #242, #247, #362 ) ;
#253 = MECHANICAL_CONTEXT ( 'NONE', #196, 'mechanical' ) ;
#254 = AXIS2_PLACEMENT_3D ( 'NONE', #160, #189, #281 ) ;
#255 = DIRECTION ( 'NONE',  ( 0.000000000000000000, 0.000000000000000000, 1.000000000000000000 ) ) ;
#256 = CARTESIAN_POINT ( 'NONE',  ( 0.000000000000000000, 0.000000000000000000, 5.000000000000000000 ) ) ;
#257 = DIRECTION ( 'NONE',  ( 0.000000000000000000, -1.000000000000000000, 0.000000000000000000 ) ) ;
#258 = CIRCLE ( 'NONE', #343, 8.000000000000000000 ) ;
#259 = CC_DESIGN_APPROVAL ( #290, ( #190 ) ) ;
#260 = FACE_OUTER_BOUND ( 'NONE', #363, .T. ) ;
#261 = PLANE ( 'NONE',  #287 ) ;
#262 = DIRECTION ( 'NONE',  ( 0.000000000000000000, 0.000000000000000000, 1.000000000000000000 ) ) ;
#263 = ORIENTED_EDGE ( 'NONE', *, *, #294, .F. ) ;
#264 = DIRECTION ( 'NONE',  ( 0.000000000000000000, 0.000000000000000000, 1.000000000000000000 ) ) ;
#265 = VECTOR ( 'NONE', #52, 1000.000000000000000 ) ;
#266 = CARTESIAN_POINT ( 'NONE',  ( -5.500000000000000000, 6.735557395310442023E-16, 5.000000000000002665 ) ) ;
#267 = PRODUCT_RELATED_PRODUCT_CATEGORY ( 'detail', '', ( #237 ) ) ;
#268 = VERTEX_POINT ( 'NONE', #222 ) ;
#269 = CARTESIAN_POINT ( 'NONE',  ( -5.000000000000000000, 0.000000000000000000, 305.0000000000000000 ) ) ;
#270 = DATE_AND_TIME ( #102, #284 ) ;
#271 = CARTESIAN_POINT ( 'NONE',  ( 0.000000000000000000, 0.000000000000000000, 0.000000000000000000 ) ) ;
#272 = LINE ( 'NONE', #65, #81 ) ;
#273 = EDGE_CURVE ( 'NONE', #320, #210, #276, .T. ) ;
#274 = VERTEX_POINT ( 'NONE', #225 ) ;
#275 = CYLINDRICAL_SURFACE ( 'NONE', #244, 2.500000000000000000 ) ;
#276 = CIRCLE ( 'NONE', #239, 2.500000000000000000 ) ;
#277 = DIRECTION ( 'NONE',  ( 0.000000000000000000, 0.000000000000000000, -1.000000000000000000 ) ) ;
#278 = CARTESIAN_POINT ( 'NONE',  ( 0.000000000000000000, 0.000000000000000000, 305.0000000000000000 ) ) ;
#279 = APPROVAL_STATUS ( 'not_yet_approved' ) ;
#280 = ADVANCED_BREP_SHAPE_REPRESENTATION ( 'ed46', ( #202, #314 ), #5 ) ;
#281 = DIRECTION ( 'NONE',  ( 1.000000000000000000, 0.000000000000000000, 0.000000000000000000 ) ) ;
#282 = PERSON_AND_ORGANIZATION ( #316, #197 ) ;
#283 = EDGE_CURVE ( 'NONE', #146, #292, #105, .T. ) ;
#284 = LOCAL_TIME ( 17, 15, 53.00000000000000000, #8 ) ;
#285 = DIRECTION ( 'NONE',  ( -0.000000000000000000, -0.000000000000000000, -1.000000000000000000 ) ) ;
#286 = CARTESIAN_POINT ( 'NONE',  ( 0.000000000000000000, 0.000000000000000000, 5.500000000000005329 ) ) ;
#287 = AXIS2_PLACEMENT_3D ( 'NONE', #142, #264, #145 ) ;
#288 =( NAMED_UNIT ( * ) PLANE_ANGLE_UNIT ( ) SI_UNIT ( $, .RADIAN. ) );
#289 = ORIENTED_EDGE ( 'NONE', *, *, #224, .T. ) ;
#290 = APPROVAL ( #44, 'NEURÈENÝ' ) ;
#291 = DIRECTION ( 'NONE',  ( 1.000000000000000000, 0.000000000000000000, 0.000000000000000000 ) ) ;
#292 = VERTEX_POINT ( 'NONE', #114 ) ;
#293 = DIRECTION ( 'NONE',  ( -1.000000000000000000, 1.224646799147351482E-16, 0.000000000000000000 ) ) ;
#294 = EDGE_CURVE ( 'NONE', #182, #268, #161, .T. ) ;
#295 = DIRECTION ( 'NONE',  ( 1.000000000000000000, 0.000000000000000000, 0.000000000000000000 ) ) ;
#296 = CC_DESIGN_APPROVAL ( #107, ( #381 ) ) ;
#297 = CARTESIAN_POINT ( 'NONE',  ( 8.000000000000000000, 9.797174393178825657E-16, 0.000000000000000000 ) ) ;
#298 = DATE_AND_TIME ( #159, #230 ) ;
#299 = EDGE_LOOP ( 'NONE', ( #212, #37 ) ) ;
#300 = FACE_OUTER_BOUND ( 'NONE', #115, .T. ) ;
#301 = VECTOR ( 'NONE', #378, 1000.000000000000000 ) ;
#302 = ADVANCED_FACE ( 'NONE', ( #173, #199 ), #261, .T. ) ;
#303 = DIRECTION ( 'NONE',  ( -1.000000000000000000, 0.000000000000000000, 0.000000000000000000 ) ) ;
#304 = FACE_OUTER_BOUND ( 'NONE', #245, .T. ) ;
#305 = CALENDAR_DATE ( 2022, 8, 7 ) ;
#306 = EDGE_CURVE ( 'NONE', #7, #149, #167, .T. ) ;
#307 = ORIENTED_EDGE ( 'NONE', *, *, #318, .T. ) ;
#308 = APPROVAL_ROLE ( '' ) ;
#309 = CARTESIAN_POINT ( 'NONE',  ( 5.000000000000000000, 6.123233995736766282E-16, 305.0000000000000000 ) ) ;
#310 = PERSON_AND_ORGANIZATION ( #316, #197 ) ;
#311 = FACE_OUTER_BOUND ( 'NONE', #53, .T. ) ;
#312 = PERSON_AND_ORGANIZATION_ROLE ( 'design_owner' ) ;
#313 = CARTESIAN_POINT ( 'NONE',  ( 5.000000000000000000, 6.123233995736766282E-16, 5.500000000000005329 ) ) ;
#314 = AXIS2_PLACEMENT_3D ( 'NONE', #100, #174, #328 ) ;
#315 = CARTESIAN_POINT ( 'NONE',  ( 0.000000000000000000, 0.000000000000000000, 5.500000000000005329 ) ) ;
#316 = PERSON ( 'NEURÈENÝ', 'NEURÈENÝ', 'NEURÈENÝ', ('NEURÈENÝ'), ('NEURÈENÝ'), ('NEURÈENÝ') ) ;
#317 = LINE ( 'NONE', #351, #223 ) ;
#318 = EDGE_CURVE ( 'NONE', #56, #322, #72, .T. ) ;
#319 = EDGE_CURVE ( 'NONE', #182, #322, #88, .T. ) ;
#320 = VERTEX_POINT ( 'NONE', #229 ) ;
#321 = CARTESIAN_POINT ( 'NONE',  ( 0.000000000000000000, 0.000000000000000000, 0.000000000000000000 ) ) ;
#322 = VERTEX_POINT ( 'NONE', #297 ) ;
#323 = DIRECTION ( 'NONE',  ( 0.000000000000000000, 0.000000000000000000, 1.000000000000000000 ) ) ;
#324 = ORIENTED_EDGE ( 'NONE', *, *, #73, .T. ) ;
#325 = DIRECTION ( 'NONE',  ( 1.224646799147353207E-16, 1.000000000000000000, -0.000000000000000000 ) ) ;
#326 = CIRCLE ( 'NONE', #96, 2.500000000000000000 ) ;
#327 = ORIENTED_EDGE ( 'NONE', *, *, #179, .F. ) ;
#328 = DIRECTION ( 'NONE',  ( 1.000000000000000000, 0.000000000000000000, 0.000000000000000000 ) ) ;
#329 = ORIENTED_EDGE ( 'NONE', *, *, #319, .F. ) ;
#330 = EDGE_CURVE ( 'NONE', #95, #35, #369, .T. ) ;
#331 = CARTESIAN_POINT ( 'NONE',  ( -5.000000000000000000, 0.000000000000000000, 305.0000000000000000 ) ) ;
#332 = ORIENTED_EDGE ( 'NONE', *, *, #360, .T. ) ;
#333 = EDGE_LOOP ( 'NONE', ( #125, #243 ) ) ;
#334 = EDGE_CURVE ( 'NONE', #95, #146, #317, .T. ) ;
#335 = CARTESIAN_POINT ( 'NONE',  ( 0.000000000000000000, 0.000000000000000000, 305.0000000000000000 ) ) ;
#336 = APPROVAL_ROLE ( '' ) ;
#337 = ORIENTED_EDGE ( 'NONE', *, *, #240, .F. ) ;
#338 = COORDINATED_UNIVERSAL_TIME_OFFSET ( 1, 0, .AHEAD. ) ;
#339 = CARTESIAN_POINT ( 'NONE',  ( 5.500000000000000000, 0.000000000000000000, 5.500000000000005329 ) ) ;
#340 = CARTESIAN_POINT ( 'NONE',  ( 0.000000000000000000, 0.000000000000000000, 305.0000000000000000 ) ) ;
#341 = EDGE_CURVE ( 'NONE', #210, #149, #119, .T. ) ;
#342 = LINE ( 'NONE', #16, #228 ) ;
#343 = AXIS2_PLACEMENT_3D ( 'NONE', #157, #131, #193 ) ;
#344 = CYLINDRICAL_SURFACE ( 'NONE', #30, 8.000000000000000000 ) ;
#345 = ADVANCED_FACE ( 'NONE', ( #350 ), #78, .F. ) ;
#346 = AXIS2_PLACEMENT_3D ( 'NONE', #335, #277, #303 ) ;
#347 = AXIS2_PLACEMENT_3D ( 'NONE', #256, #45, #251 ) ;
#348 = DIRECTION ( 'NONE',  ( 0.000000000000000000, 0.000000000000000000, 1.000000000000000000 ) ) ;
#349 = EDGE_CURVE ( 'NONE', #292, #358, #83, .T. ) ;
#350 = FACE_OUTER_BOUND ( 'NONE', #20, .T. ) ;
#351 = CARTESIAN_POINT ( 'NONE',  ( 5.000000000000000000, 6.123233995736766282E-16, 305.0000000000000000 ) ) ;
#352 = ORIENTED_EDGE ( 'NONE', *, *, #334, .F. ) ;
#353 = ADVANCED_FACE ( 'NONE', ( #375 ), #373, .T. ) ;
#354 = COORDINATED_UNIVERSAL_TIME_OFFSET ( 1, 0, .AHEAD. ) ;
#355 = EDGE_CURVE ( 'NONE', #210, #320, #326, .T. ) ;
#356 = CALENDAR_DATE ( 2022, 8, 7 ) ;
#357 = EDGE_LOOP ( 'NONE', ( #327, #205, #124, #151 ) ) ;
#358 = VERTEX_POINT ( 'NONE', #266 ) ;
#359 = ORIENTED_EDGE ( 'NONE', *, *, #6, .T. ) ;
#360 = EDGE_CURVE ( 'NONE', #35, #292, #147, .T. ) ;
#361 = APPROVAL_PERSON_ORGANIZATION ( #310, #107, #308 ) ;
#362 = DIRECTION ( 'NONE',  ( 1.000000000000000000, 0.000000000000000000, 0.000000000000000000 ) ) ;
#363 = EDGE_LOOP ( 'NONE', ( #329, #85, #324, #307 ) ) ;
#364 = APPROVAL_DATE_TIME ( #133, #107 ) ;
#365 = FACE_BOUND ( 'NONE', #234, .T. ) ;
#366 = CARTESIAN_POINT ( 'NONE',  ( 2.500000000000000000, 3.061616997868383141E-16, 305.0000000000000000 ) ) ;
#367 = DIRECTION ( 'NONE',  ( 1.000000000000000000, 0.000000000000000000, 0.000000000000000000 ) ) ;
#368 = CC_DESIGN_DATE_AND_TIME_ASSIGNMENT ( #36, #152, ( #381 ) ) ;
#369 = CIRCLE ( 'NONE', #90, 5.000000000000000000 ) ;
#370 = AXIS2_PLACEMENT_3D ( 'NONE', #108, #111, #367 ) ;
#371 = DIRECTION ( 'NONE',  ( 0.000000000000000000, 0.000000000000000000, 1.000000000000000000 ) ) ;
#372 = ORIENTED_EDGE ( 'NONE', *, *, #349, .F. ) ;
#373 = CYLINDRICAL_SURFACE ( 'NONE', #172, 5.000000000000000000 ) ;
#374 = LOCAL_TIME ( 17, 15, 53.00000000000000000, #248 ) ;
#375 = FACE_OUTER_BOUND ( 'NONE', #227, .T. ) ;
#376 = ORIENTED_EDGE ( 'NONE', *, *, #360, .F. ) ;
#377 = EDGE_LOOP ( 'NONE', ( #263, #184, #3, #238 ) ) ;
#378 = DIRECTION ( 'NONE',  ( -0.000000000000000000, -0.000000000000000000, -1.000000000000000000 ) ) ;
#379 = AXIS2_PLACEMENT_3D ( 'NONE', #278, #139, #9 ) ;
#380 = APPROVAL_STATUS ( 'not_yet_approved' ) ;
#381 = SECURITY_CLASSIFICATION ( '', '', #75 ) ;
ENDSEC;
END-ISO-10303-21;
