ISO-10303-21;
HEADER;
FILE_DESCRIPTION (( 'STEP AP203' ),
    '1' );
FILE_NAME ('92e0.STEP',
    '2022-07-08T14:25:18',
    ( '' ),
    ( '' ),
    'SwSTEP 2.0',
    'SolidWorks 2019',
    '' );
FILE_SCHEMA (( 'CONFIG_CONTROL_DESIGN' ));
ENDSEC;

DATA;
#1 = ORIENTED_EDGE ( 'NONE', *, *, #122, .T. ) ;
#2 = PERSON ( 'NEURÈENÝ', 'NEURÈENÝ', 'NEURÈENÝ', ('NEURÈENÝ'), ('NEURÈENÝ'), ('NEURÈENÝ') ) ;
#3 = CARTESIAN_POINT ( 'NONE',  ( 0.000000000000000000, 0.000000000000000000, 757.0000000000000000 ) ) ;
#4 = ORIENTED_EDGE ( 'NONE', *, *, #306, .F. ) ;
#5 = VERTEX_POINT ( 'NONE', #167 ) ;
#6 = APPROVAL ( #65, 'NEURÈENÝ' ) ;
#7 = ORIENTED_EDGE ( 'NONE', *, *, #209, .T. ) ;
#8 = AXIS2_PLACEMENT_3D ( 'NONE', #269, #91, #52 ) ;
#9 = CC_DESIGN_APPROVAL ( #6, ( #152 ) ) ;
#10 =( LENGTH_UNIT ( ) NAMED_UNIT ( * ) SI_UNIT ( .MILLI., .METRE. ) );
#11 = DIRECTION ( 'NONE',  ( 0.000000000000000000, 0.000000000000000000, -1.000000000000000000 ) ) ;
#12 = CARTESIAN_POINT ( 'NONE',  ( -10.00000000000000000, 0.000000000000000000, 7.000000000000000000 ) ) ;
#13 = APPROVAL_DATE_TIME ( #94, #6 ) ;
#14 = CARTESIAN_POINT ( 'NONE',  ( 0.000000000000000000, 0.000000000000000000, 7.000000000000000000 ) ) ;
#15 = DATE_AND_TIME ( #311, #344 ) ;
#16 = DATE_AND_TIME ( #203, #154 ) ;
#17 = CYLINDRICAL_SURFACE ( 'NONE', #128, 10.00000000000000000 ) ;
#18 = FACE_OUTER_BOUND ( 'NONE', #357, .T. ) ;
#19 = APPROVAL_DATE_TIME ( #16, #347 ) ;
#20 = APPROVAL ( #338, 'NEURÈENÝ' ) ;
#21 = CARTESIAN_POINT ( 'NONE',  ( 0.000000000000000000, 0.000000000000000000, 7.700000000000040146 ) ) ;
#22 = TOROIDAL_SURFACE ( 'NONE', #243, 6.700000000000001066, 0.6999999999999999556 ) ;
#23 = DIRECTION ( 'NONE',  ( 0.000000000000000000, 0.000000000000000000, -1.000000000000000000 ) ) ;
#24 = DIRECTION ( 'NONE',  ( -0.000000000000000000, -0.000000000000000000, -1.000000000000000000 ) ) ;
#25 = EDGE_CURVE ( 'NONE', #126, #294, #309, .T. ) ;
#26 = ORIENTED_EDGE ( 'NONE', *, *, #236, .T. ) ;
#27 = DIRECTION ( 'NONE',  ( -0.000000000000000000, -0.000000000000000000, -1.000000000000000000 ) ) ;
#28 = DIRECTION ( 'NONE',  ( 1.000000000000000000, 0.000000000000000000, 0.000000000000000000 ) ) ;
#29 = EDGE_LOOP ( 'NONE', ( #178, #55 ) ) ;
#30 = DIRECTION ( 'NONE',  ( 1.000000000000000000, 0.000000000000000000, 0.000000000000000000 ) ) ;
#31 = AXIS2_PLACEMENT_3D ( 'NONE', #34, #23, #54 ) ;
#32 = AXIS2_PLACEMENT_3D ( 'NONE', #21, #319, #200 ) ;
#33 = EDGE_LOOP ( 'NONE', ( #375, #216, #365, #261 ) ) ;
#34 = CARTESIAN_POINT ( 'NONE',  ( 0.000000000000000000, 0.000000000000000000, 757.0000000000000000 ) ) ;
#35 = ORIENTED_EDGE ( 'NONE', *, *, #236, .F. ) ;
#36 = ADVANCED_FACE ( 'NONE', ( #337 ), #99, .F. ) ;
#37 = VERTEX_POINT ( 'NONE', #12 ) ;
#38 = CARTESIAN_POINT ( 'NONE',  ( 6.700000000000001066, 0.000000000000000000, 7.700000000000040146 ) ) ;
#39 = CIRCLE ( 'NONE', #255, 4.500000000000000000 ) ;
#40 = DIRECTION ( 'NONE',  ( 0.000000000000000000, 0.000000000000000000, -1.000000000000000000 ) ) ;
#41 = CARTESIAN_POINT ( 'NONE',  ( 0.000000000000000000, 0.000000000000000000, 7.000000000000000000 ) ) ;
#42 = DIRECTION ( 'NONE',  ( 1.000000000000000000, 0.000000000000000000, 0.000000000000000000 ) ) ;
#43 = DATE_TIME_ROLE ( 'classification_date' ) ;
#44 = DIRECTION ( 'NONE',  ( -1.000000000000000000, 1.224646799147353454E-16, 0.000000000000000000 ) ) ;
#45 = CARTESIAN_POINT ( 'NONE',  ( 0.000000000000000000, 0.000000000000000000, 0.000000000000000000 ) ) ;
#46 = DIRECTION ( 'NONE',  ( 0.000000000000000000, 0.000000000000000000, 1.000000000000000000 ) ) ;
#47 = CIRCLE ( 'NONE', #350, 6.000000000000000888 ) ;
#48 = DIRECTION ( 'NONE',  ( 0.000000000000000000, 0.000000000000000000, 1.000000000000000000 ) ) ;
#49 = PERSON_AND_ORGANIZATION_ROLE ( 'classification_officer' ) ;
#50 = DIRECTION ( 'NONE',  ( 0.000000000000000000, 0.000000000000000000, 1.000000000000000000 ) ) ;
#51 = VERTEX_POINT ( 'NONE', #223 ) ;
#52 = DIRECTION ( 'NONE',  ( 1.000000000000000000, 0.000000000000000000, 0.000000000000000000 ) ) ;
#53 = CIRCLE ( 'NONE', #381, 4.500000000000000000 ) ;
#54 = DIRECTION ( 'NONE',  ( -1.000000000000000000, 0.000000000000000000, 0.000000000000000000 ) ) ;
#55 = ORIENTED_EDGE ( 'NONE', *, *, #330, .F. ) ;
#56 = ORIENTED_EDGE ( 'NONE', *, *, #209, .F. ) ;
#57 = CYLINDRICAL_SURFACE ( 'NONE', #31, 4.500000000000000000 ) ;
#58 = ORIENTED_EDGE ( 'NONE', *, *, #275, .T. ) ;
#59 = CARTESIAN_POINT ( 'NONE',  ( 6.000000000000000888, 7.347880794884120722E-16, 757.0000000000000000 ) ) ;
#60 = VERTEX_POINT ( 'NONE', #307 ) ;
#61 = EDGE_CURVE ( 'NONE', #233, #294, #273, .T. ) ;
#62 = ORIENTED_EDGE ( 'NONE', *, *, #299, .F. ) ;
#63 = EDGE_CURVE ( 'NONE', #268, #51, #196, .T. ) ;
#64 = CARTESIAN_POINT ( 'NONE',  ( -6.700000000000001066, 8.205133554287267548E-16, 7.700000000000040146 ) ) ;
#65 = APPROVAL_STATUS ( 'not_yet_approved' ) ;
#66 = AXIS2_PLACEMENT_3D ( 'NONE', #41, #166, #161 ) ;
#67 = VERTEX_POINT ( 'NONE', #133 ) ;
#68 = CARTESIAN_POINT ( 'NONE',  ( 10.00000000000000000, 1.224646799147353256E-15, 0.000000000000000000 ) ) ;
#69 = CARTESIAN_POINT ( 'NONE',  ( -4.500000000000000000, 0.000000000000000000, 757.0000000000000000 ) ) ;
#70 = ADVANCED_FACE ( 'NONE', ( #361 ), #22, .F. ) ;
#71 = APPROVAL_PERSON_ORGANIZATION ( #136, #20, #204 ) ;
#72 = PERSON_AND_ORGANIZATION ( #2, #134 ) ;
#73 = DIRECTION ( 'NONE',  ( 0.000000000000000000, 0.000000000000000000, 1.000000000000000000 ) ) ;
#74 = CARTESIAN_POINT ( 'NONE',  ( 0.000000000000000000, 0.000000000000000000, 0.000000000000000000 ) ) ;
#75 = COORDINATED_UNIVERSAL_TIME_OFFSET ( 1, 0, .AHEAD. ) ;
#76 = PLANE ( 'NONE',  #169 ) ;
#77 = AXIS2_PLACEMENT_3D ( 'NONE', #321, #291, #262 ) ;
#78 =( GEOMETRIC_REPRESENTATION_CONTEXT ( 3 ) GLOBAL_UNCERTAINTY_ASSIGNED_CONTEXT ( ( #186 ) ) GLOBAL_UNIT_ASSIGNED_CONTEXT ( ( #10, #98, #222 ) ) REPRESENTATION_CONTEXT ( 'NONE', 'WORKASPACE' ) );
#79 = PRODUCT_DEFINITION_FORMATION_WITH_SPECIFIED_SOURCE ( 'LIBOVOLNÝ', '', #267, .NOT_KNOWN. ) ;
#80 = DIRECTION ( 'NONE',  ( -0.000000000000000000, -0.000000000000000000, -1.000000000000000000 ) ) ;
#81 = CARTESIAN_POINT ( 'NONE',  ( 0.000000000000000000, 0.000000000000000000, 7.700000000000040146 ) ) ;
#82 = DIRECTION ( 'NONE',  ( -1.000000000000000000, 0.000000000000000000, 0.000000000000000000 ) ) ;
#83 = ADVANCED_FACE ( 'NONE', ( #345 ), #150, .T. ) ;
#84 = CARTESIAN_POINT ( 'NONE',  ( 6.000000000000000888, 7.347880794884120722E-16, 7.700000000000040146 ) ) ;
#85 = VECTOR ( 'NONE', #149, 1000.000000000000000 ) ;
#86 = CARTESIAN_POINT ( 'NONE',  ( 10.00000000000000000, 1.224646799147353256E-15, 7.000000000000000000 ) ) ;
#87 = ORIENTED_EDGE ( 'NONE', *, *, #122, .F. ) ;
#88 = LINE ( 'NONE', #235, #369 ) ;
#89 = CC_DESIGN_DATE_AND_TIME_ASSIGNMENT ( #305, #368, ( #152 ) ) ;
#90 = ORIENTED_EDGE ( 'NONE', *, *, #63, .F. ) ;
#91 = DIRECTION ( 'NONE',  ( 0.000000000000000000, 0.000000000000000000, 1.000000000000000000 ) ) ;
#92 = VECTOR ( 'NONE', #124, 1000.000000000000000 ) ;
#93 = VERTEX_POINT ( 'NONE', #68 ) ;
#94 = DATE_AND_TIME ( #157, #129 ) ;
#95 = ORIENTED_EDGE ( 'NONE', *, *, #173, .F. ) ;
#96 = EDGE_CURVE ( 'NONE', #126, #5, #288, .T. ) ;
#97 = APPLICATION_PROTOCOL_DEFINITION ( 'international standard', 'config_control_design', 1994, #277 ) ;
#98 =( NAMED_UNIT ( * ) PLANE_ANGLE_UNIT ( ) SI_UNIT ( $, .RADIAN. ) );
#99 = CYLINDRICAL_SURFACE ( 'NONE', #102, 4.500000000000000000 ) ;
#100 = ORIENTED_EDGE ( 'NONE', *, *, #135, .F. ) ;
#101 = EDGE_LOOP ( 'NONE', ( #270, #242, #304, #323 ) ) ;
#102 = AXIS2_PLACEMENT_3D ( 'NONE', #279, #165, #171 ) ;
#103 = APPROVAL_STATUS ( 'not_yet_approved' ) ;
#104 = DIRECTION ( 'NONE',  ( 1.000000000000000000, 0.000000000000000000, -0.000000000000000000 ) ) ;
#105 = VECTOR ( 'NONE', #27, 1000.000000000000000 ) ;
#106 = PERSON_AND_ORGANIZATION ( #2, #134 ) ;
#107 = FACE_OUTER_BOUND ( 'NONE', #156, .T. ) ;
#108 = DIRECTION ( 'NONE',  ( -0.000000000000000000, -0.000000000000000000, -1.000000000000000000 ) ) ;
#109 = PERSON_AND_ORGANIZATION_ROLE ( 'creator' ) ;
#110 = FACE_OUTER_BOUND ( 'NONE', #210, .T. ) ;
#111 = AXIS2_PLACEMENT_3D ( 'NONE', #64, #194, #44 ) ;
#112 = AXIS2_PLACEMENT_3D ( 'NONE', #228, #80, #315 ) ;
#113 = DIRECTION ( 'NONE',  ( 0.000000000000000000, 0.000000000000000000, 1.000000000000000000 ) ) ;
#114 = ORIENTED_EDGE ( 'NONE', *, *, #135, .T. ) ;
#115 = DESIGN_CONTEXT ( 'detailed design', #318, 'design' ) ;
#116 = LINE ( 'NONE', #86, #85 ) ;
#117 = AXIS2_PLACEMENT_3D ( 'NONE', #195, #366, #332 ) ;
#118 = ORIENTED_EDGE ( 'NONE', *, *, #367, .T. ) ;
#119 = AXIS2_PLACEMENT_3D ( 'NONE', #74, #50, #343 ) ;
#120 = DIRECTION ( 'NONE',  ( 0.000000000000000000, 0.000000000000000000, 1.000000000000000000 ) ) ;
#121 = APPROVAL_PERSON_ORGANIZATION ( #72, #347, #201 ) ;
#122 = EDGE_CURVE ( 'NONE', #322, #159, #310, .T. ) ;
#123 = ORIENTED_EDGE ( 'NONE', *, *, #146, .F. ) ;
#124 = DIRECTION ( 'NONE',  ( -0.000000000000000000, -0.000000000000000000, -1.000000000000000000 ) ) ;
#125 = CIRCLE ( 'NONE', #142, 10.00000000000000000 ) ;
#126 = VERTEX_POINT ( 'NONE', #164 ) ;
#127 = PERSON_AND_ORGANIZATION ( #2, #134 ) ;
#128 = AXIS2_PLACEMENT_3D ( 'NONE', #370, #108, #82 ) ;
#129 = LOCAL_TIME ( 16, 25, 18.00000000000000000, #280 ) ;
#130 = ORIENTED_EDGE ( 'NONE', *, *, #379, .F. ) ;
#131 = CC_DESIGN_PERSON_AND_ORGANIZATION_ASSIGNMENT ( #106, #109, ( #79 ) ) ;
#132 = CARTESIAN_POINT ( 'NONE',  ( 0.000000000000000000, 0.000000000000000000, 757.0000000000000000 ) ) ;
#133 = CARTESIAN_POINT ( 'NONE',  ( -6.000000000000000888, 0.000000000000000000, 757.0000000000000000 ) ) ;
#134 = ORGANIZATION ( 'NEURÈENÝ', 'NEURÈENÝ', '' ) ;
#135 = EDGE_CURVE ( 'NONE', #37, #60, #125, .T. ) ;
#136 = PERSON_AND_ORGANIZATION ( #2, #134 ) ;
#137 = CYLINDRICAL_SURFACE ( 'NONE', #112, 6.000000000000000888 ) ;
#138 = EDGE_CURVE ( 'NONE', #5, #233, #252, .T. ) ;
#139 = AXIS2_PLACEMENT_3D ( 'NONE', #266, #120, #353 ) ;
#140 = SECURITY_CLASSIFICATION_LEVEL ( 'unclassified' ) ;
#141 = PLANE ( 'NONE',  #362 ) ;
#142 = AXIS2_PLACEMENT_3D ( 'NONE', #308, #276, #42 ) ;
#143 = EDGE_LOOP ( 'NONE', ( #58, #326 ) ) ;
#144 = CIRCLE ( 'NONE', #8, 6.000000000000000888 ) ;
#145 = CARTESIAN_POINT ( 'NONE',  ( 0.000000000000000000, 0.000000000000000000, 7.000000000000000000 ) ) ;
#146 = EDGE_CURVE ( 'NONE', #93, #212, #372, .T. ) ;
#147 = CARTESIAN_POINT ( 'NONE',  ( -6.000000000000000888, 0.000000000000000000, 7.700000000000040146 ) ) ;
#148 = ORIENTED_EDGE ( 'NONE', *, *, #275, .F. ) ;
#149 = DIRECTION ( 'NONE',  ( -0.000000000000000000, -0.000000000000000000, -1.000000000000000000 ) ) ;
#150 = CYLINDRICAL_SURFACE ( 'NONE', #66, 10.00000000000000000 ) ;
#151 = ORIENTED_EDGE ( 'NONE', *, *, #173, .T. ) ;
#152 = PRODUCT_DEFINITION ( 'NEZNÁMÝ', '', #79, #115 ) ;
#153 = CIRCLE ( 'NONE', #214, 10.00000000000000000 ) ;
#154 = LOCAL_TIME ( 16, 25, 18.00000000000000000, #75 ) ;
#155 = ORIENTED_EDGE ( 'NONE', *, *, #363, .F. ) ;
#156 = EDGE_LOOP ( 'NONE', ( #272, #123 ) ) ;
#157 = CALENDAR_DATE ( 2022, 8, 7 ) ;
#158 = ADVANCED_FACE ( 'NONE', ( #18 ), #137, .T. ) ;
#159 = VERTEX_POINT ( 'NONE', #314 ) ;
#160 = AXIS2_PLACEMENT_3D ( 'NONE', #376, #293, #348 ) ;
#161 = DIRECTION ( 'NONE',  ( -1.000000000000000000, 0.000000000000000000, 0.000000000000000000 ) ) ;
#162 = DIRECTION ( 'NONE',  ( 0.000000000000000000, -1.000000000000000000, 0.000000000000000000 ) ) ;
#163 = DIRECTION ( 'NONE',  ( 0.000000000000000000, 0.000000000000000000, 1.000000000000000000 ) ) ;
#164 = CARTESIAN_POINT ( 'NONE',  ( -4.500000000000000000, 0.000000000000000000, 757.0000000000000000 ) ) ;
#165 = DIRECTION ( 'NONE',  ( 0.000000000000000000, 0.000000000000000000, -1.000000000000000000 ) ) ;
#166 = DIRECTION ( 'NONE',  ( -0.000000000000000000, -0.000000000000000000, -1.000000000000000000 ) ) ;
#167 = CARTESIAN_POINT ( 'NONE',  ( 4.500000000000000000, 5.510910596163088569E-16, 757.0000000000000000 ) ) ;
#168 = CC_DESIGN_PERSON_AND_ORGANIZATION_ASSIGNMENT ( #218, #192, ( #152 ) ) ;
#169 = AXIS2_PLACEMENT_3D ( 'NONE', #45, #202, #104 ) ;
#170 = SHAPE_DEFINITION_REPRESENTATION ( #219, #313 ) ;
#171 = DIRECTION ( 'NONE',  ( -1.000000000000000000, 0.000000000000000000, 0.000000000000000000 ) ) ;
#172 = PLANE ( 'NONE',  #292 ) ;
#173 = EDGE_CURVE ( 'NONE', #60, #37, #153, .T. ) ;
#174 = FACE_OUTER_BOUND ( 'NONE', #248, .T. ) ;
#175 = DIRECTION ( 'NONE',  ( 1.000000000000000000, 0.000000000000000000, -0.000000000000000000 ) ) ;
#176 = CARTESIAN_POINT ( 'NONE',  ( 0.000000000000000000, 0.000000000000000000, 7.700000000000040146 ) ) ;
#177 = DIRECTION ( 'NONE',  ( 0.000000000000000000, 0.000000000000000000, 1.000000000000000000 ) ) ;
#178 = ORIENTED_EDGE ( 'NONE', *, *, #96, .F. ) ;
#179 = TOROIDAL_SURFACE ( 'NONE', #32, 6.700000000000001066, 0.6999999999999999556 ) ;
#180 = CARTESIAN_POINT ( 'NONE',  ( 6.000000000000000888, 7.347880794884120722E-16, 757.0000000000000000 ) ) ;
#181 = CARTESIAN_POINT ( 'NONE',  ( -6.000000000000000888, 0.000000000000000000, 757.0000000000000000 ) ) ;
#182 = CC_DESIGN_DATE_AND_TIME_ASSIGNMENT ( #283, #43, ( #301 ) ) ;
#183 = ORIENTED_EDGE ( 'NONE', *, *, #290, .F. ) ;
#184 = DIRECTION ( 'NONE',  ( -0.000000000000000000, -0.000000000000000000, -1.000000000000000000 ) ) ;
#185 = EDGE_LOOP ( 'NONE', ( #87, #356, #351, #62 ) ) ;
#186 = UNCERTAINTY_MEASURE_WITH_UNIT (LENGTH_MEASURE( 1.000000000000000082E-05 ), #10, 'distance_accuracy_value', 'NONE');
#187 = LOCAL_TIME ( 16, 25, 18.00000000000000000, #227 ) ;
#188 = ORIENTED_EDGE ( 'NONE', *, *, #191, .T. ) ;
#189 = DIRECTION ( 'NONE',  ( 1.000000000000000000, 0.000000000000000000, 0.000000000000000000 ) ) ;
#190 = ORIENTED_EDGE ( 'NONE', *, *, #61, .F. ) ;
#191 = EDGE_CURVE ( 'NONE', #212, #93, #246, .T. ) ;
#192 = PERSON_AND_ORGANIZATION_ROLE ( 'creator' ) ;
#193 = MECHANICAL_CONTEXT ( 'NONE', #277, 'mechanical' ) ;
#194 = DIRECTION ( 'NONE',  ( 1.224646799147353207E-16, 1.000000000000000000, -0.000000000000000000 ) ) ;
#195 = CARTESIAN_POINT ( 'NONE',  ( 0.000000000000000000, 0.000000000000000000, 0.000000000000000000 ) ) ;
#196 = CIRCLE ( 'NONE', #207, 0.7000000000000000666 ) ;
#197 = COORDINATED_UNIVERSAL_TIME_OFFSET ( 1, 0, .AHEAD. ) ;
#198 = DIRECTION ( 'NONE',  ( 0.000000000000000000, 0.000000000000000000, -1.000000000000000000 ) ) ;
#199 = ADVANCED_FACE ( 'NONE', ( #317, #107 ), #76, .F. ) ;
#200 = DIRECTION ( 'NONE',  ( 1.000000000000000000, 0.000000000000000000, 0.000000000000000000 ) ) ;
#201 = APPROVAL_ROLE ( '' ) ;
#202 = DIRECTION ( 'NONE',  ( 0.000000000000000000, 0.000000000000000000, 1.000000000000000000 ) ) ;
#203 = CALENDAR_DATE ( 2022, 8, 7 ) ;
#204 = APPROVAL_ROLE ( '' ) ;
#205 = FACE_BOUND ( 'NONE', #143, .T. ) ;
#206 = FACE_OUTER_BOUND ( 'NONE', #185, .T. ) ;
#207 = AXIS2_PLACEMENT_3D ( 'NONE', #38, #162, #11 ) ;
#208 = AXIS2_PLACEMENT_3D ( 'NONE', #176, #73, #371 ) ;
#209 = EDGE_CURVE ( 'NONE', #322, #268, #373, .T. ) ;
#210 = EDGE_LOOP ( 'NONE', ( #114, #151 ) ) ;
#211 = CARTESIAN_POINT ( 'NONE',  ( 0.000000000000000000, 0.000000000000000000, 757.0000000000000000 ) ) ;
#212 = VERTEX_POINT ( 'NONE', #254 ) ;
#213 = EDGE_LOOP ( 'NONE', ( #56, #1, #148, #90 ) ) ;
#214 = AXIS2_PLACEMENT_3D ( 'NONE', #257, #46, #374 ) ;
#215 = CARTESIAN_POINT ( 'NONE',  ( 0.000000000000000000, 0.000000000000000000, 0.000000000000000000 ) ) ;
#216 = ORIENTED_EDGE ( 'NONE', *, *, #138, .T. ) ;
#217 = ADVANCED_FACE ( 'NONE', ( #174 ), #17, .T. ) ;
#218 = PERSON_AND_ORGANIZATION ( #2, #134 ) ;
#219 = PRODUCT_DEFINITION_SHAPE ( 'NONE', 'NONE',  #152 ) ;
#220 = ADVANCED_FACE ( 'NONE', ( #205, #110 ), #172, .T. ) ;
#221 = CIRCLE ( 'NONE', #139, 6.000000000000000888 ) ;
#222 =( NAMED_UNIT ( * ) SI_UNIT ( $, .STERADIAN. ) SOLID_ANGLE_UNIT ( ) );
#223 = CARTESIAN_POINT ( 'NONE',  ( 6.700000000000001066, 0.000000000000000000, 7.000000000000020428 ) ) ;
#224 = ADVANCED_FACE ( 'NONE', ( #231, #234 ), #141, .T. ) ;
#225 = VECTOR ( 'NONE', #40, 1000.000000000000000 ) ;
#226 = AXIS2_PLACEMENT_3D ( 'NONE', #145, #184, #302 ) ;
#227 = COORDINATED_UNIVERSAL_TIME_OFFSET ( 1, 0, .AHEAD. ) ;
#228 = CARTESIAN_POINT ( 'NONE',  ( 0.000000000000000000, 0.000000000000000000, 757.0000000000000000 ) ) ;
#229 = DIRECTION ( 'NONE',  ( 1.000000000000000000, 0.000000000000000000, 0.000000000000000000 ) ) ;
#230 = APPROVAL_DATE_TIME ( #15, #20 ) ;
#231 = FACE_BOUND ( 'NONE', #29, .T. ) ;
#232 = ADVANCED_FACE ( 'NONE', ( #206 ), #179, .F. ) ;
#233 = VERTEX_POINT ( 'NONE', #287 ) ;
#234 = FACE_OUTER_BOUND ( 'NONE', #241, .T. ) ;
#235 = CARTESIAN_POINT ( 'NONE',  ( -10.00000000000000000, 0.000000000000000000, 7.000000000000000000 ) ) ;
#236 = EDGE_CURVE ( 'NONE', #265, #268, #238, .T. ) ;
#237 = CLOSED_SHELL ( 'NONE', ( #245, #70, #158, #217, #83, #220, #199, #285, #224, #232, #36 ) ) ;
#238 = LINE ( 'NONE', #59, #92 ) ;
#239 = ORIENTED_EDGE ( 'NONE', *, *, #363, .T. ) ;
#240 = FACE_OUTER_BOUND ( 'NONE', #33, .T. ) ;
#241 = EDGE_LOOP ( 'NONE', ( #298, #378 ) ) ;
#242 = ORIENTED_EDGE ( 'NONE', *, *, #330, .T. ) ;
#243 = AXIS2_PLACEMENT_3D ( 'NONE', #81, #177, #28 ) ;
#244 = FACE_OUTER_BOUND ( 'NONE', #359, .T. ) ;
#245 = ADVANCED_FACE ( 'NONE', ( #240 ), #57, .F. ) ;
#246 = CIRCLE ( 'NONE', #327, 10.00000000000000000 ) ;
#247 = APPROVAL_ROLE ( '' ) ;
#248 = EDGE_LOOP ( 'NONE', ( #95, #239, #320, #4 ) ) ;
#249 = CARTESIAN_POINT ( 'NONE',  ( 0.000000000000000000, 0.000000000000000000, 0.000000000000000000 ) ) ;
#250 = CC_DESIGN_PERSON_AND_ORGANIZATION_ASSIGNMENT ( #342, #49, ( #301 ) ) ;
#251 = CIRCLE ( 'NONE', #160, 6.700000000000001066 ) ;
#252 = LINE ( 'NONE', #364, #325 ) ;
#253 = CARTESIAN_POINT ( 'NONE',  ( 0.000000000000000000, 0.000000000000000000, 0.000000000000000000 ) ) ;
#254 = CARTESIAN_POINT ( 'NONE',  ( -10.00000000000000000, 0.000000000000000000, 0.000000000000000000 ) ) ;
#255 = AXIS2_PLACEMENT_3D ( 'NONE', #3, #264, #377 ) ;
#256 = LOCAL_TIME ( 16, 25, 18.00000000000000000, #331 ) ;
#257 = CARTESIAN_POINT ( 'NONE',  ( 0.000000000000000000, 0.000000000000000000, 7.000000000000000000 ) ) ;
#258 = CALENDAR_DATE ( 2022, 8, 7 ) ;
#259 = PERSON_AND_ORGANIZATION ( #2, #134 ) ;
#260 = APPROVAL_PERSON_ORGANIZATION ( #127, #6, #247 ) ;
#261 = ORIENTED_EDGE ( 'NONE', *, *, #25, .F. ) ;
#262 = DIRECTION ( 'NONE',  ( -1.000000000000000000, 0.000000000000000000, 0.000000000000000000 ) ) ;
#263 = EDGE_CURVE ( 'NONE', #67, #265, #144, .T. ) ;
#264 = DIRECTION ( 'NONE',  ( 0.000000000000000000, 0.000000000000000000, 1.000000000000000000 ) ) ;
#265 = VERTEX_POINT ( 'NONE', #180 ) ;
#266 = CARTESIAN_POINT ( 'NONE',  ( 0.000000000000000000, 0.000000000000000000, 7.700000000000040146 ) ) ;
#267 = PRODUCT ( '92e0', '92e0', '', ( #193 ) ) ;
#268 = VERTEX_POINT ( 'NONE', #84 ) ;
#269 = CARTESIAN_POINT ( 'NONE',  ( 0.000000000000000000, 0.000000000000000000, 757.0000000000000000 ) ) ;
#270 = ORIENTED_EDGE ( 'NONE', *, *, #138, .F. ) ;
#271 = DIRECTION ( 'NONE',  ( -0.000000000000000000, -0.000000000000000000, -1.000000000000000000 ) ) ;
#272 = ORIENTED_EDGE ( 'NONE', *, *, #191, .F. ) ;
#273 = CIRCLE ( 'NONE', #117, 4.500000000000000000 ) ;
#274 = ORIENTED_EDGE ( 'NONE', *, *, #263, .F. ) ;
#275 = EDGE_CURVE ( 'NONE', #51, #159, #335, .T. ) ;
#276 = DIRECTION ( 'NONE',  ( 0.000000000000000000, 0.000000000000000000, 1.000000000000000000 ) ) ;
#277 = APPLICATION_CONTEXT ( 'configuration controlled 3d designs of mechanical parts and assemblies' ) ;
#278 = DIRECTION ( 'NONE',  ( 1.000000000000000000, 0.000000000000000000, 0.000000000000000000 ) ) ;
#279 = CARTESIAN_POINT ( 'NONE',  ( 0.000000000000000000, 0.000000000000000000, 757.0000000000000000 ) ) ;
#280 = COORDINATED_UNIVERSAL_TIME_OFFSET ( 1, 0, .AHEAD. ) ;
#281 = CC_DESIGN_APPROVAL ( #347, ( #301 ) ) ;
#282 = EDGE_CURVE ( 'NONE', #294, #233, #53, .T. ) ;
#283 = DATE_AND_TIME ( #258, #187 ) ;
#284 = CC_DESIGN_APPROVAL ( #20, ( #79 ) ) ;
#285 = ADVANCED_FACE ( 'NONE', ( #244 ), #355, .T. ) ;
#286 = DIRECTION ( 'NONE',  ( 0.000000000000000000, 0.000000000000000000, 1.000000000000000000 ) ) ;
#287 = CARTESIAN_POINT ( 'NONE',  ( 4.500000000000000000, 5.510910596163088569E-16, 0.000000000000000000 ) ) ;
#288 = CIRCLE ( 'NONE', #333, 4.500000000000000000 ) ;
#289 = ORIENTED_EDGE ( 'NONE', *, *, #282, .F. ) ;
#290 = EDGE_CURVE ( 'NONE', #67, #322, #380, .T. ) ;
#291 = DIRECTION ( 'NONE',  ( -0.000000000000000000, -0.000000000000000000, -1.000000000000000000 ) ) ;
#292 = AXIS2_PLACEMENT_3D ( 'NONE', #14, #48, #175 ) ;
#293 = DIRECTION ( 'NONE',  ( -0.000000000000000000, -0.000000000000000000, -1.000000000000000000 ) ) ;
#294 = VERTEX_POINT ( 'NONE', #295 ) ;
#295 = CARTESIAN_POINT ( 'NONE',  ( -4.500000000000000000, 0.000000000000000000, 0.000000000000000000 ) ) ;
#296 = ORIENTED_EDGE ( 'NONE', *, *, #306, .T. ) ;
#297 = DIRECTION ( 'NONE',  ( 0.000000000000000000, 0.000000000000000000, 1.000000000000000000 ) ) ;
#298 = ORIENTED_EDGE ( 'NONE', *, *, #263, .T. ) ;
#299 = EDGE_CURVE ( 'NONE', #159, #51, #251, .T. ) ;
#300 = AXIS2_PLACEMENT_3D ( 'NONE', #249, #163, #189 ) ;
#301 = SECURITY_CLASSIFICATION ( '', '', #140 ) ;
#302 = DIRECTION ( 'NONE',  ( 1.000000000000000000, 0.000000000000000000, 0.000000000000000000 ) ) ;
#303 = EDGE_LOOP ( 'NONE', ( #155, #100, #296, #188 ) ) ;
#304 = ORIENTED_EDGE ( 'NONE', *, *, #25, .T. ) ;
#305 = DATE_AND_TIME ( #328, #256 ) ;
#306 = EDGE_CURVE ( 'NONE', #37, #212, #88, .T. ) ;
#307 = CARTESIAN_POINT ( 'NONE',  ( 10.00000000000000000, 1.224646799147353256E-15, 7.000000000000000000 ) ) ;
#308 = CARTESIAN_POINT ( 'NONE',  ( 0.000000000000000000, 0.000000000000000000, 7.000000000000000000 ) ) ;
#309 = LINE ( 'NONE', #69, #225 ) ;
#310 = CIRCLE ( 'NONE', #111, 0.7000000000000000666 ) ;
#311 = CALENDAR_DATE ( 2022, 8, 7 ) ;
#312 = CC_DESIGN_SECURITY_CLASSIFICATION ( #301, ( #79 ) ) ;
#313 = ADVANCED_BREP_SHAPE_REPRESENTATION ( '92e0', ( #324, #300 ), #78 ) ;
#314 = CARTESIAN_POINT ( 'NONE',  ( -6.700000000000001066, 8.205133554287267548E-16, 7.000000000000020428 ) ) ;
#315 = DIRECTION ( 'NONE',  ( -1.000000000000000000, 0.000000000000000000, 0.000000000000000000 ) ) ;
#316 = CC_DESIGN_PERSON_AND_ORGANIZATION_ASSIGNMENT ( #259, #339, ( #79 ) ) ;
#317 = FACE_BOUND ( 'NONE', #354, .T. ) ;
#318 = APPLICATION_CONTEXT ( 'configuration controlled 3d designs of mechanical parts and assemblies' ) ;
#319 = DIRECTION ( 'NONE',  ( 0.000000000000000000, 0.000000000000000000, 1.000000000000000000 ) ) ;
#320 = ORIENTED_EDGE ( 'NONE', *, *, #146, .T. ) ;
#321 = CARTESIAN_POINT ( 'NONE',  ( 0.000000000000000000, 0.000000000000000000, 757.0000000000000000 ) ) ;
#322 = VERTEX_POINT ( 'NONE', #147 ) ;
#323 = ORIENTED_EDGE ( 'NONE', *, *, #282, .T. ) ;
#324 = MANIFOLD_SOLID_BREP ( 'Odebrat vysunutím3', #237 ) ;
#325 = VECTOR ( 'NONE', #198, 1000.000000000000000 ) ;
#326 = ORIENTED_EDGE ( 'NONE', *, *, #299, .T. ) ;
#327 = AXIS2_PLACEMENT_3D ( 'NONE', #253, #113, #229 ) ;
#328 = CALENDAR_DATE ( 2022, 8, 7 ) ;
#329 = ORIENTED_EDGE ( 'NONE', *, *, #290, .T. ) ;
#330 = EDGE_CURVE ( 'NONE', #5, #126, #39, .T. ) ;
#331 = COORDINATED_UNIVERSAL_TIME_OFFSET ( 1, 0, .AHEAD. ) ;
#332 = DIRECTION ( 'NONE',  ( 1.000000000000000000, 0.000000000000000000, 0.000000000000000000 ) ) ;
#333 = AXIS2_PLACEMENT_3D ( 'NONE', #132, #334, #278 ) ;
#334 = DIRECTION ( 'NONE',  ( 0.000000000000000000, 0.000000000000000000, 1.000000000000000000 ) ) ;
#335 = CIRCLE ( 'NONE', #226, 6.700000000000001066 ) ;
#336 = PERSON_AND_ORGANIZATION ( #2, #134 ) ;
#337 = FACE_OUTER_BOUND ( 'NONE', #101, .T. ) ;
#338 = APPROVAL_STATUS ( 'not_yet_approved' ) ;
#339 = PERSON_AND_ORGANIZATION_ROLE ( 'design_supplier' ) ;
#340 = CARTESIAN_POINT ( 'NONE',  ( 0.000000000000000000, 0.000000000000000000, 757.0000000000000000 ) ) ;
#341 = CC_DESIGN_PERSON_AND_ORGANIZATION_ASSIGNMENT ( #336, #358, ( #267 ) ) ;
#342 = PERSON_AND_ORGANIZATION ( #2, #134 ) ;
#343 = DIRECTION ( 'NONE',  ( 1.000000000000000000, 0.000000000000000000, 0.000000000000000000 ) ) ;
#344 = LOCAL_TIME ( 16, 25, 18.00000000000000000, #197 ) ;
#345 = FACE_OUTER_BOUND ( 'NONE', #303, .T. ) ;
#346 = DIRECTION ( 'NONE',  ( 1.000000000000000000, 0.000000000000000000, -0.000000000000000000 ) ) ;
#347 = APPROVAL ( #103, 'NEURÈENÝ' ) ;
#348 = DIRECTION ( 'NONE',  ( 1.000000000000000000, 0.000000000000000000, 0.000000000000000000 ) ) ;
#349 = DIRECTION ( 'NONE',  ( 1.000000000000000000, 0.000000000000000000, 0.000000000000000000 ) ) ;
#350 = AXIS2_PLACEMENT_3D ( 'NONE', #211, #297, #30 ) ;
#351 = ORIENTED_EDGE ( 'NONE', *, *, #63, .T. ) ;
#352 = PRODUCT_RELATED_PRODUCT_CATEGORY ( 'detail', '', ( #267 ) ) ;
#353 = DIRECTION ( 'NONE',  ( 1.000000000000000000, 0.000000000000000000, 0.000000000000000000 ) ) ;
#354 = EDGE_LOOP ( 'NONE', ( #289, #190 ) ) ;
#355 = CYLINDRICAL_SURFACE ( 'NONE', #77, 6.000000000000000888 ) ;
#356 = ORIENTED_EDGE ( 'NONE', *, *, #367, .F. ) ;
#357 = EDGE_LOOP ( 'NONE', ( #130, #26, #118, #183 ) ) ;
#358 = PERSON_AND_ORGANIZATION_ROLE ( 'design_owner' ) ;
#359 = EDGE_LOOP ( 'NONE', ( #35, #274, #329, #7 ) ) ;
#360 = APPLICATION_PROTOCOL_DEFINITION ( 'international standard', 'config_control_design', 1994, #318 ) ;
#361 = FACE_OUTER_BOUND ( 'NONE', #213, .T. ) ;
#362 = AXIS2_PLACEMENT_3D ( 'NONE', #340, #286, #346 ) ;
#363 = EDGE_CURVE ( 'NONE', #60, #93, #116, .T. ) ;
#364 = CARTESIAN_POINT ( 'NONE',  ( 4.500000000000000000, 5.510910596163088569E-16, 757.0000000000000000 ) ) ;
#365 = ORIENTED_EDGE ( 'NONE', *, *, #61, .T. ) ;
#366 = DIRECTION ( 'NONE',  ( -0.000000000000000000, -0.000000000000000000, -1.000000000000000000 ) ) ;
#367 = EDGE_CURVE ( 'NONE', #268, #322, #221, .T. ) ;
#368 = DATE_TIME_ROLE ( 'creation_date' ) ;
#369 = VECTOR ( 'NONE', #24, 1000.000000000000000 ) ;
#370 = CARTESIAN_POINT ( 'NONE',  ( 0.000000000000000000, 0.000000000000000000, 7.000000000000000000 ) ) ;
#371 = DIRECTION ( 'NONE',  ( 1.000000000000000000, 0.000000000000000000, 0.000000000000000000 ) ) ;
#372 = CIRCLE ( 'NONE', #119, 10.00000000000000000 ) ;
#373 = CIRCLE ( 'NONE', #208, 6.000000000000000888 ) ;
#374 = DIRECTION ( 'NONE',  ( 1.000000000000000000, 0.000000000000000000, 0.000000000000000000 ) ) ;
#375 = ORIENTED_EDGE ( 'NONE', *, *, #96, .T. ) ;
#376 = CARTESIAN_POINT ( 'NONE',  ( 0.000000000000000000, 0.000000000000000000, 7.000000000000000000 ) ) ;
#377 = DIRECTION ( 'NONE',  ( 1.000000000000000000, 0.000000000000000000, 0.000000000000000000 ) ) ;
#378 = ORIENTED_EDGE ( 'NONE', *, *, #379, .T. ) ;
#379 = EDGE_CURVE ( 'NONE', #265, #67, #47, .T. ) ;
#380 = LINE ( 'NONE', #181, #105 ) ;
#381 = AXIS2_PLACEMENT_3D ( 'NONE', #215, #271, #349 ) ;
ENDSEC;
END-ISO-10303-21;
